ISO-10303-21;
HEADER;
/* Generated by software containing ST-Developer
 * from STEP Tools, Inc. (www.steptools.com) 
 */
/* OPTION: using custom schema-name function */

FILE_DESCRIPTION(
/* description */ (''),
/* implementation_level */ '2;1');

FILE_NAME(
/* name */ 'VDI.50-A2.098.400.stp',
/* time_stamp */ '2024-10-02T09:49:33+02:00',
/* author */ (''),
/* organization */ (''),
/* preprocessor_version */ 'ST-DEVELOPER v16.7',
/* originating_system */ 'SIEMENS PLM Software NX 12.0',
/* authorisation */ '');

FILE_SCHEMA (('AUTOMOTIVE_DESIGN { 1 0 10303 214 3 1 1 1 }'));
ENDSEC;

DATA;
#10=CONSTRUCTIVE_GEOMETRY_REPRESENTATION_RELATIONSHIP(
'supplemental geometry','',#32,#11);
#11=CONSTRUCTIVE_GEOMETRY_REPRESENTATION('supplemental geometry',(#152,
#153,#154),#244);
#12=PROPERTY_DEFINITION_REPRESENTATION(#16,#14);
#13=PROPERTY_DEFINITION_REPRESENTATION(#17,#15);
#14=REPRESENTATION('',(#18),#244);
#15=REPRESENTATION('',(#19),#244);
#16=PROPERTY_DEFINITION('pmi validation property','',#23);
#17=PROPERTY_DEFINITION('pmi validation property','',#23);
#18=VALUE_REPRESENTATION_ITEM('number of annotations',COUNT_MEASURE(0.));
#19=VALUE_REPRESENTATION_ITEM('number of views',COUNT_MEASURE(0.));
#20=SHAPE_REPRESENTATION_RELATIONSHIP('None',
'relationship between pf66111C9EA7pvwm-None and pf66111C9EA7pvwm-None',
#32,#21);
#21=ADVANCED_BREP_SHAPE_REPRESENTATION('pf66111C9EA7pvwm-None',(#38),#244);
#22=SHAPE_DEFINITION_REPRESENTATION(#23,#32);
#23=PRODUCT_DEFINITION_SHAPE('','',#24);
#24=PRODUCT_DEFINITION(' ','',#26,#25);
#25=PRODUCT_DEFINITION_CONTEXT('part definition',#31,'design');
#26=PRODUCT_DEFINITION_FORMATION_WITH_SPECIFIED_SOURCE(' ',' ',#28,
 .NOT_KNOWN.);
#27=PRODUCT_RELATED_PRODUCT_CATEGORY('part','',(#28));
#28=PRODUCT('pf66111C9EA7pvwm','pf66111C9EA7pvwm',' ',(#29));
#29=PRODUCT_CONTEXT(' ',#31,'mechanical');
#30=APPLICATION_PROTOCOL_DEFINITION('international standard',
'automotive_design',2010,#31);
#31=APPLICATION_CONTEXT(
'core data for automotive mechanical design processes');
#32=SHAPE_REPRESENTATION('pf66111C9EA7pvwm-None',(#151),#244);
#33=SURFACE_STYLE_USAGE(.BOTH.,#34);
#34=SURFACE_SIDE_STYLE('',(#35));
#35=SURFACE_STYLE_FILL_AREA(#36);
#36=FILL_AREA_STYLE('',(#37));
#37=FILL_AREA_STYLE_COLOUR('',#147);
#38=MANIFOLD_SOLID_BREP('A2-50X400-1-SOLID1',#39);
#39=CLOSED_SHELL('',(#45,#46,#47,#48,#49,#50,#51));
#40=FACE_BOUND('',#68,.T.);
#41=FACE_BOUND('',#69,.T.);
#42=PLANE('',#159);
#43=PLANE('',#164);
#44=PLANE('',#169);
#45=ADVANCED_FACE('',(#56),#52,.T.);
#46=ADVANCED_FACE('',(#57),#42,.F.);
#47=ADVANCED_FACE('',(#58),#53,.T.);
#48=ADVANCED_FACE('',(#59),#43,.T.);
#49=ADVANCED_FACE('',(#60),#54,.T.);
#50=ADVANCED_FACE('',(#61),#55,.T.);
#51=ADVANCED_FACE('',(#40,#41),#44,.T.);
#52=CYLINDRICAL_SURFACE('',#157,25.);
#53=CYLINDRICAL_SURFACE('',#161,25.);
#54=CYLINDRICAL_SURFACE('',#166,49.);
#55=CYLINDRICAL_SURFACE('',#168,49.);
#56=FACE_OUTER_BOUND('',#62,.T.);
#57=FACE_OUTER_BOUND('',#63,.T.);
#58=FACE_OUTER_BOUND('',#64,.T.);
#59=FACE_OUTER_BOUND('',#65,.T.);
#60=FACE_OUTER_BOUND('',#66,.T.);
#61=FACE_OUTER_BOUND('',#67,.T.);
#62=EDGE_LOOP('',(#78,#79,#80,#81));
#63=EDGE_LOOP('',(#82,#83));
#64=EDGE_LOOP('',(#84,#85,#86,#87));
#65=EDGE_LOOP('',(#88,#89));
#66=EDGE_LOOP('',(#90,#91,#92,#93));
#67=EDGE_LOOP('',(#94,#95,#96,#97));
#68=EDGE_LOOP('',(#98,#99));
#69=EDGE_LOOP('',(#100,#101));
#70=CIRCLE('',#155,25.);
#71=CIRCLE('',#156,25.);
#72=CIRCLE('',#158,25.);
#73=CIRCLE('',#160,25.);
#74=CIRCLE('',#162,49.);
#75=CIRCLE('',#163,49.);
#76=CIRCLE('',#165,49.);
#77=CIRCLE('',#167,49.);
#78=ORIENTED_EDGE('',*,*,#110,.F.);
#79=ORIENTED_EDGE('',*,*,#111,.T.);
#80=ORIENTED_EDGE('',*,*,#112,.T.);
#81=ORIENTED_EDGE('',*,*,#113,.T.);
#82=ORIENTED_EDGE('',*,*,#111,.F.);
#83=ORIENTED_EDGE('',*,*,#114,.F.);
#84=ORIENTED_EDGE('',*,*,#112,.F.);
#85=ORIENTED_EDGE('',*,*,#114,.T.);
#86=ORIENTED_EDGE('',*,*,#110,.T.);
#87=ORIENTED_EDGE('',*,*,#115,.T.);
#88=ORIENTED_EDGE('',*,*,#116,.F.);
#89=ORIENTED_EDGE('',*,*,#117,.F.);
#90=ORIENTED_EDGE('',*,*,#118,.T.);
#91=ORIENTED_EDGE('',*,*,#117,.T.);
#92=ORIENTED_EDGE('',*,*,#119,.F.);
#93=ORIENTED_EDGE('',*,*,#120,.T.);
#94=ORIENTED_EDGE('',*,*,#116,.T.);
#95=ORIENTED_EDGE('',*,*,#118,.F.);
#96=ORIENTED_EDGE('',*,*,#121,.T.);
#97=ORIENTED_EDGE('',*,*,#119,.T.);
#98=ORIENTED_EDGE('',*,*,#115,.F.);
#99=ORIENTED_EDGE('',*,*,#113,.F.);
#100=ORIENTED_EDGE('',*,*,#121,.F.);
#101=ORIENTED_EDGE('',*,*,#120,.F.);
#102=VERTEX_POINT('',#217);
#103=VERTEX_POINT('',#218);
#104=VERTEX_POINT('',#220);
#105=VERTEX_POINT('',#222);
#106=VERTEX_POINT('',#230);
#107=VERTEX_POINT('',#231);
#108=VERTEX_POINT('',#235);
#109=VERTEX_POINT('',#237);
#110=EDGE_CURVE('',#102,#103,#122,.T.);
#111=EDGE_CURVE('',#102,#104,#70,.T.);
#112=EDGE_CURVE('',#104,#105,#123,.T.);
#113=EDGE_CURVE('',#105,#103,#71,.T.);
#114=EDGE_CURVE('',#104,#102,#72,.T.);
#115=EDGE_CURVE('',#103,#105,#73,.T.);
#116=EDGE_CURVE('',#106,#107,#74,.T.);
#117=EDGE_CURVE('',#107,#106,#75,.T.);
#118=EDGE_CURVE('',#108,#107,#124,.T.);
#119=EDGE_CURVE('',#109,#106,#125,.T.);
#120=EDGE_CURVE('',#109,#108,#76,.T.);
#121=EDGE_CURVE('',#108,#109,#77,.T.);
#122=LINE('',#216,#126);
#123=LINE('',#221,#127);
#124=LINE('',#234,#128);
#125=LINE('',#236,#129);
#126=VECTOR('',#178,1.);
#127=VECTOR('',#181,1.);
#128=VECTOR('',#200,1.);
#129=VECTOR('',#201,1.);
#130=INVISIBILITY((#131,#132,#133,#134));
#131=PRESENTATION_LAYER_ASSIGNMENT('100','Layer 100',(#152));
#132=PRESENTATION_LAYER_ASSIGNMENT('101','Layer 101',(#153));
#133=PRESENTATION_LAYER_ASSIGNMENT('102','Layer 102',(#154));
#134=PRESENTATION_LAYER_ASSIGNMENT('98','Layer 98',(#38));
#135=STYLED_ITEM('',(#139),#152);
#136=STYLED_ITEM('',(#140),#153);
#137=STYLED_ITEM('',(#141),#154);
#138=STYLED_ITEM('',(#142),#38);
#139=PRESENTATION_STYLE_ASSIGNMENT((#143));
#140=PRESENTATION_STYLE_ASSIGNMENT((#144));
#141=PRESENTATION_STYLE_ASSIGNMENT((#145));
#142=PRESENTATION_STYLE_ASSIGNMENT((#33));
#143=CURVE_STYLE('',#148,POSITIVE_LENGTH_MEASURE(0.7),#146);
#144=CURVE_STYLE('',#149,POSITIVE_LENGTH_MEASURE(0.7),#146);
#145=CURVE_STYLE('',#150,POSITIVE_LENGTH_MEASURE(0.7),#146);
#146=COLOUR_RGB('Medium Maroon',0.6,0.4,0.4);
#147=COLOUR_RGB('Medium Gray',0.490196078431373,0.490196078431373,0.490196078431373);
#148=DRAUGHTING_PRE_DEFINED_CURVE_FONT('continuous');
#149=DRAUGHTING_PRE_DEFINED_CURVE_FONT('continuous');
#150=DRAUGHTING_PRE_DEFINED_CURVE_FONT('continuous');
#151=AXIS2_PLACEMENT_3D('',#212,#170,#171);
#152=AXIS2_PLACEMENT_3D('PCS',#213,#172,#173);
#153=AXIS2_PLACEMENT_3D('CSW',#214,#174,#175);
#154=AXIS2_PLACEMENT_3D('MCS',#215,#176,#177);
#155=AXIS2_PLACEMENT_3D('',#219,#179,#180);
#156=AXIS2_PLACEMENT_3D('',#223,#182,#183);
#157=AXIS2_PLACEMENT_3D('',#224,#184,#185);
#158=AXIS2_PLACEMENT_3D('',#225,#186,#187);
#159=AXIS2_PLACEMENT_3D('',#226,#188,#189);
#160=AXIS2_PLACEMENT_3D('',#227,#190,#191);
#161=AXIS2_PLACEMENT_3D('',#228,#192,#193);
#162=AXIS2_PLACEMENT_3D('',#229,#194,#195);
#163=AXIS2_PLACEMENT_3D('',#232,#196,#197);
#164=AXIS2_PLACEMENT_3D('',#233,#198,#199);
#165=AXIS2_PLACEMENT_3D('',#238,#202,#203);
#166=AXIS2_PLACEMENT_3D('',#239,#204,#205);
#167=AXIS2_PLACEMENT_3D('',#240,#206,#207);
#168=AXIS2_PLACEMENT_3D('',#241,#208,#209);
#169=AXIS2_PLACEMENT_3D('',#242,#210,#211);
#170=DIRECTION('',(0.,0.,1.));
#171=DIRECTION('',(1.,0.,0.));
#172=DIRECTION('',(0.,0.,1.));
#173=DIRECTION('',(1.,0.,0.));
#174=DIRECTION('',(0.,0.,1.));
#175=DIRECTION('',(1.,0.,0.));
#176=DIRECTION('',(0.,0.,1.));
#177=DIRECTION('',(1.,0.,0.));
#178=DIRECTION('',(0.,0.,-1.));
#179=DIRECTION('',(0.,0.,-1.));
#180=DIRECTION('',(-1.,0.,0.));
#181=DIRECTION('',(0.,0.,-1.));
#182=DIRECTION('',(0.,0.,1.));
#183=DIRECTION('',(1.,0.,0.));
#184=DIRECTION('',(0.,0.,1.));
#185=DIRECTION('',(-1.,0.,0.));
#186=DIRECTION('',(0.,0.,-1.));
#187=DIRECTION('',(-1.,0.,0.));
#188=DIRECTION('',(0.,0.,-1.));
#189=DIRECTION('',(1.,0.,0.));
#190=DIRECTION('',(0.,0.,1.));
#191=DIRECTION('',(1.,0.,0.));
#192=DIRECTION('',(0.,0.,1.));
#193=DIRECTION('',(-1.,0.,0.));
#194=DIRECTION('',(0.,0.,1.));
#195=DIRECTION('',(-1.,0.,0.));
#196=DIRECTION('',(0.,0.,1.));
#197=DIRECTION('',(-1.,0.,0.));
#198=DIRECTION('',(0.,0.,-1.));
#199=DIRECTION('',(1.,0.,0.));
#200=DIRECTION('',(0.,0.,-1.));
#201=DIRECTION('',(0.,0.,-1.));
#202=DIRECTION('',(0.,0.,-1.));
#203=DIRECTION('',(1.,0.,0.));
#204=DIRECTION('',(0.,0.,1.));
#205=DIRECTION('',(-1.,0.,0.));
#206=DIRECTION('',(0.,0.,-1.));
#207=DIRECTION('',(1.,0.,0.));
#208=DIRECTION('',(0.,0.,1.));
#209=DIRECTION('',(-1.,0.,0.));
#210=DIRECTION('',(0.,0.,1.));
#211=DIRECTION('',(-1.,0.,0.));
#212=CARTESIAN_POINT('',(0.,0.,0.));
#213=CARTESIAN_POINT('',(0.,0.,0.));
#214=CARTESIAN_POINT('',(0.,0.,-400.));
#215=CARTESIAN_POINT('',(0.,0.,0.));
#216=CARTESIAN_POINT('',(25.,0.,0.));
#217=CARTESIAN_POINT('',(25.,-1.53080849893419E-15,78.));
#218=CARTESIAN_POINT('',(25.,0.,0.));
#219=CARTESIAN_POINT('',(0.,0.,78.));
#220=CARTESIAN_POINT('',(-25.,0.,78.));
#221=CARTESIAN_POINT('',(-25.,3.46944695195361E-15,0.));
#222=CARTESIAN_POINT('',(-25.,2.56105954619377E-15,0.));
#223=CARTESIAN_POINT('',(0.,0.,0.));
#224=CARTESIAN_POINT('',(0.,0.,0.));
#225=CARTESIAN_POINT('',(0.,0.,78.));
#226=CARTESIAN_POINT('',(55.,-55.,78.));
#227=CARTESIAN_POINT('',(0.,0.,0.));
#228=CARTESIAN_POINT('',(0.,0.,0.));
#229=CARTESIAN_POINT('',(0.,0.,-400.));
#230=CARTESIAN_POINT('',(49.,0.,-400.));
#231=CARTESIAN_POINT('',(-49.,5.20417042793042E-15,-400.));
#232=CARTESIAN_POINT('',(0.,0.,-400.));
#233=CARTESIAN_POINT('',(55.,-55.,-400.));
#234=CARTESIAN_POINT('',(-49.,5.20417042793042E-15,-400.));
#235=CARTESIAN_POINT('',(-49.,5.20417042793042E-15,0.));
#236=CARTESIAN_POINT('',(49.,0.,-400.));
#237=CARTESIAN_POINT('',(49.,0.,0.));
#238=CARTESIAN_POINT('',(0.,0.,0.));
#239=CARTESIAN_POINT('',(0.,0.,-400.));
#240=CARTESIAN_POINT('',(0.,0.,0.));
#241=CARTESIAN_POINT('',(0.,0.,-400.));
#242=CARTESIAN_POINT('',(0.,-3.46944695195361E-15,0.));
#243=MECHANICAL_DESIGN_GEOMETRIC_PRESENTATION_REPRESENTATION('',(#135,#136,
#137,#138),#244);
#244=(
GEOMETRIC_REPRESENTATION_CONTEXT(3)
GLOBAL_UNCERTAINTY_ASSIGNED_CONTEXT((#245))
GLOBAL_UNIT_ASSIGNED_CONTEXT((#251,#247,#246))
REPRESENTATION_CONTEXT('VDI.50-A2.098','TOP_LEVEL_ASSEMBLY_PART')
);
#245=UNCERTAINTY_MEASURE_WITH_UNIT(LENGTH_MEASURE(2.E-5),#251,
'DISTANCE_ACCURACY_VALUE','Maximum Tolerance applied to model');
#246=(
NAMED_UNIT(*)
SI_UNIT($,.STERADIAN.)
SOLID_ANGLE_UNIT()
);
#247=(
CONVERSION_BASED_UNIT('DEGREE',#249)
NAMED_UNIT(#248)
PLANE_ANGLE_UNIT()
);
#248=DIMENSIONAL_EXPONENTS(0.,0.,0.,0.,0.,0.,0.);
#249=PLANE_ANGLE_MEASURE_WITH_UNIT(PLANE_ANGLE_MEASURE(0.0174532925),#250);
#250=(
NAMED_UNIT(*)
PLANE_ANGLE_UNIT()
SI_UNIT($,.RADIAN.)
);
#251=(
LENGTH_UNIT()
NAMED_UNIT(*)
SI_UNIT(.MILLI.,.METRE.)
);
ENDSEC;
END-ISO-10303-21;
