ISO-10303-21;
HEADER;
/* Generated by software containing ST-Developer
 * from STEP Tools, Inc. (www.steptools.com) 
 */
/* OPTION: using custom schema-name function */

FILE_DESCRIPTION(
/* description */ (''),
/* implementation_level */ '2;1');

FILE_NAME(
/* name */ 'VDI.40-Z2.P.stp',
/* time_stamp */ '2024-10-02T09:45:20+02:00',
/* author */ (''),
/* organization */ (''),
/* preprocessor_version */ 'ST-DEVELOPER v16.7',
/* originating_system */ 'SIEMENS PLM Software NX 12.0',
/* authorisation */ '');

FILE_SCHEMA (('AUTOMOTIVE_DESIGN { 1 0 10303 214 3 1 1 1 }'));
ENDSEC;

DATA;
#10=CONSTRUCTIVE_GEOMETRY_REPRESENTATION_RELATIONSHIP(
'supplemental geometry','',#32,#11);
#11=CONSTRUCTIVE_GEOMETRY_REPRESENTATION('supplemental geometry',(#192,
#193,#194),#312);
#12=PROPERTY_DEFINITION_REPRESENTATION(#16,#14);
#13=PROPERTY_DEFINITION_REPRESENTATION(#17,#15);
#14=REPRESENTATION('',(#18),#312);
#15=REPRESENTATION('',(#19),#312);
#16=PROPERTY_DEFINITION('pmi validation property','',#23);
#17=PROPERTY_DEFINITION('pmi validation property','',#23);
#18=VALUE_REPRESENTATION_ITEM('number of annotations',COUNT_MEASURE(0.));
#19=VALUE_REPRESENTATION_ITEM('number of views',COUNT_MEASURE(0.));
#20=SHAPE_REPRESENTATION_RELATIONSHIP('None',
'relationship between pf66111C9EA7pvvi-None and pf66111C9EA7pvvi-None',
#32,#21);
#21=ADVANCED_BREP_SHAPE_REPRESENTATION('pf66111C9EA7pvvi-None',(#38),#312);
#22=SHAPE_DEFINITION_REPRESENTATION(#23,#32);
#23=PRODUCT_DEFINITION_SHAPE('','',#24);
#24=PRODUCT_DEFINITION(' ','',#26,#25);
#25=PRODUCT_DEFINITION_CONTEXT('part definition',#31,'design');
#26=PRODUCT_DEFINITION_FORMATION_WITH_SPECIFIED_SOURCE(' ',' ',#28,
 .NOT_KNOWN.);
#27=PRODUCT_RELATED_PRODUCT_CATEGORY('part','',(#28));
#28=PRODUCT('pf66111C9EA7pvvi','pf66111C9EA7pvvi',' ',(#29));
#29=PRODUCT_CONTEXT(' ',#31,'mechanical');
#30=APPLICATION_PROTOCOL_DEFINITION('international standard',
'automotive_design',2010,#31);
#31=APPLICATION_CONTEXT(
'core data for automotive mechanical design processes');
#32=SHAPE_REPRESENTATION('pf66111C9EA7pvvi-None',(#191),#312);
#33=SURFACE_STYLE_USAGE(.BOTH.,#34);
#34=SURFACE_SIDE_STYLE('',(#35));
#35=SURFACE_STYLE_FILL_AREA(#36);
#36=FILL_AREA_STYLE('',(#37));
#37=FILL_AREA_STYLE_COLOUR('',#187);
#38=MANIFOLD_SOLID_BREP('\X2\013D00C900A800A4\X0\5',#39);
#39=CLOSED_SHELL('',(#46,#47,#48,#49,#50,#51,#52,#53,#54));
#40=FACE_BOUND('',#71,.T.);
#41=FACE_BOUND('',#72,.T.);
#42=PLANE('',#199);
#43=PLANE('',#205);
#44=PLANE('',#209);
#45=PLANE('',#213);
#46=ADVANCED_FACE('',(#60),#55,.T.);
#47=ADVANCED_FACE('',(#61),#42,.F.);
#48=ADVANCED_FACE('',(#62),#56,.T.);
#49=ADVANCED_FACE('',(#40,#41),#43,.F.);
#50=ADVANCED_FACE('',(#63),#44,.T.);
#51=ADVANCED_FACE('',(#64),#57,.T.);
#52=ADVANCED_FACE('',(#65),#58,.T.);
#53=ADVANCED_FACE('',(#66),#59,.T.);
#54=ADVANCED_FACE('',(#67),#45,.F.);
#55=CYLINDRICAL_SURFACE('',#197,20.);
#56=CYLINDRICAL_SURFACE('',#201,20.);
#57=CYLINDRICAL_SURFACE('',#210,41.5);
#58=CYLINDRICAL_SURFACE('',#211,41.5);
#59=CYLINDRICAL_SURFACE('',#212,41.5);
#60=FACE_OUTER_BOUND('',#68,.T.);
#61=FACE_OUTER_BOUND('',#69,.T.);
#62=FACE_OUTER_BOUND('',#70,.T.);
#63=FACE_OUTER_BOUND('',#73,.T.);
#64=FACE_OUTER_BOUND('',#74,.T.);
#65=FACE_OUTER_BOUND('',#75,.T.);
#66=FACE_OUTER_BOUND('',#76,.T.);
#67=FACE_OUTER_BOUND('',#77,.T.);
#68=EDGE_LOOP('',(#88,#89,#90,#91));
#69=EDGE_LOOP('',(#92,#93));
#70=EDGE_LOOP('',(#94,#95,#96,#97));
#71=EDGE_LOOP('',(#98,#99,#100,#101));
#72=EDGE_LOOP('',(#102,#103));
#73=EDGE_LOOP('',(#104,#105,#106,#107));
#74=EDGE_LOOP('',(#108,#109,#110,#111));
#75=EDGE_LOOP('',(#112,#113,#114,#115));
#76=EDGE_LOOP('',(#116,#117,#118,#119));
#77=EDGE_LOOP('',(#120,#121,#122,#123));
#78=CIRCLE('',#195,20.);
#79=CIRCLE('',#196,20.);
#80=CIRCLE('',#198,20.);
#81=CIRCLE('',#200,20.);
#82=CIRCLE('',#202,41.5);
#83=CIRCLE('',#203,41.5);
#84=CIRCLE('',#204,41.5);
#85=CIRCLE('',#206,41.5);
#86=CIRCLE('',#207,41.5);
#87=CIRCLE('',#208,41.5);
#88=ORIENTED_EDGE('',*,*,#136,.T.);
#89=ORIENTED_EDGE('',*,*,#137,.T.);
#90=ORIENTED_EDGE('',*,*,#138,.F.);
#91=ORIENTED_EDGE('',*,*,#139,.F.);
#92=ORIENTED_EDGE('',*,*,#137,.F.);
#93=ORIENTED_EDGE('',*,*,#140,.F.);
#94=ORIENTED_EDGE('',*,*,#138,.T.);
#95=ORIENTED_EDGE('',*,*,#140,.T.);
#96=ORIENTED_EDGE('',*,*,#136,.F.);
#97=ORIENTED_EDGE('',*,*,#141,.F.);
#98=ORIENTED_EDGE('',*,*,#142,.F.);
#99=ORIENTED_EDGE('',*,*,#143,.T.);
#100=ORIENTED_EDGE('',*,*,#144,.T.);
#101=ORIENTED_EDGE('',*,*,#145,.T.);
#102=ORIENTED_EDGE('',*,*,#139,.T.);
#103=ORIENTED_EDGE('',*,*,#141,.T.);
#104=ORIENTED_EDGE('',*,*,#146,.F.);
#105=ORIENTED_EDGE('',*,*,#147,.T.);
#106=ORIENTED_EDGE('',*,*,#148,.T.);
#107=ORIENTED_EDGE('',*,*,#149,.T.);
#108=ORIENTED_EDGE('',*,*,#147,.F.);
#109=ORIENTED_EDGE('',*,*,#150,.T.);
#110=ORIENTED_EDGE('',*,*,#145,.F.);
#111=ORIENTED_EDGE('',*,*,#151,.F.);
#112=ORIENTED_EDGE('',*,*,#148,.F.);
#113=ORIENTED_EDGE('',*,*,#151,.T.);
#114=ORIENTED_EDGE('',*,*,#144,.F.);
#115=ORIENTED_EDGE('',*,*,#152,.F.);
#116=ORIENTED_EDGE('',*,*,#149,.F.);
#117=ORIENTED_EDGE('',*,*,#152,.T.);
#118=ORIENTED_EDGE('',*,*,#143,.F.);
#119=ORIENTED_EDGE('',*,*,#153,.F.);
#120=ORIENTED_EDGE('',*,*,#150,.F.);
#121=ORIENTED_EDGE('',*,*,#146,.T.);
#122=ORIENTED_EDGE('',*,*,#153,.T.);
#123=ORIENTED_EDGE('',*,*,#142,.T.);
#124=VERTEX_POINT('',#273);
#125=VERTEX_POINT('',#274);
#126=VERTEX_POINT('',#276);
#127=VERTEX_POINT('',#278);
#128=VERTEX_POINT('',#286);
#129=VERTEX_POINT('',#287);
#130=VERTEX_POINT('',#289);
#131=VERTEX_POINT('',#291);
#132=VERTEX_POINT('',#295);
#133=VERTEX_POINT('',#296);
#134=VERTEX_POINT('',#298);
#135=VERTEX_POINT('',#300);
#136=EDGE_CURVE('',#124,#125,#154,.T.);
#137=EDGE_CURVE('',#125,#126,#78,.T.);
#138=EDGE_CURVE('',#127,#126,#155,.T.);
#139=EDGE_CURVE('',#124,#127,#79,.T.);
#140=EDGE_CURVE('',#126,#125,#80,.T.);
#141=EDGE_CURVE('',#127,#124,#81,.T.);
#142=EDGE_CURVE('',#128,#129,#156,.T.);
#143=EDGE_CURVE('',#128,#130,#82,.T.);
#144=EDGE_CURVE('',#130,#131,#83,.T.);
#145=EDGE_CURVE('',#131,#129,#84,.T.);
#146=EDGE_CURVE('',#132,#133,#157,.T.);
#147=EDGE_CURVE('',#132,#134,#85,.T.);
#148=EDGE_CURVE('',#134,#135,#86,.T.);
#149=EDGE_CURVE('',#135,#133,#87,.T.);
#150=EDGE_CURVE('',#132,#129,#158,.T.);
#151=EDGE_CURVE('',#134,#131,#159,.T.);
#152=EDGE_CURVE('',#135,#130,#160,.T.);
#153=EDGE_CURVE('',#133,#128,#161,.T.);
#154=LINE('',#272,#162);
#155=LINE('',#277,#163);
#156=LINE('',#285,#164);
#157=LINE('',#294,#165);
#158=LINE('',#303,#166);
#159=LINE('',#304,#167);
#160=LINE('',#306,#168);
#161=LINE('',#308,#169);
#162=VECTOR('',#222,1.);
#163=VECTOR('',#225,1.);
#164=VECTOR('',#238,1.);
#165=VECTOR('',#247,1.);
#166=VECTOR('',#256,1.);
#167=VECTOR('',#257,1.);
#168=VECTOR('',#260,1.);
#169=VECTOR('',#263,1.);
#170=INVISIBILITY((#171,#172,#173,#174));
#171=PRESENTATION_LAYER_ASSIGNMENT('100','Layer 100',(#192));
#172=PRESENTATION_LAYER_ASSIGNMENT('101','Layer 101',(#193));
#173=PRESENTATION_LAYER_ASSIGNMENT('102','Layer 102',(#194));
#174=PRESENTATION_LAYER_ASSIGNMENT('98','Layer 98',(#38));
#175=STYLED_ITEM('',(#179),#192);
#176=STYLED_ITEM('',(#180),#193);
#177=STYLED_ITEM('',(#181),#194);
#178=STYLED_ITEM('',(#182),#38);
#179=PRESENTATION_STYLE_ASSIGNMENT((#183));
#180=PRESENTATION_STYLE_ASSIGNMENT((#184));
#181=PRESENTATION_STYLE_ASSIGNMENT((#185));
#182=PRESENTATION_STYLE_ASSIGNMENT((#33));
#183=CURVE_STYLE('',#188,POSITIVE_LENGTH_MEASURE(0.7),#186);
#184=CURVE_STYLE('',#189,POSITIVE_LENGTH_MEASURE(0.7),#186);
#185=CURVE_STYLE('',#190,POSITIVE_LENGTH_MEASURE(0.7),#186);
#186=COLOUR_RGB('Medium Maroon',0.6,0.4,0.4);
#187=COLOUR_RGB('Medium Gray',0.490196078431373,0.490196078431373,0.490196078431373);
#188=DRAUGHTING_PRE_DEFINED_CURVE_FONT('continuous');
#189=DRAUGHTING_PRE_DEFINED_CURVE_FONT('continuous');
#190=DRAUGHTING_PRE_DEFINED_CURVE_FONT('continuous');
#191=AXIS2_PLACEMENT_3D('',#268,#214,#215);
#192=AXIS2_PLACEMENT_3D('PCS',#269,#216,#217);
#193=AXIS2_PLACEMENT_3D('CSW',#270,#218,#219);
#194=AXIS2_PLACEMENT_3D('MCS',#271,#220,#221);
#195=AXIS2_PLACEMENT_3D('',#275,#223,#224);
#196=AXIS2_PLACEMENT_3D('',#279,#226,#227);
#197=AXIS2_PLACEMENT_3D('',#280,#228,#229);
#198=AXIS2_PLACEMENT_3D('',#281,#230,#231);
#199=AXIS2_PLACEMENT_3D('',#282,#232,#233);
#200=AXIS2_PLACEMENT_3D('',#283,#234,#235);
#201=AXIS2_PLACEMENT_3D('',#284,#236,#237);
#202=AXIS2_PLACEMENT_3D('',#288,#239,#240);
#203=AXIS2_PLACEMENT_3D('',#290,#241,#242);
#204=AXIS2_PLACEMENT_3D('',#292,#243,#244);
#205=AXIS2_PLACEMENT_3D('',#293,#245,#246);
#206=AXIS2_PLACEMENT_3D('',#297,#248,#249);
#207=AXIS2_PLACEMENT_3D('',#299,#250,#251);
#208=AXIS2_PLACEMENT_3D('',#301,#252,#253);
#209=AXIS2_PLACEMENT_3D('',#302,#254,#255);
#210=AXIS2_PLACEMENT_3D('',#305,#258,#259);
#211=AXIS2_PLACEMENT_3D('',#307,#261,#262);
#212=AXIS2_PLACEMENT_3D('',#309,#264,#265);
#213=AXIS2_PLACEMENT_3D('',#310,#266,#267);
#214=DIRECTION('',(0.,0.,1.));
#215=DIRECTION('',(1.,0.,0.));
#216=DIRECTION('',(0.,0.,1.));
#217=DIRECTION('',(1.,0.,0.));
#218=DIRECTION('',(0.,0.,1.));
#219=DIRECTION('',(1.,0.,0.));
#220=DIRECTION('',(0.,0.,1.));
#221=DIRECTION('',(1.,0.,0.));
#222=DIRECTION('',(0.,0.,1.));
#223=DIRECTION('',(0.,0.,-1.));
#224=DIRECTION('',(-1.,0.,0.));
#225=DIRECTION('',(0.,0.,1.));
#226=DIRECTION('',(0.,0.,-1.));
#227=DIRECTION('',(-1.,0.,0.));
#228=DIRECTION('',(0.,0.,-1.));
#229=DIRECTION('',(1.,0.,0.));
#230=DIRECTION('',(0.,0.,-1.));
#231=DIRECTION('',(-1.,0.,0.));
#232=DIRECTION('',(0.,0.,-1.));
#233=DIRECTION('',(1.,0.,0.));
#234=DIRECTION('',(0.,0.,-1.));
#235=DIRECTION('',(-1.,0.,0.));
#236=DIRECTION('',(0.,0.,-1.));
#237=DIRECTION('',(1.,0.,0.));
#238=DIRECTION('',(1.,0.,0.));
#239=DIRECTION('',(0.,0.,1.));
#240=DIRECTION('',(-1.,0.,0.));
#241=DIRECTION('',(0.,0.,1.));
#242=DIRECTION('',(-1.,0.,0.));
#243=DIRECTION('',(0.,0.,1.));
#244=DIRECTION('',(-1.,0.,0.));
#245=DIRECTION('',(0.,0.,-1.));
#246=DIRECTION('',(1.,0.,0.));
#247=DIRECTION('',(-1.,0.,0.));
#248=DIRECTION('',(0.,0.,-1.));
#249=DIRECTION('',(-1.,0.,0.));
#250=DIRECTION('',(0.,0.,-1.));
#251=DIRECTION('',(-1.,0.,0.));
#252=DIRECTION('',(0.,0.,-1.));
#253=DIRECTION('',(-1.,0.,0.));
#254=DIRECTION('',(0.,0.,-1.));
#255=DIRECTION('',(1.,0.,0.));
#256=DIRECTION('',(0.,0.,1.));
#257=DIRECTION('',(0.,0.,1.));
#258=DIRECTION('',(0.,0.,1.));
#259=DIRECTION('',(-1.,0.,0.));
#260=DIRECTION('',(0.,0.,1.));
#261=DIRECTION('',(0.,0.,1.));
#262=DIRECTION('',(-1.,0.,0.));
#263=DIRECTION('',(0.,0.,1.));
#264=DIRECTION('',(0.,0.,1.));
#265=DIRECTION('',(-1.,0.,0.));
#266=DIRECTION('',(0.,-1.,0.));
#267=DIRECTION('',(0.,0.,-1.));
#268=CARTESIAN_POINT('',(0.,0.,0.));
#269=CARTESIAN_POINT('',(0.,0.,0.));
#270=CARTESIAN_POINT('',(0.,0.,-20.));
#271=CARTESIAN_POINT('',(0.,0.,0.));
#272=CARTESIAN_POINT('',(20.,2.44929359829471E-15,63.));
#273=CARTESIAN_POINT('',(20.,0.,0.));
#274=CARTESIAN_POINT('',(20.,0.,63.));
#275=CARTESIAN_POINT('',(0.,0.,63.));
#276=CARTESIAN_POINT('',(-20.,0.,63.));
#277=CARTESIAN_POINT('',(-20.,0.,63.));
#278=CARTESIAN_POINT('',(-20.,0.,0.));
#279=CARTESIAN_POINT('',(0.,0.,0.));
#280=CARTESIAN_POINT('',(0.,0.,63.));
#281=CARTESIAN_POINT('',(0.,0.,63.));
#282=CARTESIAN_POINT('',(0.,0.,63.));
#283=CARTESIAN_POINT('',(0.,0.,0.));
#284=CARTESIAN_POINT('',(0.,0.,63.));
#285=CARTESIAN_POINT('',(25.8069758011279,32.5,0.));
#286=CARTESIAN_POINT('',(-25.8069758011279,32.5,0.));
#287=CARTESIAN_POINT('',(25.8069758011279,32.5,0.));
#288=CARTESIAN_POINT('',(0.,0.,0.));
#289=CARTESIAN_POINT('',(-41.5,5.08228421646152E-15,0.));
#290=CARTESIAN_POINT('',(0.,0.,0.));
#291=CARTESIAN_POINT('',(41.5,0.,0.));
#292=CARTESIAN_POINT('',(0.,0.,0.));
#293=CARTESIAN_POINT('',(0.,0.,0.));
#294=CARTESIAN_POINT('',(0.,32.5,-20.));
#295=CARTESIAN_POINT('',(25.8069758011279,32.5,-20.));
#296=CARTESIAN_POINT('',(-25.8069758011279,32.5,-20.));
#297=CARTESIAN_POINT('',(0.,0.,-20.));
#298=CARTESIAN_POINT('',(41.5,-2.54114210823076E-15,-20.));
#299=CARTESIAN_POINT('',(0.,0.,-20.));
#300=CARTESIAN_POINT('',(-41.5,0.,-20.));
#301=CARTESIAN_POINT('',(0.,0.,-20.));
#302=CARTESIAN_POINT('',(0.,0.,-20.));
#303=CARTESIAN_POINT('',(25.8069758011279,32.5,-20.));
#304=CARTESIAN_POINT('',(41.5,0.,-20.));
#305=CARTESIAN_POINT('',(0.,0.,-20.));
#306=CARTESIAN_POINT('',(-41.5,5.08228421646152E-15,-20.));
#307=CARTESIAN_POINT('',(0.,0.,-20.));
#308=CARTESIAN_POINT('',(-25.8069758011279,32.5,-20.));
#309=CARTESIAN_POINT('',(0.,0.,-20.));
#310=CARTESIAN_POINT('',(25.8069758011279,32.5,-20.));
#311=MECHANICAL_DESIGN_GEOMETRIC_PRESENTATION_REPRESENTATION('',(#175,#176,
#177,#178),#312);
#312=(
GEOMETRIC_REPRESENTATION_CONTEXT(3)
GLOBAL_UNCERTAINTY_ASSIGNED_CONTEXT((#313))
GLOBAL_UNIT_ASSIGNED_CONTEXT((#319,#315,#314))
REPRESENTATION_CONTEXT('VDI.40-Z2','TOP_LEVEL_ASSEMBLY_PART')
);
#313=UNCERTAINTY_MEASURE_WITH_UNIT(LENGTH_MEASURE(2.E-5),#319,
'DISTANCE_ACCURACY_VALUE','Maximum Tolerance applied to model');
#314=(
NAMED_UNIT(*)
SI_UNIT($,.STERADIAN.)
SOLID_ANGLE_UNIT()
);
#315=(
CONVERSION_BASED_UNIT('DEGREE',#317)
NAMED_UNIT(#316)
PLANE_ANGLE_UNIT()
);
#316=DIMENSIONAL_EXPONENTS(0.,0.,0.,0.,0.,0.,0.);
#317=PLANE_ANGLE_MEASURE_WITH_UNIT(PLANE_ANGLE_MEASURE(0.0174532925),#318);
#318=(
NAMED_UNIT(*)
PLANE_ANGLE_UNIT()
SI_UNIT($,.RADIAN.)
);
#319=(
LENGTH_UNIT()
NAMED_UNIT(*)
SI_UNIT(.MILLI.,.METRE.)
);
ENDSEC;
END-ISO-10303-21;
