ISO-10303-21;
HEADER;
/* Generated by software containing ST-Developer
 * from STEP Tools, Inc. (www.steptools.com) 
 */
/* OPTION: using custom schema-name function */

FILE_DESCRIPTION(
/* description */ (''),
/* implementation_level */ '2;1');

FILE_NAME(
/* name */ 'VDI.40-F1.MT.4.stp',
/* time_stamp */ '2024-10-02T09:38:57+02:00',
/* author */ (''),
/* organization */ (''),
/* preprocessor_version */ 'ST-DEVELOPER v16.7',
/* originating_system */ 'SIEMENS PLM Software NX 12.0',
/* authorisation */ '');

FILE_SCHEMA (('AUTOMOTIVE_DESIGN { 1 0 10303 214 3 1 1 1 }'));
ENDSEC;

DATA;
#10=CONSTRUCTIVE_GEOMETRY_REPRESENTATION_RELATIONSHIP(
'supplemental geometry','',#32,#11);
#11=CONSTRUCTIVE_GEOMETRY_REPRESENTATION('supplemental geometry',(#372,
#373,#374),#650);
#12=PROPERTY_DEFINITION_REPRESENTATION(#16,#14);
#13=PROPERTY_DEFINITION_REPRESENTATION(#17,#15);
#14=REPRESENTATION('',(#18),#650);
#15=REPRESENTATION('',(#19),#650);
#16=PROPERTY_DEFINITION('pmi validation property','',#23);
#17=PROPERTY_DEFINITION('pmi validation property','',#23);
#18=VALUE_REPRESENTATION_ITEM('number of annotations',COUNT_MEASURE(0.));
#19=VALUE_REPRESENTATION_ITEM('number of views',COUNT_MEASURE(0.));
#20=SHAPE_REPRESENTATION_RELATIONSHIP('None',
'relationship between pf66111C9EA7pvtj-None and pf66111C9EA7pvtj-None',
#32,#21);
#21=ADVANCED_BREP_SHAPE_REPRESENTATION('pf66111C9EA7pvtj-None',(#38),#650);
#22=SHAPE_DEFINITION_REPRESENTATION(#23,#32);
#23=PRODUCT_DEFINITION_SHAPE('','',#24);
#24=PRODUCT_DEFINITION(' ','',#26,#25);
#25=PRODUCT_DEFINITION_CONTEXT('part definition',#31,'design');
#26=PRODUCT_DEFINITION_FORMATION_WITH_SPECIFIED_SOURCE(' ',' ',#28,
 .NOT_KNOWN.);
#27=PRODUCT_RELATED_PRODUCT_CATEGORY('part','',(#28));
#28=PRODUCT('pf66111C9EA7pvtj','pf66111C9EA7pvtj',' ',(#29));
#29=PRODUCT_CONTEXT(' ',#31,'mechanical');
#30=APPLICATION_PROTOCOL_DEFINITION('international standard',
'automotive_design',2010,#31);
#31=APPLICATION_CONTEXT(
'core data for automotive mechanical design processes');
#32=SHAPE_REPRESENTATION('pf66111C9EA7pvtj-None',(#371),#650);
#33=SURFACE_STYLE_USAGE(.BOTH.,#34);
#34=SURFACE_SIDE_STYLE('',(#35));
#35=SURFACE_STYLE_FILL_AREA(#36);
#36=FILL_AREA_STYLE('',(#37));
#37=FILL_AREA_STYLE_COLOUR('',#367);
#38=MANIFOLD_SOLID_BREP('\X\B5\X2\02DB00A6\X0\X1',#39);
#39=CLOSED_SHELL('',(#95,#96,#97,#98,#99,#100,#101,#102,#103,#104,#105,
#106,#107,#108,#109,#110,#111));
#40=SPHERICAL_SURFACE('',#413,4.975);
#41=SPHERICAL_SURFACE('',#415,4.975);
#42=TOROIDAL_SURFACE('',#396,36.,2.);
#43=TOROIDAL_SURFACE('',#399,36.,2.);
#44=TOROIDAL_SURFACE('',#404,36.,2.);
#45=B_SPLINE_CURVE_WITH_KNOTS('',3,(#585,#586,#587,#588,#589,#590,#591,
#592,#593,#594),.UNSPECIFIED.,.F.,.F.,(4,2,2,2,4),(0.,0.499999999999999,
0.749999999999999,0.875,1.),.UNSPECIFIED.);
#46=B_SPLINE_CURVE_WITH_KNOTS('',3,(#608,#609,#610,#611,#612,#613),
 .UNSPECIFIED.,.F.,.F.,(4,2,4),(0.,0.5,1.),.UNSPECIFIED.);
#47=B_SPLINE_CURVE_WITH_KNOTS('',3,(#615,#616,#617,#618,#619,#620,#621,
#622),.UNSPECIFIED.,.F.,.F.,(4,2,2,4),(0.,0.5,0.75,1.),.UNSPECIFIED.);
#48=CYLINDRICAL_SURFACE('',#380,20.);
#49=CYLINDRICAL_SURFACE('',#387,34.);
#50=CYLINDRICAL_SURFACE('',#390,34.);
#51=CYLINDRICAL_SURFACE('',#393,34.);
#52=CYLINDRICAL_SURFACE('',#407,41.5);
#53=FACE_BOUND('',#134,.T.);
#54=FACE_BOUND('',#135,.T.);
#55=FACE_BOUND('',#136,.T.);
#56=FACE_BOUND('',#137,.T.);
#57=FACE_BOUND('',#143,.T.);
#58=FACE_BOUND('',#144,.T.);
#59=LINE('',#536,#77);
#60=LINE('',#541,#78);
#61=LINE('',#544,#79);
#62=LINE('',#546,#80);
#63=LINE('',#549,#81);
#64=LINE('',#558,#82);
#65=LINE('',#560,#83);
#66=LINE('',#565,#84);
#67=LINE('',#571,#85);
#68=LINE('',#577,#86);
#69=LINE('',#604,#87);
#70=LINE('',#624,#88);
#71=LINE('',#626,#89);
#72=LINE('',#630,#90);
#73=LINE('',#632,#91);
#74=LINE('',#634,#92);
#75=LINE('',#635,#93);
#76=LINE('',#637,#94);
#77=VECTOR('',#431,1.);
#78=VECTOR('',#434,1.);
#79=VECTOR('',#437,1.);
#80=VECTOR('',#438,1.);
#81=VECTOR('',#441,1.);
#82=VECTOR('',#448,1.);
#83=VECTOR('',#451,1.);
#84=VECTOR('',#454,1.);
#85=VECTOR('',#461,1.);
#86=VECTOR('',#468,1.);
#87=VECTOR('',#489,1.);
#88=VECTOR('',#496,1.);
#89=VECTOR('',#497,1.);
#90=VECTOR('',#502,1.);
#91=VECTOR('',#503,1.);
#92=VECTOR('',#504,1.);
#93=VECTOR('',#505,1.);
#94=VECTOR('',#508,1.);
#95=ADVANCED_FACE('',(#119),#112,.F.);
#96=ADVANCED_FACE('',(#53,#54),#48,.T.);
#97=ADVANCED_FACE('',(#55,#56),#113,.F.);
#98=ADVANCED_FACE('',(#120),#49,.T.);
#99=ADVANCED_FACE('',(#121),#50,.T.);
#100=ADVANCED_FACE('',(#122),#51,.T.);
#101=ADVANCED_FACE('',(#123),#42,.F.);
#102=ADVANCED_FACE('',(#124),#43,.F.);
#103=ADVANCED_FACE('',(#57,#58),#114,.F.);
#104=ADVANCED_FACE('',(#125),#44,.F.);
#105=ADVANCED_FACE('',(#126),#115,.F.);
#106=ADVANCED_FACE('',(#127),#52,.T.);
#107=ADVANCED_FACE('',(#128),#116,.F.);
#108=ADVANCED_FACE('',(#129),#117,.T.);
#109=ADVANCED_FACE('',(#130),#40,.T.);
#110=ADVANCED_FACE('',(#131),#41,.T.);
#111=ADVANCED_FACE('',(#132),#118,.F.);
#112=PLANE('',#377);
#113=PLANE('',#384);
#114=PLANE('',#402);
#115=PLANE('',#406);
#116=PLANE('',#408);
#117=PLANE('',#409);
#118=PLANE('',#416);
#119=FACE_OUTER_BOUND('',#133,.T.);
#120=FACE_OUTER_BOUND('',#138,.T.);
#121=FACE_OUTER_BOUND('',#139,.T.);
#122=FACE_OUTER_BOUND('',#140,.T.);
#123=FACE_OUTER_BOUND('',#141,.T.);
#124=FACE_OUTER_BOUND('',#142,.T.);
#125=FACE_OUTER_BOUND('',#145,.T.);
#126=FACE_OUTER_BOUND('',#146,.T.);
#127=FACE_OUTER_BOUND('',#147,.T.);
#128=FACE_OUTER_BOUND('',#148,.T.);
#129=FACE_OUTER_BOUND('',#149,.T.);
#130=FACE_OUTER_BOUND('',#150,.T.);
#131=FACE_OUTER_BOUND('',#151,.T.);
#132=FACE_OUTER_BOUND('',#152,.T.);
#133=EDGE_LOOP('',(#153,#154));
#134=EDGE_LOOP('',(#155,#156,#157,#158,#159,#160));
#135=EDGE_LOOP('',(#161,#162,#163,#164,#165,#166));
#136=EDGE_LOOP('',(#167,#168,#169,#170,#171));
#137=EDGE_LOOP('',(#172,#173));
#138=EDGE_LOOP('',(#174,#175,#176,#177));
#139=EDGE_LOOP('',(#178,#179,#180,#181));
#140=EDGE_LOOP('',(#182,#183,#184,#185));
#141=EDGE_LOOP('',(#186,#187,#188,#189));
#142=EDGE_LOOP('',(#190,#191,#192,#193));
#143=EDGE_LOOP('',(#194,#195));
#144=EDGE_LOOP('',(#196,#197,#198,#199));
#145=EDGE_LOOP('',(#200,#201,#202,#203,#204));
#146=EDGE_LOOP('',(#205,#206,#207,#208,#209,#210));
#147=EDGE_LOOP('',(#211,#212,#213,#214,#215,#216,#217,#218,#219,#220));
#148=EDGE_LOOP('',(#221,#222,#223,#224,#225));
#149=EDGE_LOOP('',(#226,#227,#228,#229,#230,#231,#232,#233,#234));
#150=EDGE_LOOP('',(#235,#236,#237,#238));
#151=EDGE_LOOP('',(#239,#240,#241,#242));
#152=EDGE_LOOP('',(#243,#244));
#153=ORIENTED_EDGE('',*,*,#279,.F.);
#154=ORIENTED_EDGE('',*,*,#280,.F.);
#155=ORIENTED_EDGE('',*,*,#281,.F.);
#156=ORIENTED_EDGE('',*,*,#282,.F.);
#157=ORIENTED_EDGE('',*,*,#283,.T.);
#158=ORIENTED_EDGE('',*,*,#283,.F.);
#159=ORIENTED_EDGE('',*,*,#284,.F.);
#160=ORIENTED_EDGE('',*,*,#281,.T.);
#161=ORIENTED_EDGE('',*,*,#285,.T.);
#162=ORIENTED_EDGE('',*,*,#279,.T.);
#163=ORIENTED_EDGE('',*,*,#286,.F.);
#164=ORIENTED_EDGE('',*,*,#286,.T.);
#165=ORIENTED_EDGE('',*,*,#280,.T.);
#166=ORIENTED_EDGE('',*,*,#285,.F.);
#167=ORIENTED_EDGE('',*,*,#287,.F.);
#168=ORIENTED_EDGE('',*,*,#288,.T.);
#169=ORIENTED_EDGE('',*,*,#289,.T.);
#170=ORIENTED_EDGE('',*,*,#290,.T.);
#171=ORIENTED_EDGE('',*,*,#291,.T.);
#172=ORIENTED_EDGE('',*,*,#284,.T.);
#173=ORIENTED_EDGE('',*,*,#282,.T.);
#174=ORIENTED_EDGE('',*,*,#292,.T.);
#175=ORIENTED_EDGE('',*,*,#293,.T.);
#176=ORIENTED_EDGE('',*,*,#294,.F.);
#177=ORIENTED_EDGE('',*,*,#295,.T.);
#178=ORIENTED_EDGE('',*,*,#294,.T.);
#179=ORIENTED_EDGE('',*,*,#296,.T.);
#180=ORIENTED_EDGE('',*,*,#297,.T.);
#181=ORIENTED_EDGE('',*,*,#298,.T.);
#182=ORIENTED_EDGE('',*,*,#299,.T.);
#183=ORIENTED_EDGE('',*,*,#300,.F.);
#184=ORIENTED_EDGE('',*,*,#301,.T.);
#185=ORIENTED_EDGE('',*,*,#292,.F.);
#186=ORIENTED_EDGE('',*,*,#302,.F.);
#187=ORIENTED_EDGE('',*,*,#303,.T.);
#188=ORIENTED_EDGE('',*,*,#298,.F.);
#189=ORIENTED_EDGE('',*,*,#304,.F.);
#190=ORIENTED_EDGE('',*,*,#305,.F.);
#191=ORIENTED_EDGE('',*,*,#306,.T.);
#192=ORIENTED_EDGE('',*,*,#295,.F.);
#193=ORIENTED_EDGE('',*,*,#303,.F.);
#194=ORIENTED_EDGE('',*,*,#307,.T.);
#195=ORIENTED_EDGE('',*,*,#308,.T.);
#196=ORIENTED_EDGE('',*,*,#309,.F.);
#197=ORIENTED_EDGE('',*,*,#296,.F.);
#198=ORIENTED_EDGE('',*,*,#293,.F.);
#199=ORIENTED_EDGE('',*,*,#301,.F.);
#200=ORIENTED_EDGE('',*,*,#306,.F.);
#201=ORIENTED_EDGE('',*,*,#310,.F.);
#202=ORIENTED_EDGE('',*,*,#311,.T.);
#203=ORIENTED_EDGE('',*,*,#312,.T.);
#204=ORIENTED_EDGE('',*,*,#299,.F.);
#205=ORIENTED_EDGE('',*,*,#313,.T.);
#206=ORIENTED_EDGE('',*,*,#310,.T.);
#207=ORIENTED_EDGE('',*,*,#305,.T.);
#208=ORIENTED_EDGE('',*,*,#302,.T.);
#209=ORIENTED_EDGE('',*,*,#314,.T.);
#210=ORIENTED_EDGE('',*,*,#315,.T.);
#211=ORIENTED_EDGE('',*,*,#290,.F.);
#212=ORIENTED_EDGE('',*,*,#316,.T.);
#213=ORIENTED_EDGE('',*,*,#316,.F.);
#214=ORIENTED_EDGE('',*,*,#289,.F.);
#215=ORIENTED_EDGE('',*,*,#317,.T.);
#216=ORIENTED_EDGE('',*,*,#317,.F.);
#217=ORIENTED_EDGE('',*,*,#288,.F.);
#218=ORIENTED_EDGE('',*,*,#318,.T.);
#219=ORIENTED_EDGE('',*,*,#315,.F.);
#220=ORIENTED_EDGE('',*,*,#319,.T.);
#221=ORIENTED_EDGE('',*,*,#320,.T.);
#222=ORIENTED_EDGE('',*,*,#311,.F.);
#223=ORIENTED_EDGE('',*,*,#313,.F.);
#224=ORIENTED_EDGE('',*,*,#318,.F.);
#225=ORIENTED_EDGE('',*,*,#287,.T.);
#226=ORIENTED_EDGE('',*,*,#314,.F.);
#227=ORIENTED_EDGE('',*,*,#304,.T.);
#228=ORIENTED_EDGE('',*,*,#297,.F.);
#229=ORIENTED_EDGE('',*,*,#309,.T.);
#230=ORIENTED_EDGE('',*,*,#300,.T.);
#231=ORIENTED_EDGE('',*,*,#312,.F.);
#232=ORIENTED_EDGE('',*,*,#320,.F.);
#233=ORIENTED_EDGE('',*,*,#291,.F.);
#234=ORIENTED_EDGE('',*,*,#319,.F.);
#235=ORIENTED_EDGE('',*,*,#308,.F.);
#236=ORIENTED_EDGE('',*,*,#321,.F.);
#237=ORIENTED_EDGE('',*,*,#322,.T.);
#238=ORIENTED_EDGE('',*,*,#323,.T.);
#239=ORIENTED_EDGE('',*,*,#307,.F.);
#240=ORIENTED_EDGE('',*,*,#323,.F.);
#241=ORIENTED_EDGE('',*,*,#324,.T.);
#242=ORIENTED_EDGE('',*,*,#321,.T.);
#243=ORIENTED_EDGE('',*,*,#322,.F.);
#244=ORIENTED_EDGE('',*,*,#324,.F.);
#245=VERTEX_POINT('',#532);
#246=VERTEX_POINT('',#533);
#247=VERTEX_POINT('',#537);
#248=VERTEX_POINT('',#538);
#249=VERTEX_POINT('',#540);
#250=VERTEX_POINT('',#542);
#251=VERTEX_POINT('',#545);
#252=VERTEX_POINT('',#547);
#253=VERTEX_POINT('',#550);
#254=VERTEX_POINT('',#551);
#255=VERTEX_POINT('',#553);
#256=VERTEX_POINT('',#555);
#257=VERTEX_POINT('',#557);
#258=VERTEX_POINT('',#561);
#259=VERTEX_POINT('',#562);
#260=VERTEX_POINT('',#564);
#261=VERTEX_POINT('',#566);
#262=VERTEX_POINT('',#570);
#263=VERTEX_POINT('',#572);
#264=VERTEX_POINT('',#576);
#265=VERTEX_POINT('',#578);
#266=VERTEX_POINT('',#582);
#267=VERTEX_POINT('',#583);
#268=VERTEX_POINT('',#597);
#269=VERTEX_POINT('',#601);
#270=VERTEX_POINT('',#602);
#271=VERTEX_POINT('',#607);
#272=VERTEX_POINT('',#614);
#273=VERTEX_POINT('',#625);
#274=VERTEX_POINT('',#627);
#275=VERTEX_POINT('',#631);
#276=VERTEX_POINT('',#633);
#277=VERTEX_POINT('',#641);
#278=VERTEX_POINT('',#643);
#279=EDGE_CURVE('',#245,#246,#325,.T.);
#280=EDGE_CURVE('',#246,#245,#326,.T.);
#281=EDGE_CURVE('',#247,#248,#59,.T.);
#282=EDGE_CURVE('',#249,#247,#327,.T.);
#283=EDGE_CURVE('',#249,#250,#60,.T.);
#284=EDGE_CURVE('',#247,#249,#328,.T.);
#285=EDGE_CURVE('',#251,#245,#61,.T.);
#286=EDGE_CURVE('',#252,#246,#62,.T.);
#287=EDGE_CURVE('',#253,#254,#63,.T.);
#288=EDGE_CURVE('',#253,#255,#329,.T.);
#289=EDGE_CURVE('',#255,#256,#330,.T.);
#290=EDGE_CURVE('',#256,#257,#331,.T.);
#291=EDGE_CURVE('',#257,#254,#64,.T.);
#292=EDGE_CURVE('',#258,#259,#65,.T.);
#293=EDGE_CURVE('',#259,#260,#332,.T.);
#294=EDGE_CURVE('',#261,#260,#66,.T.);
#295=EDGE_CURVE('',#261,#258,#333,.T.);
#296=EDGE_CURVE('',#260,#262,#334,.T.);
#297=EDGE_CURVE('',#262,#263,#67,.T.);
#298=EDGE_CURVE('',#263,#261,#335,.T.);
#299=EDGE_CURVE('',#258,#264,#336,.T.);
#300=EDGE_CURVE('',#265,#264,#68,.T.);
#301=EDGE_CURVE('',#265,#259,#337,.T.);
#302=EDGE_CURVE('',#266,#267,#338,.T.);
#303=EDGE_CURVE('',#266,#261,#339,.T.);
#304=EDGE_CURVE('',#267,#263,#45,.T.);
#305=EDGE_CURVE('',#268,#266,#340,.T.);
#306=EDGE_CURVE('',#268,#258,#341,.T.);
#307=EDGE_CURVE('',#269,#270,#342,.T.);
#308=EDGE_CURVE('',#270,#269,#343,.T.);
#309=EDGE_CURVE('',#262,#265,#69,.T.);
#310=EDGE_CURVE('',#271,#268,#344,.T.);
#311=EDGE_CURVE('',#271,#272,#46,.T.);
#312=EDGE_CURVE('',#272,#264,#47,.T.);
#313=EDGE_CURVE('',#273,#271,#70,.T.);
#314=EDGE_CURVE('',#267,#274,#71,.T.);
#315=EDGE_CURVE('',#274,#273,#345,.T.);
#316=EDGE_CURVE('',#256,#275,#72,.T.);
#317=EDGE_CURVE('',#255,#276,#73,.T.);
#318=EDGE_CURVE('',#253,#273,#74,.T.);
#319=EDGE_CURVE('',#274,#257,#75,.T.);
#320=EDGE_CURVE('',#254,#272,#76,.T.);
#321=EDGE_CURVE('',#277,#270,#346,.T.);
#322=EDGE_CURVE('',#277,#278,#347,.T.);
#323=EDGE_CURVE('',#278,#269,#348,.T.);
#324=EDGE_CURVE('',#278,#277,#349,.T.);
#325=CIRCLE('',#375,20.);
#326=CIRCLE('',#376,20.);
#327=CIRCLE('',#378,20.);
#328=CIRCLE('',#379,20.);
#329=CIRCLE('',#381,41.5);
#330=CIRCLE('',#382,41.5);
#331=CIRCLE('',#383,41.5);
#332=CIRCLE('',#385,34.);
#333=CIRCLE('',#386,34.);
#334=CIRCLE('',#388,34.);
#335=CIRCLE('',#389,34.);
#336=CIRCLE('',#391,34.);
#337=CIRCLE('',#392,34.);
#338=CIRCLE('',#394,36.);
#339=CIRCLE('',#395,2.);
#340=CIRCLE('',#397,36.);
#341=CIRCLE('',#398,2.);
#342=CIRCLE('',#400,4.46508828028139);
#343=CIRCLE('',#401,4.46508828028139);
#344=CIRCLE('',#403,36.);
#345=CIRCLE('',#405,41.5);
#346=CIRCLE('',#410,4.975);
#347=CIRCLE('',#411,3.25776380359289);
#348=CIRCLE('',#412,4.975);
#349=CIRCLE('',#414,3.25776380359289);
#350=INVISIBILITY((#351,#352,#353,#354));
#351=PRESENTATION_LAYER_ASSIGNMENT('100','Layer 100',(#372));
#352=PRESENTATION_LAYER_ASSIGNMENT('101','Layer 101',(#373));
#353=PRESENTATION_LAYER_ASSIGNMENT('102','Layer 102',(#374));
#354=PRESENTATION_LAYER_ASSIGNMENT('98','Layer 98',(#38));
#355=STYLED_ITEM('',(#359),#372);
#356=STYLED_ITEM('',(#360),#373);
#357=STYLED_ITEM('',(#361),#374);
#358=STYLED_ITEM('',(#362),#38);
#359=PRESENTATION_STYLE_ASSIGNMENT((#363));
#360=PRESENTATION_STYLE_ASSIGNMENT((#364));
#361=PRESENTATION_STYLE_ASSIGNMENT((#365));
#362=PRESENTATION_STYLE_ASSIGNMENT((#33));
#363=CURVE_STYLE('',#368,POSITIVE_LENGTH_MEASURE(0.7),#366);
#364=CURVE_STYLE('',#369,POSITIVE_LENGTH_MEASURE(0.7),#366);
#365=CURVE_STYLE('',#370,POSITIVE_LENGTH_MEASURE(0.7),#366);
#366=COLOUR_RGB('Medium Maroon',0.6,0.4,0.4);
#367=COLOUR_RGB('Medium Gray',0.490196078431373,0.490196078431373,0.490196078431373);
#368=DRAUGHTING_PRE_DEFINED_CURVE_FONT('continuous');
#369=DRAUGHTING_PRE_DEFINED_CURVE_FONT('continuous');
#370=DRAUGHTING_PRE_DEFINED_CURVE_FONT('continuous');
#371=AXIS2_PLACEMENT_3D('',#527,#417,#418);
#372=AXIS2_PLACEMENT_3D('PCS',#528,#419,#420);
#373=AXIS2_PLACEMENT_3D('CSW',#529,#421,#422);
#374=AXIS2_PLACEMENT_3D('MCS',#530,#423,#424);
#375=AXIS2_PLACEMENT_3D('',#531,#425,#426);
#376=AXIS2_PLACEMENT_3D('',#534,#427,#428);
#377=AXIS2_PLACEMENT_3D('',#535,#429,#430);
#378=AXIS2_PLACEMENT_3D('',#539,#432,#433);
#379=AXIS2_PLACEMENT_3D('',#543,#435,#436);
#380=AXIS2_PLACEMENT_3D('',#548,#439,#440);
#381=AXIS2_PLACEMENT_3D('',#552,#442,#443);
#382=AXIS2_PLACEMENT_3D('',#554,#444,#445);
#383=AXIS2_PLACEMENT_3D('',#556,#446,#447);
#384=AXIS2_PLACEMENT_3D('',#559,#449,#450);
#385=AXIS2_PLACEMENT_3D('',#563,#452,#453);
#386=AXIS2_PLACEMENT_3D('',#567,#455,#456);
#387=AXIS2_PLACEMENT_3D('',#568,#457,#458);
#388=AXIS2_PLACEMENT_3D('',#569,#459,#460);
#389=AXIS2_PLACEMENT_3D('',#573,#462,#463);
#390=AXIS2_PLACEMENT_3D('',#574,#464,#465);
#391=AXIS2_PLACEMENT_3D('',#575,#466,#467);
#392=AXIS2_PLACEMENT_3D('',#579,#469,#470);
#393=AXIS2_PLACEMENT_3D('',#580,#471,#472);
#394=AXIS2_PLACEMENT_3D('',#581,#473,#474);
#395=AXIS2_PLACEMENT_3D('',#584,#475,#476);
#396=AXIS2_PLACEMENT_3D('',#595,#477,#478);
#397=AXIS2_PLACEMENT_3D('',#596,#479,#480);
#398=AXIS2_PLACEMENT_3D('',#598,#481,#482);
#399=AXIS2_PLACEMENT_3D('',#599,#483,#484);
#400=AXIS2_PLACEMENT_3D('',#600,#485,#486);
#401=AXIS2_PLACEMENT_3D('',#603,#487,#488);
#402=AXIS2_PLACEMENT_3D('',#605,#490,#491);
#403=AXIS2_PLACEMENT_3D('',#606,#492,#493);
#404=AXIS2_PLACEMENT_3D('',#623,#494,#495);
#405=AXIS2_PLACEMENT_3D('',#628,#498,#499);
#406=AXIS2_PLACEMENT_3D('',#629,#500,#501);
#407=AXIS2_PLACEMENT_3D('',#636,#506,#507);
#408=AXIS2_PLACEMENT_3D('',#638,#509,#510);
#409=AXIS2_PLACEMENT_3D('',#639,#511,#512);
#410=AXIS2_PLACEMENT_3D('',#640,#513,#514);
#411=AXIS2_PLACEMENT_3D('',#642,#515,#516);
#412=AXIS2_PLACEMENT_3D('',#644,#517,#518);
#413=AXIS2_PLACEMENT_3D('',#645,#519,#520);
#414=AXIS2_PLACEMENT_3D('',#646,#521,#522);
#415=AXIS2_PLACEMENT_3D('',#647,#523,#524);
#416=AXIS2_PLACEMENT_3D('',#648,#525,#526);
#417=DIRECTION('',(0.,0.,1.));
#418=DIRECTION('',(1.,0.,0.));
#419=DIRECTION('',(0.,0.,1.));
#420=DIRECTION('',(1.,0.,0.));
#421=DIRECTION('',(0.,0.,1.));
#422=DIRECTION('',(1.,0.,0.));
#423=DIRECTION('',(0.,0.,1.));
#424=DIRECTION('',(1.,0.,0.));
#425=DIRECTION('',(0.,0.,-1.));
#426=DIRECTION('',(-1.,0.,0.));
#427=DIRECTION('',(0.,0.,-1.));
#428=DIRECTION('',(-1.,0.,0.));
#429=DIRECTION('',(0.,0.,-1.));
#430=DIRECTION('',(1.,0.,0.));
#431=DIRECTION('',(0.,0.,1.));
#432=DIRECTION('',(0.,0.,-1.));
#433=DIRECTION('',(-1.,0.,0.));
#434=DIRECTION('',(0.,0.,1.));
#435=DIRECTION('',(0.,0.,-1.));
#436=DIRECTION('',(-1.,0.,0.));
#437=DIRECTION('',(0.,0.,1.));
#438=DIRECTION('',(0.,0.,1.));
#439=DIRECTION('',(0.,0.,-1.));
#440=DIRECTION('',(1.,0.,0.));
#441=DIRECTION('',(0.866025403784442,0.499999999999995,0.));
#442=DIRECTION('',(0.,0.,1.));
#443=DIRECTION('',(-1.,0.,0.));
#444=DIRECTION('',(0.,0.,1.));
#445=DIRECTION('',(-1.,0.,0.));
#446=DIRECTION('',(0.,0.,1.));
#447=DIRECTION('',(-1.,0.,0.));
#448=DIRECTION('',(-1.,0.,0.));
#449=DIRECTION('',(0.,0.,-1.));
#450=DIRECTION('',(1.,0.,0.));
#451=DIRECTION('',(0.,0.,-1.));
#452=DIRECTION('',(0.,0.,1.));
#453=DIRECTION('',(1.,0.,0.));
#454=DIRECTION('',(0.,0.,-1.));
#455=DIRECTION('',(0.,0.,-1.));
#456=DIRECTION('',(1.,0.,0.));
#457=DIRECTION('',(0.,0.,-1.));
#458=DIRECTION('',(1.,0.,0.));
#459=DIRECTION('',(0.,0.,1.));
#460=DIRECTION('',(1.,0.,0.));
#461=DIRECTION('',(0.,0.,1.));
#462=DIRECTION('',(0.,0.,-1.));
#463=DIRECTION('',(1.,1.77635683940025E-15,0.));
#464=DIRECTION('',(0.,0.,-1.));
#465=DIRECTION('',(1.,0.,0.));
#466=DIRECTION('',(0.,0.,-1.));
#467=DIRECTION('',(1.,0.,0.));
#468=DIRECTION('',(0.,0.,1.));
#469=DIRECTION('',(0.,0.,1.));
#470=DIRECTION('',(1.,0.,0.));
#471=DIRECTION('',(0.,0.,-1.));
#472=DIRECTION('',(1.,0.,0.));
#473=DIRECTION('',(0.,0.,1.));
#474=DIRECTION('',(1.,0.,0.));
#475=DIRECTION('',(0.,-1.,0.));
#476=DIRECTION('',(-1.,0.,0.));
#477=DIRECTION('',(0.,0.,1.));
#478=DIRECTION('',(-1.,0.,0.));
#479=DIRECTION('',(0.,0.,1.));
#480=DIRECTION('',(1.,0.,0.));
#481=DIRECTION('',(1.22464679914735E-16,1.,0.));
#482=DIRECTION('',(1.,-1.22464679914735E-16,0.));
#483=DIRECTION('',(0.,0.,1.));
#484=DIRECTION('',(-1.,0.,0.));
#485=DIRECTION('',(0.,0.,1.));
#486=DIRECTION('',(1.,0.,0.));
#487=DIRECTION('',(0.,0.,1.));
#488=DIRECTION('',(1.,0.,0.));
#489=DIRECTION('',(-1.,0.,0.));
#490=DIRECTION('',(0.,0.,1.));
#491=DIRECTION('',(-1.,0.,0.));
#492=DIRECTION('',(0.,0.,1.));
#493=DIRECTION('',(1.,0.,0.));
#494=DIRECTION('',(0.,0.,1.));
#495=DIRECTION('',(-1.,0.,0.));
#496=DIRECTION('',(0.866025403784442,0.499999999999995,0.));
#497=DIRECTION('',(1.,0.,0.));
#498=DIRECTION('',(0.,0.,-1.));
#499=DIRECTION('',(1.,0.,0.));
#500=DIRECTION('',(0.,0.,1.));
#501=DIRECTION('',(-1.,0.,0.));
#502=DIRECTION('',(0.,0.,-1.));
#503=DIRECTION('',(0.,0.,-1.));
#504=DIRECTION('',(0.,0.,-1.));
#505=DIRECTION('',(0.,0.,1.));
#506=DIRECTION('',(0.,0.,-1.));
#507=DIRECTION('',(1.,0.,0.));
#508=DIRECTION('',(0.,0.,-1.));
#509=DIRECTION('',(0.499999999999995,-0.866025403784442,0.));
#510=DIRECTION('',(0.866025403784442,0.499999999999995,0.));
#511=DIRECTION('',(0.,1.,0.));
#512=DIRECTION('',(-1.,0.,0.));
#513=DIRECTION('',(1.,0.,0.));
#514=DIRECTION('',(0.,0.,-0.999999999999999));
#515=DIRECTION('',(0.,0.,1.));
#516=DIRECTION('',(1.,0.,0.));
#517=DIRECTION('',(-1.,1.22464679914735E-16,0.));
#518=DIRECTION('',(0.,1.,0.));
#519=DIRECTION('',(-1.,0.,0.));
#520=DIRECTION('',(0.,-1.,0.));
#521=DIRECTION('',(0.,0.,1.));
#522=DIRECTION('',(1.,0.,0.));
#523=DIRECTION('',(-1.,0.,0.));
#524=DIRECTION('',(0.,-1.,0.));
#525=DIRECTION('',(0.,0.,1.));
#526=DIRECTION('',(-1.,0.,0.));
#527=CARTESIAN_POINT('',(0.,0.,0.));
#528=CARTESIAN_POINT('',(0.,0.,0.));
#529=CARTESIAN_POINT('',(0.,0.,-80.));
#530=CARTESIAN_POINT('',(0.,0.,0.));
#531=CARTESIAN_POINT('',(0.,0.,63.));
#532=CARTESIAN_POINT('',(-20.,0.,63.));
#533=CARTESIAN_POINT('',(20.,1.2246467981819E-15,63.));
#534=CARTESIAN_POINT('',(0.,0.,63.));
#535=CARTESIAN_POINT('',(0.,-1.06366544479288E-14,63.));
#536=CARTESIAN_POINT('',(20.,2.44929359829471E-15,-28.9448748531776));
#537=CARTESIAN_POINT('',(20.,0.,0.));
#538=CARTESIAN_POINT('',(20.,7.77321944080416E-16,18.));
#539=CARTESIAN_POINT('',(0.,0.,0.));
#540=CARTESIAN_POINT('',(-20.,0.,0.));
#541=CARTESIAN_POINT('',(-20.,0.,-28.9448748531776));
#542=CARTESIAN_POINT('',(-20.,-4.47324858929517E-16,18.));
#543=CARTESIAN_POINT('',(0.,0.,0.));
#544=CARTESIAN_POINT('',(-20.,0.,-28.9448748531776));
#545=CARTESIAN_POINT('',(-20.,1.9308387713304E-24,48.));
#546=CARTESIAN_POINT('',(20.,2.44929359829471E-15,-28.9448748531776));
#547=CARTESIAN_POINT('',(20.,2.4492935963638E-15,48.));
#548=CARTESIAN_POINT('',(0.,0.,-28.9448748531776));
#549=CARTESIAN_POINT('',(-14.7083487540114,32.5,0.));
#550=CARTESIAN_POINT('',(-36.3645104689862,19.9968092042455,0.));
#551=CARTESIAN_POINT('',(-14.7083487540114,32.5,0.));
#552=CARTESIAN_POINT('',(0.,0.,0.));
#553=CARTESIAN_POINT('',(-41.5,0.,0.));
#554=CARTESIAN_POINT('',(0.,0.,0.));
#555=CARTESIAN_POINT('',(41.5,5.08228421646152E-15,0.));
#556=CARTESIAN_POINT('',(0.,0.,0.));
#557=CARTESIAN_POINT('',(25.8069758011279,32.5,0.));
#558=CARTESIAN_POINT('',(25.8069758011279,32.5,0.));
#559=CARTESIAN_POINT('',(0.,40.5,0.));
#560=CARTESIAN_POINT('',(-34.,0.,-38.4333877681082));
#561=CARTESIAN_POINT('',(-34.,0.,-23.91));
#562=CARTESIAN_POINT('',(-34.,-2.0818995585505E-15,-80.));
#563=CARTESIAN_POINT('',(0.,0.,-80.));
#564=CARTESIAN_POINT('',(34.,0.,-80.));
#565=CARTESIAN_POINT('',(34.,4.163799117101E-15,-38.4333877681082));
#566=CARTESIAN_POINT('',(34.,4.163799117101E-15,-23.91));
#567=CARTESIAN_POINT('',(0.,0.,-23.91));
#568=CARTESIAN_POINT('',(0.,0.,-38.4333877681082));
#569=CARTESIAN_POINT('',(0.,0.,-80.));
#570=CARTESIAN_POINT('',(9.98749217771909,32.5,-80.));
#571=CARTESIAN_POINT('',(9.98749217771909,32.5,-38.4333877681082));
#572=CARTESIAN_POINT('',(9.98749217771913,32.5,-23.9099999999978));
#573=CARTESIAN_POINT('',(0.,0.,-23.91));
#574=CARTESIAN_POINT('',(0.,0.,-38.4333877681082));
#575=CARTESIAN_POINT('',(0.,0.,-23.91));
#576=CARTESIAN_POINT('',(-9.98749217771909,32.5,-23.9100000000003));
#577=CARTESIAN_POINT('',(-9.98749217771909,32.5,-38.4333877681082));
#578=CARTESIAN_POINT('',(-9.98749217771909,32.5,-80.));
#579=CARTESIAN_POINT('',(0.,0.,-80.));
#580=CARTESIAN_POINT('',(0.,0.,-38.4333877681082));
#581=CARTESIAN_POINT('',(0.,0.,-21.91));
#582=CARTESIAN_POINT('',(36.,0.,-21.91));
#583=CARTESIAN_POINT('',(15.483862567202,32.5,-21.91));
#584=CARTESIAN_POINT('',(36.,0.,-23.91));
#585=CARTESIAN_POINT('',(15.483862567202,32.5,-21.91));
#586=CARTESIAN_POINT('',(14.4576049395728,32.5,-21.91));
#587=CARTESIAN_POINT('',(13.435671649976,32.5,-22.0441678111539));
#588=CARTESIAN_POINT('',(11.9550819034025,32.5,-22.440044856856));
#589=CARTESIAN_POINT('',(11.4630301280301,32.5,-22.6055502501502));
#590=CARTESIAN_POINT('',(10.7776937423057,32.5,-22.9507298793728));
#591=CARTESIAN_POINT('',(10.553446410809,32.5,-23.0832067020224));
#592=CARTESIAN_POINT('',(10.1642341905452,32.5,-23.4231479495176));
#593=CARTESIAN_POINT('',(9.9874921777201,32.5,-23.6490720606324));
#594=CARTESIAN_POINT('',(9.98749217771914,32.5,-23.9099999999978));
#595=CARTESIAN_POINT('',(0.,0.,-23.91));
#596=CARTESIAN_POINT('',(0.,0.,-21.91));
#597=CARTESIAN_POINT('',(-36.,4.40872847693047E-15,-21.91));
#598=CARTESIAN_POINT('',(-36.,4.40872847693047E-15,-23.91));
#599=CARTESIAN_POINT('',(0.,0.,-23.91));
#600=CARTESIAN_POINT('',(-11.6,20.,-80.));
#601=CARTESIAN_POINT('',(-11.6,15.5349117197186,-80.));
#602=CARTESIAN_POINT('',(-11.6,24.4650882802814,-80.));
#603=CARTESIAN_POINT('',(-11.6,20.,-80.));
#604=CARTESIAN_POINT('',(0.,32.5,-80.));
#605=CARTESIAN_POINT('',(0.,4.90616637380062E-15,-80.));
#606=CARTESIAN_POINT('',(0.,0.,-21.91));
#607=CARTESIAN_POINT('',(-22.9280787943019,27.7543366485723,-21.91));
#608=CARTESIAN_POINT('',(-22.9280787943019,27.7543366485723,-21.91));
#609=CARTESIAN_POINT('',(-21.5304049276269,28.5612840317364,-21.91));
#610=CARTESIAN_POINT('',(-20.188229110218,29.3361896012172,-21.9545649635788));
#611=CARTESIAN_POINT('',(-17.4482106961646,30.9181399701555,-21.981641219838));
#612=CARTESIAN_POINT('',(-16.0781819354927,31.7091264439269,-21.9626443579541));
#613=CARTESIAN_POINT('',(-14.7083487540114,32.5,-21.9368608742628));
#614=CARTESIAN_POINT('',(-14.7083487540114,32.5,-21.9368608742628));
#615=CARTESIAN_POINT('',(-14.7083487540114,32.5,-21.9368608742628));
#616=CARTESIAN_POINT('',(-13.8119765686601,32.5,-21.9980505358916));
#617=CARTESIAN_POINT('',(-12.9335599774881,32.5,-22.1499711897981));
#618=CARTESIAN_POINT('',(-11.6494917846306,32.5,-22.5474167144267));
#619=CARTESIAN_POINT('',(-11.2268262702576,32.5,-22.7073635256129));
#620=CARTESIAN_POINT('',(-10.4473326970551,32.5,-23.1432809309148));
#621=CARTESIAN_POINT('',(-9.98749217771888,32.5,-23.451693680719));
#622=CARTESIAN_POINT('',(-9.98749217771912,32.5,-23.9100000000003));
#623=CARTESIAN_POINT('',(0.,0.,-23.91));
#624=CARTESIAN_POINT('',(-14.7083487540114,32.5,-21.91));
#625=CARTESIAN_POINT('',(-36.3645104689862,19.9968092042455,-21.91));
#626=CARTESIAN_POINT('',(25.8069758011279,32.5,-21.91));
#627=CARTESIAN_POINT('',(25.8069758011279,32.5,-21.91));
#628=CARTESIAN_POINT('',(0.,0.,-21.91));
#629=CARTESIAN_POINT('',(0.,41.5,-21.91));
#630=CARTESIAN_POINT('',(41.5,5.08228421646152E-15,-38.4333877681082));
#631=CARTESIAN_POINT('',(41.5,5.08228421646152E-15,-20.9099999999999));
#632=CARTESIAN_POINT('',(-41.5,0.,-38.4333877681082));
#633=CARTESIAN_POINT('',(-41.5,0.,-20.9099999999999));
#634=CARTESIAN_POINT('',(-36.3645104689862,19.9968092042455,3.09000000000001));
#635=CARTESIAN_POINT('',(25.8069758011279,32.5,-98.));
#636=CARTESIAN_POINT('',(0.,0.,-38.4333877681082));
#637=CARTESIAN_POINT('',(-14.7083487540114,32.5,3.09000000000001));
#638=CARTESIAN_POINT('',(-14.7083487540114,32.5,3.09000000000001));
#639=CARTESIAN_POINT('',(25.8069758011279,32.5,-98.));
#640=CARTESIAN_POINT('',(-11.6,20.,-77.8060055493931));
#641=CARTESIAN_POINT('',(-11.6,23.2577638035929,-81.5660055493931));
#642=CARTESIAN_POINT('',(-11.6,20.,-81.5660055493931));
#643=CARTESIAN_POINT('',(-11.6,16.7422361964071,-81.5660055493931));
#644=CARTESIAN_POINT('',(-11.6,20.,-77.8060055493931));
#645=CARTESIAN_POINT('',(-11.6,20.,-77.8060055493931));
#646=CARTESIAN_POINT('',(-11.6,20.,-81.5660055493931));
#647=CARTESIAN_POINT('',(-11.6,20.,-77.8060055493931));
#648=CARTESIAN_POINT('',(-11.6,23.2577638035929,-81.5660055493931));
#649=MECHANICAL_DESIGN_GEOMETRIC_PRESENTATION_REPRESENTATION('',(#355,#356,
#357,#358),#650);
#650=(
GEOMETRIC_REPRESENTATION_CONTEXT(3)
GLOBAL_UNCERTAINTY_ASSIGNED_CONTEXT((#651))
GLOBAL_UNIT_ASSIGNED_CONTEXT((#657,#653,#652))
REPRESENTATION_CONTEXT('VDI.40-F1.MT','TOP_LEVEL_ASSEMBLY_PART')
);
#651=UNCERTAINTY_MEASURE_WITH_UNIT(LENGTH_MEASURE(0.0508),#657,
'DISTANCE_ACCURACY_VALUE','Maximum Tolerance applied to model');
#652=(
NAMED_UNIT(*)
SI_UNIT($,.STERADIAN.)
SOLID_ANGLE_UNIT()
);
#653=(
CONVERSION_BASED_UNIT('DEGREE',#655)
NAMED_UNIT(#654)
PLANE_ANGLE_UNIT()
);
#654=DIMENSIONAL_EXPONENTS(0.,0.,0.,0.,0.,0.,0.);
#655=PLANE_ANGLE_MEASURE_WITH_UNIT(PLANE_ANGLE_MEASURE(0.0174532925),#656);
#656=(
NAMED_UNIT(*)
PLANE_ANGLE_UNIT()
SI_UNIT($,.RADIAN.)
);
#657=(
LENGTH_UNIT()
NAMED_UNIT(*)
SI_UNIT(.MILLI.,.METRE.)
);
ENDSEC;
END-ISO-10303-21;
