ISO-10303-21;
HEADER;
/* Generated by software containing ST-Developer
 * from STEP Tools, Inc. (www.steptools.com) 
 */
/* OPTION: using custom schema-name function */

FILE_DESCRIPTION(
/* description */ (''),
/* implementation_level */ '2;1');

FILE_NAME(
/* name */ 'VDI.30-Z2.S.stp',
/* time_stamp */ '2024-10-02T08:40:19+02:00',
/* author */ (''),
/* organization */ (''),
/* preprocessor_version */ 'ST-DEVELOPER v16.7',
/* originating_system */ 'SIEMENS PLM Software NX 12.0',
/* authorisation */ '');

FILE_SCHEMA (('AUTOMOTIVE_DESIGN { 1 0 10303 214 3 1 1 1 }'));
ENDSEC;

DATA;
#10=CONSTRUCTIVE_GEOMETRY_REPRESENTATION_RELATIONSHIP(
'supplemental geometry','',#32,#11);
#11=CONSTRUCTIVE_GEOMETRY_REPRESENTATION('supplemental geometry',(#186,
#187,#188),#294);
#12=PROPERTY_DEFINITION_REPRESENTATION(#16,#14);
#13=PROPERTY_DEFINITION_REPRESENTATION(#17,#15);
#14=REPRESENTATION('',(#18),#294);
#15=REPRESENTATION('',(#19),#294);
#16=PROPERTY_DEFINITION('pmi validation property','',#23);
#17=PROPERTY_DEFINITION('pmi validation property','',#23);
#18=VALUE_REPRESENTATION_ITEM('number of annotations',COUNT_MEASURE(0.));
#19=VALUE_REPRESENTATION_ITEM('number of views',COUNT_MEASURE(0.));
#20=SHAPE_REPRESENTATION_RELATIONSHIP('None',
'relationship between pf6624DC61AFpntr-None and pf6624DC61AFpntr-None',
#32,#21);
#21=ADVANCED_BREP_SHAPE_REPRESENTATION('pf6624DC61AFpntr-None',(#38),#294);
#22=SHAPE_DEFINITION_REPRESENTATION(#23,#32);
#23=PRODUCT_DEFINITION_SHAPE('','',#24);
#24=PRODUCT_DEFINITION(' ','',#26,#25);
#25=PRODUCT_DEFINITION_CONTEXT('part definition',#31,'design');
#26=PRODUCT_DEFINITION_FORMATION_WITH_SPECIFIED_SOURCE(' ',' ',#28,
 .NOT_KNOWN.);
#27=PRODUCT_RELATED_PRODUCT_CATEGORY('part','',(#28));
#28=PRODUCT('pf6624DC61AFpntr','pf6624DC61AFpntr',' ',(#29));
#29=PRODUCT_CONTEXT(' ',#31,'mechanical');
#30=APPLICATION_PROTOCOL_DEFINITION('international standard',
'automotive_design',2010,#31);
#31=APPLICATION_CONTEXT(
'core data for automotive mechanical design processes');
#32=SHAPE_REPRESENTATION('pf6624DC61AFpntr-None',(#185),#294);
#33=SURFACE_STYLE_USAGE(.BOTH.,#34);
#34=SURFACE_SIDE_STYLE('',(#35));
#35=SURFACE_STYLE_FILL_AREA(#36);
#36=FILL_AREA_STYLE('',(#37));
#37=FILL_AREA_STYLE_COLOUR('',#181);
#38=MANIFOLD_SOLID_BREP('',#39);
#39=CLOSED_SHELL('',(#65,#66,#67,#68,#69,#70,#71,#72));
#40=FACE_BOUND('',#87,.T.);
#41=FACE_BOUND('',#88,.T.);
#42=CYLINDRICAL_SURFACE('',#193,15.);
#43=CYLINDRICAL_SURFACE('',#200,34.);
#44=CYLINDRICAL_SURFACE('',#202,34.);
#45=LINE('',#259,#55);
#46=LINE('',#263,#56);
#47=LINE('',#267,#57);
#48=LINE('',#272,#58);
#49=LINE('',#276,#59);
#50=LINE('',#281,#60);
#51=LINE('',#285,#61);
#52=LINE('',#286,#62);
#53=LINE('',#288,#63);
#54=LINE('',#290,#64);
#55=VECTOR('',#216,1.);
#56=VECTOR('',#219,1.);
#57=VECTOR('',#224,1.);
#58=VECTOR('',#227,1.);
#59=VECTOR('',#232,1.);
#60=VECTOR('',#235,1.);
#61=VECTOR('',#240,1.);
#62=VECTOR('',#241,1.);
#63=VECTOR('',#244,1.);
#64=VECTOR('',#247,1.);
#65=ADVANCED_FACE('',(#78),#73,.F.);
#66=ADVANCED_FACE('',(#79),#42,.T.);
#67=ADVANCED_FACE('',(#40,#41),#74,.F.);
#68=ADVANCED_FACE('',(#80),#75,.T.);
#69=ADVANCED_FACE('',(#81),#43,.T.);
#70=ADVANCED_FACE('',(#82),#76,.F.);
#71=ADVANCED_FACE('',(#83),#44,.T.);
#72=ADVANCED_FACE('',(#84),#77,.F.);
#73=PLANE('',#190);
#74=PLANE('',#196);
#75=PLANE('',#199);
#76=PLANE('',#201);
#77=PLANE('',#203);
#78=FACE_OUTER_BOUND('',#85,.T.);
#79=FACE_OUTER_BOUND('',#86,.T.);
#80=FACE_OUTER_BOUND('',#89,.T.);
#81=FACE_OUTER_BOUND('',#90,.T.);
#82=FACE_OUTER_BOUND('',#91,.T.);
#83=FACE_OUTER_BOUND('',#92,.T.);
#84=FACE_OUTER_BOUND('',#93,.T.);
#85=EDGE_LOOP('',(#94));
#86=EDGE_LOOP('',(#95,#96,#97,#98,#99,#100,#101));
#87=EDGE_LOOP('',(#102,#103,#104,#105));
#88=EDGE_LOOP('',(#106,#107));
#89=EDGE_LOOP('',(#108,#109,#110,#111));
#90=EDGE_LOOP('',(#112,#113,#114,#115));
#91=EDGE_LOOP('',(#116,#117,#118,#119));
#92=EDGE_LOOP('',(#120,#121,#122,#123));
#93=EDGE_LOOP('',(#124,#125,#126,#127));
#94=ORIENTED_EDGE('',*,*,#140,.F.);
#95=ORIENTED_EDGE('',*,*,#141,.F.);
#96=ORIENTED_EDGE('',*,*,#140,.T.);
#97=ORIENTED_EDGE('',*,*,#141,.T.);
#98=ORIENTED_EDGE('',*,*,#142,.F.);
#99=ORIENTED_EDGE('',*,*,#143,.F.);
#100=ORIENTED_EDGE('',*,*,#143,.T.);
#101=ORIENTED_EDGE('',*,*,#144,.F.);
#102=ORIENTED_EDGE('',*,*,#145,.T.);
#103=ORIENTED_EDGE('',*,*,#146,.F.);
#104=ORIENTED_EDGE('',*,*,#147,.F.);
#105=ORIENTED_EDGE('',*,*,#148,.F.);
#106=ORIENTED_EDGE('',*,*,#144,.T.);
#107=ORIENTED_EDGE('',*,*,#142,.T.);
#108=ORIENTED_EDGE('',*,*,#149,.T.);
#109=ORIENTED_EDGE('',*,*,#150,.F.);
#110=ORIENTED_EDGE('',*,*,#151,.T.);
#111=ORIENTED_EDGE('',*,*,#152,.F.);
#112=ORIENTED_EDGE('',*,*,#153,.F.);
#113=ORIENTED_EDGE('',*,*,#148,.T.);
#114=ORIENTED_EDGE('',*,*,#154,.T.);
#115=ORIENTED_EDGE('',*,*,#150,.T.);
#116=ORIENTED_EDGE('',*,*,#155,.T.);
#117=ORIENTED_EDGE('',*,*,#151,.F.);
#118=ORIENTED_EDGE('',*,*,#154,.F.);
#119=ORIENTED_EDGE('',*,*,#147,.T.);
#120=ORIENTED_EDGE('',*,*,#156,.T.);
#121=ORIENTED_EDGE('',*,*,#152,.T.);
#122=ORIENTED_EDGE('',*,*,#155,.F.);
#123=ORIENTED_EDGE('',*,*,#146,.T.);
#124=ORIENTED_EDGE('',*,*,#153,.T.);
#125=ORIENTED_EDGE('',*,*,#149,.F.);
#126=ORIENTED_EDGE('',*,*,#156,.F.);
#127=ORIENTED_EDGE('',*,*,#145,.F.);
#128=VERTEX_POINT('',#257);
#129=VERTEX_POINT('',#260);
#130=VERTEX_POINT('',#262);
#131=VERTEX_POINT('',#264);
#132=VERTEX_POINT('',#268);
#133=VERTEX_POINT('',#269);
#134=VERTEX_POINT('',#271);
#135=VERTEX_POINT('',#273);
#136=VERTEX_POINT('',#277);
#137=VERTEX_POINT('',#278);
#138=VERTEX_POINT('',#280);
#139=VERTEX_POINT('',#282);
#140=EDGE_CURVE('',#128,#128,#157,.T.);
#141=EDGE_CURVE('',#128,#129,#45,.T.);
#142=EDGE_CURVE('',#130,#129,#158,.T.);
#143=EDGE_CURVE('',#131,#130,#46,.T.);
#144=EDGE_CURVE('',#129,#130,#159,.T.);
#145=EDGE_CURVE('',#132,#133,#47,.T.);
#146=EDGE_CURVE('',#134,#133,#160,.T.);
#147=EDGE_CURVE('',#135,#134,#48,.T.);
#148=EDGE_CURVE('',#132,#135,#161,.T.);
#149=EDGE_CURVE('',#136,#137,#49,.T.);
#150=EDGE_CURVE('',#138,#137,#162,.T.);
#151=EDGE_CURVE('',#138,#139,#50,.T.);
#152=EDGE_CURVE('',#136,#139,#163,.T.);
#153=EDGE_CURVE('',#132,#137,#51,.T.);
#154=EDGE_CURVE('',#135,#138,#52,.T.);
#155=EDGE_CURVE('',#134,#139,#53,.T.);
#156=EDGE_CURVE('',#133,#136,#54,.T.);
#157=CIRCLE('',#189,15.);
#158=CIRCLE('',#191,15.);
#159=CIRCLE('',#192,15.);
#160=CIRCLE('',#194,34.);
#161=CIRCLE('',#195,34.);
#162=CIRCLE('',#197,34.);
#163=CIRCLE('',#198,34.);
#164=INVISIBILITY((#165,#166,#167,#168));
#165=PRESENTATION_LAYER_ASSIGNMENT('100','Layer 100',(#186));
#166=PRESENTATION_LAYER_ASSIGNMENT('101','Layer 101',(#187));
#167=PRESENTATION_LAYER_ASSIGNMENT('102','Layer 102',(#188));
#168=PRESENTATION_LAYER_ASSIGNMENT('98','Layer 98',(#38));
#169=STYLED_ITEM('',(#173),#186);
#170=STYLED_ITEM('',(#174),#187);
#171=STYLED_ITEM('',(#175),#188);
#172=STYLED_ITEM('',(#176),#38);
#173=PRESENTATION_STYLE_ASSIGNMENT((#177));
#174=PRESENTATION_STYLE_ASSIGNMENT((#178));
#175=PRESENTATION_STYLE_ASSIGNMENT((#179));
#176=PRESENTATION_STYLE_ASSIGNMENT((#33));
#177=CURVE_STYLE('',#182,POSITIVE_LENGTH_MEASURE(0.7),#180);
#178=CURVE_STYLE('',#183,POSITIVE_LENGTH_MEASURE(0.7),#180);
#179=CURVE_STYLE('',#184,POSITIVE_LENGTH_MEASURE(0.7),#180);
#180=COLOUR_RGB('Medium Maroon',0.6,0.4,0.4);
#181=COLOUR_RGB('Medium Gray',0.490196078431373,0.490196078431373,0.490196078431373);
#182=DRAUGHTING_PRE_DEFINED_CURVE_FONT('continuous');
#183=DRAUGHTING_PRE_DEFINED_CURVE_FONT('continuous');
#184=DRAUGHTING_PRE_DEFINED_CURVE_FONT('continuous');
#185=AXIS2_PLACEMENT_3D('',#252,#204,#205);
#186=AXIS2_PLACEMENT_3D('PCS',#253,#206,#207);
#187=AXIS2_PLACEMENT_3D('CSW',#254,#208,#209);
#188=AXIS2_PLACEMENT_3D('MCS',#255,#210,#211);
#189=AXIS2_PLACEMENT_3D('',#256,#212,#213);
#190=AXIS2_PLACEMENT_3D('',#258,#214,#215);
#191=AXIS2_PLACEMENT_3D('',#261,#217,#218);
#192=AXIS2_PLACEMENT_3D('',#265,#220,#221);
#193=AXIS2_PLACEMENT_3D('',#266,#222,#223);
#194=AXIS2_PLACEMENT_3D('',#270,#225,#226);
#195=AXIS2_PLACEMENT_3D('',#274,#228,#229);
#196=AXIS2_PLACEMENT_3D('',#275,#230,#231);
#197=AXIS2_PLACEMENT_3D('',#279,#233,#234);
#198=AXIS2_PLACEMENT_3D('',#283,#236,#237);
#199=AXIS2_PLACEMENT_3D('',#284,#238,#239);
#200=AXIS2_PLACEMENT_3D('',#287,#242,#243);
#201=AXIS2_PLACEMENT_3D('',#289,#245,#246);
#202=AXIS2_PLACEMENT_3D('',#291,#248,#249);
#203=AXIS2_PLACEMENT_3D('',#292,#250,#251);
#204=DIRECTION('',(0.,0.,1.));
#205=DIRECTION('',(1.,0.,0.));
#206=DIRECTION('',(0.,0.,1.));
#207=DIRECTION('',(1.,0.,0.));
#208=DIRECTION('',(0.,0.,1.));
#209=DIRECTION('',(1.,0.,0.));
#210=DIRECTION('',(0.,0.,1.));
#211=DIRECTION('',(1.,0.,0.));
#212=DIRECTION('',(0.,0.,-1.));
#213=DIRECTION('',(-1.,0.,0.));
#214=DIRECTION('',(0.,0.,-1.));
#215=DIRECTION('',(0.,1.,0.));
#216=DIRECTION('',(0.,0.,-1.));
#217=DIRECTION('',(0.,0.,-1.));
#218=DIRECTION('',(-1.,0.,0.));
#219=DIRECTION('',(0.,0.,-1.));
#220=DIRECTION('',(0.,0.,-1.));
#221=DIRECTION('',(-1.,0.,0.));
#222=DIRECTION('',(0.,0.,-1.));
#223=DIRECTION('',(0.,1.,0.));
#224=DIRECTION('',(-1.,0.,0.));
#225=DIRECTION('',(0.,0.,-1.));
#226=DIRECTION('',(-1.,0.,0.));
#227=DIRECTION('',(-1.,0.,0.));
#228=DIRECTION('',(0.,0.,-1.));
#229=DIRECTION('',(-1.,0.,0.));
#230=DIRECTION('',(0.,0.,-1.));
#231=DIRECTION('',(0.,1.,0.));
#232=DIRECTION('',(1.,0.,0.));
#233=DIRECTION('',(0.,0.,1.));
#234=DIRECTION('',(-1.,0.,0.));
#235=DIRECTION('',(-1.,0.,0.));
#236=DIRECTION('',(0.,0.,1.));
#237=DIRECTION('',(-1.,0.,0.));
#238=DIRECTION('',(0.,0.,-1.));
#239=DIRECTION('',(0.,1.,0.));
#240=DIRECTION('',(0.,0.,-1.));
#241=DIRECTION('',(0.,0.,-1.));
#242=DIRECTION('',(0.,0.,-1.));
#243=DIRECTION('',(0.,1.,0.));
#244=DIRECTION('',(0.,0.,-1.));
#245=DIRECTION('',(0.,1.,0.));
#246=DIRECTION('',(1.,0.,0.));
#247=DIRECTION('',(0.,0.,-1.));
#248=DIRECTION('',(0.,0.,-1.));
#249=DIRECTION('',(0.,1.,0.));
#250=DIRECTION('',(0.,-1.,0.));
#251=DIRECTION('',(-1.,0.,0.));
#252=CARTESIAN_POINT('',(0.,0.,0.));
#253=CARTESIAN_POINT('',(0.,0.,0.));
#254=CARTESIAN_POINT('',(0.,0.,-16.));
#255=CARTESIAN_POINT('',(0.,0.,0.));
#256=CARTESIAN_POINT('',(0.,0.,55.));
#257=CARTESIAN_POINT('',(1.83697019872103E-15,-15.,55.));
#258=CARTESIAN_POINT('',(0.,0.,55.));
#259=CARTESIAN_POINT('',(0.,-15.,2.4));
#260=CARTESIAN_POINT('',(1.83697019872103E-15,-15.,0.));
#261=CARTESIAN_POINT('',(0.,0.,0.));
#262=CARTESIAN_POINT('',(0.,15.,0.));
#263=CARTESIAN_POINT('',(0.,15.,2.4));
#264=CARTESIAN_POINT('',(0.,15.,7.));
#265=CARTESIAN_POINT('',(0.,0.,0.));
#266=CARTESIAN_POINT('',(0.,0.,58.55));
#267=CARTESIAN_POINT('',(-34.,28.,0.));
#268=CARTESIAN_POINT('',(19.2873015219859,28.,0.));
#269=CARTESIAN_POINT('',(-19.2873015219859,28.,0.));
#270=CARTESIAN_POINT('',(0.,0.,0.));
#271=CARTESIAN_POINT('',(-16.,-30.,0.));
#272=CARTESIAN_POINT('',(0.,-30.,0.));
#273=CARTESIAN_POINT('',(16.,-30.,0.));
#274=CARTESIAN_POINT('',(0.,0.,0.));
#275=CARTESIAN_POINT('',(0.,0.,0.));
#276=CARTESIAN_POINT('',(-34.,28.,-16.));
#277=CARTESIAN_POINT('',(-19.2873015219859,28.,-16.));
#278=CARTESIAN_POINT('',(19.2873015219859,28.,-16.));
#279=CARTESIAN_POINT('',(0.,0.,-16.));
#280=CARTESIAN_POINT('',(16.,-30.,-16.));
#281=CARTESIAN_POINT('',(34.,-30.,-16.));
#282=CARTESIAN_POINT('',(-16.,-30.,-16.));
#283=CARTESIAN_POINT('',(0.,0.,-16.));
#284=CARTESIAN_POINT('',(0.,0.,-16.));
#285=CARTESIAN_POINT('',(19.28730152199,28.,-1.));
#286=CARTESIAN_POINT('',(16.,-30.,-1.));
#287=CARTESIAN_POINT('',(0.,0.,58.55));
#288=CARTESIAN_POINT('',(-16.,-30.,-1.));
#289=CARTESIAN_POINT('',(34.,-30.,0.));
#290=CARTESIAN_POINT('',(-19.28730152199,28.,-1.));
#291=CARTESIAN_POINT('',(0.,0.,58.55));
#292=CARTESIAN_POINT('',(-34.,28.,0.));
#293=MECHANICAL_DESIGN_GEOMETRIC_PRESENTATION_REPRESENTATION('',(#169,#170,
#171,#172),#294);
#294=(
GEOMETRIC_REPRESENTATION_CONTEXT(3)
GLOBAL_UNCERTAINTY_ASSIGNED_CONTEXT((#295))
GLOBAL_UNIT_ASSIGNED_CONTEXT((#301,#297,#296))
REPRESENTATION_CONTEXT('VDI.30-Z2','TOP_LEVEL_ASSEMBLY_PART')
);
#295=UNCERTAINTY_MEASURE_WITH_UNIT(LENGTH_MEASURE(2.E-5),#301,
'DISTANCE_ACCURACY_VALUE','Maximum Tolerance applied to model');
#296=(
NAMED_UNIT(*)
SI_UNIT($,.STERADIAN.)
SOLID_ANGLE_UNIT()
);
#297=(
CONVERSION_BASED_UNIT('DEGREE',#299)
NAMED_UNIT(#298)
PLANE_ANGLE_UNIT()
);
#298=DIMENSIONAL_EXPONENTS(0.,0.,0.,0.,0.,0.,0.);
#299=PLANE_ANGLE_MEASURE_WITH_UNIT(PLANE_ANGLE_MEASURE(0.0174532925),#300);
#300=(
NAMED_UNIT(*)
PLANE_ANGLE_UNIT()
SI_UNIT($,.RADIAN.)
);
#301=(
LENGTH_UNIT()
NAMED_UNIT(*)
SI_UNIT(.MILLI.,.METRE.)
);
ENDSEC;
END-ISO-10303-21;
