ISO-10303-21;
HEADER;
/* Generated by software containing ST-Developer
 * from STEP Tools, Inc. (www.steptools.com) 
 */
/* OPTION: using custom schema-name function */

FILE_DESCRIPTION(
/* description */ (''),
/* implementation_level */ '2;1');

FILE_NAME(
/* name */ 'VDI.30-F1.MT.3.stp',
/* time_stamp */ '2024-10-02T08:34:43+02:00',
/* author */ (''),
/* organization */ (''),
/* preprocessor_version */ 'ST-DEVELOPER v16.7',
/* originating_system */ 'SIEMENS PLM Software NX 12.0',
/* authorisation */ '');

FILE_SCHEMA (('AUTOMOTIVE_DESIGN { 1 0 10303 214 3 1 1 1 }'));
ENDSEC;

DATA;
#10=CONSTRUCTIVE_GEOMETRY_REPRESENTATION_RELATIONSHIP(
'supplemental geometry','',#32,#11);
#11=CONSTRUCTIVE_GEOMETRY_REPRESENTATION('supplemental geometry',(#229,
#230,#231),#367);
#12=PROPERTY_DEFINITION_REPRESENTATION(#16,#14);
#13=PROPERTY_DEFINITION_REPRESENTATION(#17,#15);
#14=REPRESENTATION('',(#18),#367);
#15=REPRESENTATION('',(#19),#367);
#16=PROPERTY_DEFINITION('pmi validation property','',#23);
#17=PROPERTY_DEFINITION('pmi validation property','',#23);
#18=VALUE_REPRESENTATION_ITEM('number of annotations',COUNT_MEASURE(0.));
#19=VALUE_REPRESENTATION_ITEM('number of views',COUNT_MEASURE(0.));
#20=SHAPE_REPRESENTATION_RELATIONSHIP('None',
'relationship between pf6624DC61AFpns4-None and pf6624DC61AFpns4-None',
#32,#21);
#21=ADVANCED_BREP_SHAPE_REPRESENTATION('pf6624DC61AFpns4-None',(#38),#367);
#22=SHAPE_DEFINITION_REPRESENTATION(#23,#32);
#23=PRODUCT_DEFINITION_SHAPE('','',#24);
#24=PRODUCT_DEFINITION(' ','',#26,#25);
#25=PRODUCT_DEFINITION_CONTEXT('part definition',#31,'design');
#26=PRODUCT_DEFINITION_FORMATION_WITH_SPECIFIED_SOURCE(' ',' ',#28,
 .NOT_KNOWN.);
#27=PRODUCT_RELATED_PRODUCT_CATEGORY('part','',(#28));
#28=PRODUCT('pf6624DC61AFpns4','pf6624DC61AFpns4',' ',(#29));
#29=PRODUCT_CONTEXT(' ',#31,'mechanical');
#30=APPLICATION_PROTOCOL_DEFINITION('international standard',
'automotive_design',2010,#31);
#31=APPLICATION_CONTEXT(
'core data for automotive mechanical design processes');
#32=SHAPE_REPRESENTATION('pf6624DC61AFpns4-None',(#228),#367);
#33=SURFACE_STYLE_USAGE(.BOTH.,#34);
#34=SURFACE_SIDE_STYLE('',(#35));
#35=SURFACE_STYLE_FILL_AREA(#36);
#36=FILL_AREA_STYLE('',(#37));
#37=FILL_AREA_STYLE_COLOUR('',#224);
#38=MANIFOLD_SOLID_BREP('',#39);
#39=CLOSED_SHELL('',(#76,#77,#78,#79,#80,#81,#82,#83,#84,#85,#86));
#40=SPHERICAL_SURFACE('',#250,5.);
#41=FACE_BOUND('',#104,.T.);
#42=FACE_BOUND('',#105,.T.);
#43=FACE_BOUND('',#106,.T.);
#44=FACE_BOUND('',#107,.T.);
#45=FACE_BOUND('',#113,.T.);
#46=FACE_BOUND('',#114,.T.);
#47=CYLINDRICAL_SURFACE('',#236,15.);
#48=CYLINDRICAL_SURFACE('',#246,34.);
#49=CYLINDRICAL_SURFACE('',#248,34.);
#50=LINE('',#320,#63);
#51=LINE('',#324,#64);
#52=LINE('',#328,#65);
#53=LINE('',#333,#66);
#54=LINE('',#337,#67);
#55=LINE('',#341,#68);
#56=LINE('',#346,#69);
#57=LINE('',#350,#70);
#58=LINE('',#352,#71);
#59=LINE('',#353,#72);
#60=LINE('',#355,#73);
#61=LINE('',#357,#74);
#62=LINE('',#359,#75);
#63=VECTOR('',#264,1.);
#64=VECTOR('',#267,1.);
#65=VECTOR('',#272,1.);
#66=VECTOR('',#275,1.);
#67=VECTOR('',#278,1.);
#68=VECTOR('',#283,1.);
#69=VECTOR('',#286,1.);
#70=VECTOR('',#289,1.);
#71=VECTOR('',#292,1.);
#72=VECTOR('',#293,1.);
#73=VECTOR('',#296,1.);
#74=VECTOR('',#299,1.);
#75=VECTOR('',#302,1.);
#76=ADVANCED_FACE('',(#94),#87,.F.);
#77=ADVANCED_FACE('',(#95),#47,.T.);
#78=ADVANCED_FACE('',(#41,#42),#88,.F.);
#79=ADVANCED_FACE('',(#43,#44),#89,.T.);
#80=ADVANCED_FACE('',(#96),#90,.F.);
#81=ADVANCED_FACE('',(#97),#91,.F.);
#82=ADVANCED_FACE('',(#98),#48,.T.);
#83=ADVANCED_FACE('',(#99),#92,.F.);
#84=ADVANCED_FACE('',(#100),#49,.T.);
#85=ADVANCED_FACE('',(#45,#46),#40,.T.);
#86=ADVANCED_FACE('',(#101),#93,.T.);
#87=PLANE('',#233);
#88=PLANE('',#239);
#89=PLANE('',#243);
#90=PLANE('',#244);
#91=PLANE('',#245);
#92=PLANE('',#247);
#93=PLANE('',#251);
#94=FACE_OUTER_BOUND('',#102,.T.);
#95=FACE_OUTER_BOUND('',#103,.T.);
#96=FACE_OUTER_BOUND('',#108,.T.);
#97=FACE_OUTER_BOUND('',#109,.T.);
#98=FACE_OUTER_BOUND('',#110,.T.);
#99=FACE_OUTER_BOUND('',#111,.T.);
#100=FACE_OUTER_BOUND('',#112,.T.);
#101=FACE_OUTER_BOUND('',#115,.T.);
#102=EDGE_LOOP('',(#116));
#103=EDGE_LOOP('',(#117,#118,#119,#120,#121,#122,#123));
#104=EDGE_LOOP('',(#124,#125,#126,#127,#128));
#105=EDGE_LOOP('',(#129,#130));
#106=EDGE_LOOP('',(#131));
#107=EDGE_LOOP('',(#132,#133,#134,#135,#136));
#108=EDGE_LOOP('',(#137,#138,#139,#140));
#109=EDGE_LOOP('',(#141,#142,#143,#144));
#110=EDGE_LOOP('',(#145,#146,#147,#148));
#111=EDGE_LOOP('',(#149,#150,#151,#152));
#112=EDGE_LOOP('',(#153,#154,#155,#156));
#113=EDGE_LOOP('',(#157));
#114=EDGE_LOOP('',(#158));
#115=EDGE_LOOP('',(#159));
#116=ORIENTED_EDGE('',*,*,#176,.F.);
#117=ORIENTED_EDGE('',*,*,#177,.F.);
#118=ORIENTED_EDGE('',*,*,#176,.T.);
#119=ORIENTED_EDGE('',*,*,#177,.T.);
#120=ORIENTED_EDGE('',*,*,#178,.F.);
#121=ORIENTED_EDGE('',*,*,#179,.F.);
#122=ORIENTED_EDGE('',*,*,#179,.T.);
#123=ORIENTED_EDGE('',*,*,#180,.F.);
#124=ORIENTED_EDGE('',*,*,#181,.F.);
#125=ORIENTED_EDGE('',*,*,#182,.F.);
#126=ORIENTED_EDGE('',*,*,#183,.F.);
#127=ORIENTED_EDGE('',*,*,#184,.F.);
#128=ORIENTED_EDGE('',*,*,#185,.T.);
#129=ORIENTED_EDGE('',*,*,#178,.T.);
#130=ORIENTED_EDGE('',*,*,#180,.T.);
#131=ORIENTED_EDGE('',*,*,#186,.F.);
#132=ORIENTED_EDGE('',*,*,#187,.T.);
#133=ORIENTED_EDGE('',*,*,#188,.F.);
#134=ORIENTED_EDGE('',*,*,#189,.T.);
#135=ORIENTED_EDGE('',*,*,#190,.F.);
#136=ORIENTED_EDGE('',*,*,#191,.T.);
#137=ORIENTED_EDGE('',*,*,#191,.F.);
#138=ORIENTED_EDGE('',*,*,#192,.F.);
#139=ORIENTED_EDGE('',*,*,#181,.T.);
#140=ORIENTED_EDGE('',*,*,#193,.F.);
#141=ORIENTED_EDGE('',*,*,#185,.F.);
#142=ORIENTED_EDGE('',*,*,#194,.T.);
#143=ORIENTED_EDGE('',*,*,#187,.F.);
#144=ORIENTED_EDGE('',*,*,#193,.T.);
#145=ORIENTED_EDGE('',*,*,#194,.F.);
#146=ORIENTED_EDGE('',*,*,#184,.T.);
#147=ORIENTED_EDGE('',*,*,#195,.T.);
#148=ORIENTED_EDGE('',*,*,#188,.T.);
#149=ORIENTED_EDGE('',*,*,#189,.F.);
#150=ORIENTED_EDGE('',*,*,#195,.F.);
#151=ORIENTED_EDGE('',*,*,#183,.T.);
#152=ORIENTED_EDGE('',*,*,#196,.T.);
#153=ORIENTED_EDGE('',*,*,#192,.T.);
#154=ORIENTED_EDGE('',*,*,#190,.T.);
#155=ORIENTED_EDGE('',*,*,#196,.F.);
#156=ORIENTED_EDGE('',*,*,#182,.T.);
#157=ORIENTED_EDGE('',*,*,#197,.T.);
#158=ORIENTED_EDGE('',*,*,#186,.T.);
#159=ORIENTED_EDGE('',*,*,#197,.F.);
#160=VERTEX_POINT('',#318);
#161=VERTEX_POINT('',#321);
#162=VERTEX_POINT('',#323);
#163=VERTEX_POINT('',#325);
#164=VERTEX_POINT('',#329);
#165=VERTEX_POINT('',#330);
#166=VERTEX_POINT('',#332);
#167=VERTEX_POINT('',#334);
#168=VERTEX_POINT('',#336);
#169=VERTEX_POINT('',#340);
#170=VERTEX_POINT('',#342);
#171=VERTEX_POINT('',#343);
#172=VERTEX_POINT('',#345);
#173=VERTEX_POINT('',#347);
#174=VERTEX_POINT('',#349);
#175=VERTEX_POINT('',#363);
#176=EDGE_CURVE('',#160,#160,#198,.T.);
#177=EDGE_CURVE('',#160,#161,#50,.T.);
#178=EDGE_CURVE('',#162,#161,#199,.T.);
#179=EDGE_CURVE('',#163,#162,#51,.T.);
#180=EDGE_CURVE('',#161,#162,#200,.T.);
#181=EDGE_CURVE('',#164,#165,#52,.T.);
#182=EDGE_CURVE('',#166,#164,#201,.T.);
#183=EDGE_CURVE('',#167,#166,#53,.T.);
#184=EDGE_CURVE('',#168,#167,#202,.T.);
#185=EDGE_CURVE('',#168,#165,#54,.T.);
#186=EDGE_CURVE('',#169,#169,#203,.T.);
#187=EDGE_CURVE('',#170,#171,#55,.T.);
#188=EDGE_CURVE('',#172,#171,#204,.T.);
#189=EDGE_CURVE('',#172,#173,#56,.T.);
#190=EDGE_CURVE('',#174,#173,#205,.T.);
#191=EDGE_CURVE('',#174,#170,#57,.T.);
#192=EDGE_CURVE('',#164,#174,#58,.T.);
#193=EDGE_CURVE('',#170,#165,#59,.T.);
#194=EDGE_CURVE('',#168,#171,#60,.T.);
#195=EDGE_CURVE('',#167,#172,#61,.T.);
#196=EDGE_CURVE('',#166,#173,#62,.T.);
#197=EDGE_CURVE('',#175,#175,#206,.T.);
#198=CIRCLE('',#232,15.);
#199=CIRCLE('',#234,15.);
#200=CIRCLE('',#235,15.);
#201=CIRCLE('',#237,34.);
#202=CIRCLE('',#238,34.);
#203=CIRCLE('',#240,4.56490963765987);
#204=CIRCLE('',#241,34.);
#205=CIRCLE('',#242,34.);
#206=CIRCLE('',#249,3.531062163146);
#207=INVISIBILITY((#208,#209,#210,#211));
#208=PRESENTATION_LAYER_ASSIGNMENT('100','Layer 100',(#229));
#209=PRESENTATION_LAYER_ASSIGNMENT('101','Layer 101',(#230));
#210=PRESENTATION_LAYER_ASSIGNMENT('102','Layer 102',(#231));
#211=PRESENTATION_LAYER_ASSIGNMENT('98','Layer 98',(#38));
#212=STYLED_ITEM('',(#216),#229);
#213=STYLED_ITEM('',(#217),#230);
#214=STYLED_ITEM('',(#218),#231);
#215=STYLED_ITEM('',(#219),#38);
#216=PRESENTATION_STYLE_ASSIGNMENT((#220));
#217=PRESENTATION_STYLE_ASSIGNMENT((#221));
#218=PRESENTATION_STYLE_ASSIGNMENT((#222));
#219=PRESENTATION_STYLE_ASSIGNMENT((#33));
#220=CURVE_STYLE('',#225,POSITIVE_LENGTH_MEASURE(0.7),#223);
#221=CURVE_STYLE('',#226,POSITIVE_LENGTH_MEASURE(0.7),#223);
#222=CURVE_STYLE('',#227,POSITIVE_LENGTH_MEASURE(0.7),#223);
#223=COLOUR_RGB('Medium Maroon',0.6,0.4,0.4);
#224=COLOUR_RGB('Medium Gray',0.490196078431373,0.490196078431373,0.490196078431373);
#225=DRAUGHTING_PRE_DEFINED_CURVE_FONT('continuous');
#226=DRAUGHTING_PRE_DEFINED_CURVE_FONT('continuous');
#227=DRAUGHTING_PRE_DEFINED_CURVE_FONT('continuous');
#228=AXIS2_PLACEMENT_3D('',#313,#252,#253);
#229=AXIS2_PLACEMENT_3D('PCS',#314,#254,#255);
#230=AXIS2_PLACEMENT_3D('CSW',#315,#256,#257);
#231=AXIS2_PLACEMENT_3D('MCS',#316,#258,#259);
#232=AXIS2_PLACEMENT_3D('',#317,#260,#261);
#233=AXIS2_PLACEMENT_3D('',#319,#262,#263);
#234=AXIS2_PLACEMENT_3D('',#322,#265,#266);
#235=AXIS2_PLACEMENT_3D('',#326,#268,#269);
#236=AXIS2_PLACEMENT_3D('',#327,#270,#271);
#237=AXIS2_PLACEMENT_3D('',#331,#273,#274);
#238=AXIS2_PLACEMENT_3D('',#335,#276,#277);
#239=AXIS2_PLACEMENT_3D('',#338,#279,#280);
#240=AXIS2_PLACEMENT_3D('',#339,#281,#282);
#241=AXIS2_PLACEMENT_3D('',#344,#284,#285);
#242=AXIS2_PLACEMENT_3D('',#348,#287,#288);
#243=AXIS2_PLACEMENT_3D('',#351,#290,#291);
#244=AXIS2_PLACEMENT_3D('',#354,#294,#295);
#245=AXIS2_PLACEMENT_3D('',#356,#297,#298);
#246=AXIS2_PLACEMENT_3D('',#358,#300,#301);
#247=AXIS2_PLACEMENT_3D('',#360,#303,#304);
#248=AXIS2_PLACEMENT_3D('',#361,#305,#306);
#249=AXIS2_PLACEMENT_3D('',#362,#307,#308);
#250=AXIS2_PLACEMENT_3D('',#364,#309,#310);
#251=AXIS2_PLACEMENT_3D('',#365,#311,#312);
#252=DIRECTION('',(0.,0.,1.));
#253=DIRECTION('',(1.,0.,0.));
#254=DIRECTION('',(0.,0.,1.));
#255=DIRECTION('',(1.,0.,0.));
#256=DIRECTION('',(0.,0.,1.));
#257=DIRECTION('',(1.,0.,0.));
#258=DIRECTION('',(0.,0.,1.));
#259=DIRECTION('',(1.,0.,0.));
#260=DIRECTION('',(0.,0.,-1.));
#261=DIRECTION('',(-1.,0.,0.));
#262=DIRECTION('',(0.,0.,-1.));
#263=DIRECTION('',(0.,1.,0.));
#264=DIRECTION('',(0.,0.,-1.));
#265=DIRECTION('',(0.,0.,-1.));
#266=DIRECTION('',(-1.,0.,0.));
#267=DIRECTION('',(0.,0.,-1.));
#268=DIRECTION('',(0.,0.,-1.));
#269=DIRECTION('',(-1.,0.,0.));
#270=DIRECTION('',(0.,0.,-1.));
#271=DIRECTION('',(0.,1.,0.));
#272=DIRECTION('',(0.866025403784429,0.500000000000017,0.));
#273=DIRECTION('',(0.,0.,-1.));
#274=DIRECTION('',(-1.,0.,0.));
#275=DIRECTION('',(-1.,0.,0.));
#276=DIRECTION('',(0.,0.,-1.));
#277=DIRECTION('',(-1.,0.,0.));
#278=DIRECTION('',(-1.,0.,0.));
#279=DIRECTION('',(0.,0.,-1.));
#280=DIRECTION('',(0.,1.,0.));
#281=DIRECTION('',(0.,0.,-1.));
#282=DIRECTION('',(-1.,0.,0.));
#283=DIRECTION('',(1.,0.,0.));
#284=DIRECTION('',(0.,0.,1.));
#285=DIRECTION('',(-1.,0.,0.));
#286=DIRECTION('',(-1.,0.,0.));
#287=DIRECTION('',(0.,0.,1.));
#288=DIRECTION('',(-1.,0.,0.));
#289=DIRECTION('',(0.866025403784429,0.500000000000017,0.));
#290=DIRECTION('',(0.,0.,-1.));
#291=DIRECTION('',(0.,1.,0.));
#292=DIRECTION('',(0.,0.,-1.));
#293=DIRECTION('',(0.,0.,1.));
#294=DIRECTION('',(0.500000000000017,-0.866025403784429,0.));
#295=DIRECTION('',(-0.866025403784429,-0.500000000000017,0.));
#296=DIRECTION('',(0.,0.,-1.));
#297=DIRECTION('',(0.,-1.,0.));
#298=DIRECTION('',(-1.,0.,0.));
#299=DIRECTION('',(0.,0.,-1.));
#300=DIRECTION('',(0.,0.,-1.));
#301=DIRECTION('',(0.,1.,0.));
#302=DIRECTION('',(0.,0.,-1.));
#303=DIRECTION('',(0.,1.,0.));
#304=DIRECTION('',(1.,0.,0.));
#305=DIRECTION('',(0.,0.,-1.));
#306=DIRECTION('',(0.,1.,0.));
#307=DIRECTION('',(0.,0.,1.));
#308=DIRECTION('',(0.,-1.,0.));
#309=DIRECTION('',(0.,0.,-1.));
#310=DIRECTION('',(0.,-1.,0.));
#311=DIRECTION('',(0.,0.,-1.));
#312=DIRECTION('',(0.,-1.,0.));
#313=CARTESIAN_POINT('',(0.,0.,0.));
#314=CARTESIAN_POINT('',(0.,0.,0.));
#315=CARTESIAN_POINT('',(0.,0.,-75.));
#316=CARTESIAN_POINT('',(0.,0.,0.));
#317=CARTESIAN_POINT('',(0.,0.,55.));
#318=CARTESIAN_POINT('',(1.37772764904077E-15,-15.,55.));
#319=CARTESIAN_POINT('',(0.,0.,55.));
#320=CARTESIAN_POINT('',(0.,-15.,2.4));
#321=CARTESIAN_POINT('',(9.18485099360515E-16,-15.,0.));
#322=CARTESIAN_POINT('',(0.,0.,0.));
#323=CARTESIAN_POINT('',(0.,15.,0.));
#324=CARTESIAN_POINT('',(0.,15.,2.4));
#325=CARTESIAN_POINT('',(0.,15.,7.));
#326=CARTESIAN_POINT('',(0.,0.,0.));
#327=CARTESIAN_POINT('',(0.,0.,61.5));
#328=CARTESIAN_POINT('',(-26.1615764214,20.11397323125,0.));
#329=CARTESIAN_POINT('',(-28.2620136796718,18.901285214769,0.));
#330=CARTESIAN_POINT('',(-12.50257738807,28.,0.));
#331=CARTESIAN_POINT('',(0.,0.,0.));
#332=CARTESIAN_POINT('',(-16.,-30.,0.));
#333=CARTESIAN_POINT('',(13.74772708487,-30.,0.));
#334=CARTESIAN_POINT('',(16.,-30.,0.));
#335=CARTESIAN_POINT('',(0.,0.,0.));
#336=CARTESIAN_POINT('',(19.2873015219859,28.,0.));
#337=CARTESIAN_POINT('',(17.46424919657,28.,0.));
#338=CARTESIAN_POINT('',(0.,0.,0.));
#339=CARTESIAN_POINT('',(-10.4,18.,-75.));
#340=CARTESIAN_POINT('',(-14.9649096376599,18.,-75.));
#341=CARTESIAN_POINT('',(-12.50257738807,28.,-75.));
#342=CARTESIAN_POINT('',(-12.50257738807,28.,-75.));
#343=CARTESIAN_POINT('',(19.2873015219859,28.,-75.));
#344=CARTESIAN_POINT('',(0.,0.,-75.));
#345=CARTESIAN_POINT('',(16.,-30.,-75.));
#346=CARTESIAN_POINT('',(13.74772708487,-30.,-75.));
#347=CARTESIAN_POINT('',(-16.,-30.,-75.));
#348=CARTESIAN_POINT('',(0.,0.,-75.));
#349=CARTESIAN_POINT('',(-28.2620136796718,18.901285214769,-75.));
#350=CARTESIAN_POINT('',(-26.1615764214,20.11397323125,-75.));
#351=CARTESIAN_POINT('',(0.,0.,-75.));
#352=CARTESIAN_POINT('',(-28.26201367967,18.90128521477,-1.));
#353=CARTESIAN_POINT('',(-12.50257738807,28.,-75.));
#354=CARTESIAN_POINT('',(-28.26201367967,18.90128521477,0.));
#355=CARTESIAN_POINT('',(19.28730152199,28.,-1.));
#356=CARTESIAN_POINT('',(-34.,28.,0.));
#357=CARTESIAN_POINT('',(16.,-30.,-1.));
#358=CARTESIAN_POINT('',(0.,0.,61.5));
#359=CARTESIAN_POINT('',(-16.,-30.,-1.));
#360=CARTESIAN_POINT('',(34.,-30.,0.));
#361=CARTESIAN_POINT('',(0.,0.,61.5));
#362=CARTESIAN_POINT('',(-10.4,18.,-76.5));
#363=CARTESIAN_POINT('',(-10.4,14.468937836854,-76.5));
#364=CARTESIAN_POINT('',(-10.4,18.,-72.96));
#365=CARTESIAN_POINT('',(-10.4,18.,-76.5));
#366=MECHANICAL_DESIGN_GEOMETRIC_PRESENTATION_REPRESENTATION('',(#212,#213,
#214,#215),#367);
#367=(
GEOMETRIC_REPRESENTATION_CONTEXT(3)
GLOBAL_UNCERTAINTY_ASSIGNED_CONTEXT((#368))
GLOBAL_UNIT_ASSIGNED_CONTEXT((#374,#370,#369))
REPRESENTATION_CONTEXT('VDI.30-F1.MT','TOP_LEVEL_ASSEMBLY_PART')
);
#368=UNCERTAINTY_MEASURE_WITH_UNIT(LENGTH_MEASURE(2.E-5),#374,
'DISTANCE_ACCURACY_VALUE','Maximum Tolerance applied to model');
#369=(
NAMED_UNIT(*)
SI_UNIT($,.STERADIAN.)
SOLID_ANGLE_UNIT()
);
#370=(
CONVERSION_BASED_UNIT('DEGREE',#372)
NAMED_UNIT(#371)
PLANE_ANGLE_UNIT()
);
#371=DIMENSIONAL_EXPONENTS(0.,0.,0.,0.,0.,0.,0.);
#372=PLANE_ANGLE_MEASURE_WITH_UNIT(PLANE_ANGLE_MEASURE(0.0174532925),#373);
#373=(
NAMED_UNIT(*)
PLANE_ANGLE_UNIT()
SI_UNIT($,.RADIAN.)
);
#374=(
LENGTH_UNIT()
NAMED_UNIT(*)
SI_UNIT(.MILLI.,.METRE.)
);
ENDSEC;
END-ISO-10303-21;
