ISO-10303-21;
HEADER;
/* Generated by software containing ST-Developer
 * from STEP Tools, Inc. (www.steptools.com) 
 */
/* OPTION: using custom schema-name function */

FILE_DESCRIPTION(
/* description */ (''),
/* implementation_level */ '2;1');

FILE_NAME(
/* name */ '1598518726918.stp',
/* time_stamp */ '2020-08-27T10:58:55+02:00',
/* author */ (''),
/* organization */ ('SMS'),
/* preprocessor_version */ 'ST-DEVELOPER v16.7',
/* originating_system */ 'SIEMENS PLM Software NX 12.0',
/* authorisation */ '');

FILE_SCHEMA (('AUTOMOTIVE_DESIGN { 1 0 10303 214 3 1 1 1 }'));
ENDSEC;

DATA;
#10=CONSTRUCTIVE_GEOMETRY_REPRESENTATION_RELATIONSHIP(
'supplemental geometry','',#26,#11);
#11=CONSTRUCTIVE_GEOMETRY_REPRESENTATION('supplemental geometry',(#201,
#202,#203),#328);
#12=GEOMETRICALLY_BOUNDED_WIREFRAME_SHAPE_REPRESENTATION(
'203133590mod000_00-None',(#27),#328);
#13=SHAPE_REPRESENTATION_RELATIONSHIP('None',
'relationship between 203133590mod000_00-None and 203133590mod000_00-N
one',#26,#15);
#14=SHAPE_REPRESENTATION_RELATIONSHIP('None',
'relationship between 203133590mod000_00-None and 203133590mod000_00-N
one',#26,#12);
#15=ADVANCED_BREP_SHAPE_REPRESENTATION('203133590mod000_00-None',(#38,#39),
#328);
#16=SHAPE_DEFINITION_REPRESENTATION(#17,#26);
#17=PRODUCT_DEFINITION_SHAPE('','',#18);
#18=PRODUCT_DEFINITION(' ','',#20,#19);
#19=PRODUCT_DEFINITION_CONTEXT('part definition',#25,'design');
#20=PRODUCT_DEFINITION_FORMATION_WITH_SPECIFIED_SOURCE(' ',' ',#22,
 .NOT_KNOWN.);
#21=PRODUCT_RELATED_PRODUCT_CATEGORY('part','',(#22));
#22=PRODUCT('203133590mod000_00','203133590mod000_00',' ',(#23));
#23=PRODUCT_CONTEXT(' ',#25,'mechanical');
#24=APPLICATION_PROTOCOL_DEFINITION('international standard',
'automotive_design',2010,#25);
#25=APPLICATION_CONTEXT(
'core data for automotive mechanical design processes');
#26=SHAPE_REPRESENTATION('203133590mod000_00-None',(#200),#328);
#27=GEOMETRIC_CURVE_SET('None',(#274,#275,#276,#277,#166));
#28=SURFACE_STYLE_USAGE(.BOTH.,#30);
#29=SURFACE_STYLE_USAGE(.BOTH.,#31);
#30=SURFACE_SIDE_STYLE('',(#32));
#31=SURFACE_SIDE_STYLE('',(#33));
#32=SURFACE_STYLE_FILL_AREA(#34);
#33=SURFACE_STYLE_FILL_AREA(#35);
#34=FILL_AREA_STYLE('',(#36));
#35=FILL_AREA_STYLE('',(#37));
#36=FILL_AREA_STYLE_COLOUR('',#198);
#37=FILL_AREA_STYLE_COLOUR('',#199);
#38=MANIFOLD_SOLID_BREP('NOCUT',#40);
#39=MANIFOLD_SOLID_BREP('CUT',#41);
#40=CLOSED_SHELL('',(#58,#59,#60,#61,#62,#63,#64));
#41=CLOSED_SHELL('',(#65,#66,#67,#68));
#42=CONICAL_SURFACE('',#215,6.5,45.);
#43=CONICAL_SURFACE('',#222,7.,44.9999999999991);
#44=PLANE('',#209);
#45=PLANE('',#211);
#46=PLANE('',#212);
#47=PLANE('',#213);
#48=PLANE('',#214);
#49=PLANE('',#217);
#50=PLANE('',#219);
#51=FACE_OUTER_BOUND('',#93,.T.);
#52=FACE_OUTER_BOUND('',#94,.T.);
#53=FACE_OUTER_BOUND('',#95,.T.);
#54=FACE_OUTER_BOUND('',#96,.T.);
#55=FACE_OUTER_BOUND('',#97,.T.);
#56=FACE_OUTER_BOUND('',#100,.T.);
#57=FACE_OUTER_BOUND('',#101,.T.);
#58=ADVANCED_FACE('',(#81,#82,#83),#69,.T.);
#59=ADVANCED_FACE('',(#51),#44,.F.);
#60=ADVANCED_FACE('',(#52),#45,.T.);
#61=ADVANCED_FACE('',(#53),#46,.T.);
#62=ADVANCED_FACE('',(#54),#47,.T.);
#63=ADVANCED_FACE('',(#55),#48,.T.);
#64=ADVANCED_FACE('',(#84,#85),#42,.T.);
#65=ADVANCED_FACE('',(#56),#49,.T.);
#66=ADVANCED_FACE('',(#57),#50,.T.);
#67=ADVANCED_FACE('',(#86,#87),#70,.T.);
#68=ADVANCED_FACE('',(#88,#89),#43,.T.);
#69=CYLINDRICAL_SURFACE('',#208,7.);
#70=CYLINDRICAL_SURFACE('',#221,7.);
#71=ELLIPSE('',#206,9.89949493661167,7.);
#72=ELLIPSE('',#207,9.89949493661167,7.);
#73=LINE('',#298,#77);
#74=LINE('',#303,#78);
#75=LINE('',#311,#79);
#76=LINE('',#312,#80);
#77=VECTOR('',#235,1.);
#78=VECTOR('',#238,1.);
#79=VECTOR('',#249,1.);
#80=VECTOR('',#250,1.);
#81=FACE_BOUND('',#90,.T.);
#82=FACE_BOUND('',#91,.T.);
#83=FACE_BOUND('',#92,.T.);
#84=FACE_BOUND('',#98,.T.);
#85=FACE_BOUND('',#99,.T.);
#86=FACE_BOUND('',#102,.T.);
#87=FACE_BOUND('',#103,.T.);
#88=FACE_BOUND('',#104,.T.);
#89=FACE_BOUND('',#105,.T.);
#90=EDGE_LOOP('',(#106));
#91=EDGE_LOOP('',(#107));
#92=EDGE_LOOP('',(#108,#109,#110,#111));
#93=EDGE_LOOP('',(#112));
#94=EDGE_LOOP('',(#113));
#95=EDGE_LOOP('',(#114,#115,#116,#117));
#96=EDGE_LOOP('',(#118,#119));
#97=EDGE_LOOP('',(#120,#121));
#98=EDGE_LOOP('',(#122));
#99=EDGE_LOOP('',(#123));
#100=EDGE_LOOP('',(#124));
#101=EDGE_LOOP('',(#125));
#102=EDGE_LOOP('',(#126));
#103=EDGE_LOOP('',(#127));
#104=EDGE_LOOP('',(#128));
#105=EDGE_LOOP('',(#129));
#106=ORIENTED_EDGE('',*,*,#140,.T.);
#107=ORIENTED_EDGE('',*,*,#141,.F.);
#108=ORIENTED_EDGE('',*,*,#142,.T.);
#109=ORIENTED_EDGE('',*,*,#143,.T.);
#110=ORIENTED_EDGE('',*,*,#144,.T.);
#111=ORIENTED_EDGE('',*,*,#145,.T.);
#112=ORIENTED_EDGE('',*,*,#141,.T.);
#113=ORIENTED_EDGE('',*,*,#146,.T.);
#114=ORIENTED_EDGE('',*,*,#147,.T.);
#115=ORIENTED_EDGE('',*,*,#144,.F.);
#116=ORIENTED_EDGE('',*,*,#148,.F.);
#117=ORIENTED_EDGE('',*,*,#142,.F.);
#118=ORIENTED_EDGE('',*,*,#148,.T.);
#119=ORIENTED_EDGE('',*,*,#143,.F.);
#120=ORIENTED_EDGE('',*,*,#147,.F.);
#121=ORIENTED_EDGE('',*,*,#145,.F.);
#122=ORIENTED_EDGE('',*,*,#140,.F.);
#123=ORIENTED_EDGE('',*,*,#146,.F.);
#124=ORIENTED_EDGE('',*,*,#149,.T.);
#125=ORIENTED_EDGE('',*,*,#150,.T.);
#126=ORIENTED_EDGE('',*,*,#151,.T.);
#127=ORIENTED_EDGE('',*,*,#150,.F.);
#128=ORIENTED_EDGE('',*,*,#149,.F.);
#129=ORIENTED_EDGE('',*,*,#151,.F.);
#130=VERTEX_POINT('',#295);
#131=VERTEX_POINT('',#297);
#132=VERTEX_POINT('',#299);
#133=VERTEX_POINT('',#300);
#134=VERTEX_POINT('',#302);
#135=VERTEX_POINT('',#304);
#136=VERTEX_POINT('',#309);
#137=VERTEX_POINT('',#318);
#138=VERTEX_POINT('',#321);
#139=VERTEX_POINT('',#324);
#140=EDGE_CURVE('',#130,#130,#152,.T.);
#141=EDGE_CURVE('',#131,#131,#153,.T.);
#142=EDGE_CURVE('',#132,#133,#73,.T.);
#143=EDGE_CURVE('',#133,#134,#71,.T.);
#144=EDGE_CURVE('',#134,#135,#74,.T.);
#145=EDGE_CURVE('',#135,#132,#72,.T.);
#146=EDGE_CURVE('',#136,#136,#154,.T.);
#147=EDGE_CURVE('',#132,#135,#75,.T.);
#148=EDGE_CURVE('',#133,#134,#76,.T.);
#149=EDGE_CURVE('',#137,#137,#155,.T.);
#150=EDGE_CURVE('',#138,#138,#156,.T.);
#151=EDGE_CURVE('',#139,#139,#157,.T.);
#152=CIRCLE('',#204,7.);
#153=CIRCLE('',#205,7.);
#154=CIRCLE('',#210,6.5);
#155=CIRCLE('',#216,6.8);
#156=CIRCLE('',#218,7.);
#157=CIRCLE('',#220,7.);
#158=CURVE_STYLE('',#162,POSITIVE_LENGTH_MEASURE(0.18),#167);
#159=CURVE_STYLE('',#163,POSITIVE_LENGTH_MEASURE(0.18),#197);
#160=CURVE_STYLE('',#164,POSITIVE_LENGTH_MEASURE(0.18),#197);
#161=CURVE_STYLE('',#165,POSITIVE_LENGTH_MEASURE(0.18),#197);
#162=DRAUGHTING_PRE_DEFINED_CURVE_FONT('continuous');
#163=DRAUGHTING_PRE_DEFINED_CURVE_FONT('continuous');
#164=DRAUGHTING_PRE_DEFINED_CURVE_FONT('continuous');
#165=DRAUGHTING_PRE_DEFINED_CURVE_FONT('continuous');
#166=B_SPLINE_CURVE_WITH_KNOTS('CUTTING PART LINE',3,(#278,#279,#280,#281,
#282,#283,#284,#285,#286,#287,#288,#289,#290),.UNSPECIFIED.,.F.,.F.,(4,
3,3,3,4),(0.,0.186901283492062,0.194675352017641,0.80760161993739,1.),
 .UNSPECIFIED.);
#167=DRAUGHTING_PRE_DEFINED_COLOUR('blue');
#168=PRESENTATION_LAYER_ASSIGNMENT('1','Layer 1',(#274,#275,#276,#277,#166,
#201,#202,#203,#38,#39));
#169=STYLED_ITEM('',(#179),#274);
#170=STYLED_ITEM('',(#180),#275);
#171=STYLED_ITEM('',(#181),#276);
#172=STYLED_ITEM('',(#182),#277);
#173=STYLED_ITEM('',(#183),#166);
#174=STYLED_ITEM('',(#184),#201);
#175=STYLED_ITEM('',(#185),#202);
#176=STYLED_ITEM('',(#186),#203);
#177=STYLED_ITEM('',(#187),#38);
#178=STYLED_ITEM('',(#188),#39);
#179=PRESENTATION_STYLE_ASSIGNMENT((#189));
#180=PRESENTATION_STYLE_ASSIGNMENT((#190));
#181=PRESENTATION_STYLE_ASSIGNMENT((#191));
#182=PRESENTATION_STYLE_ASSIGNMENT((#192));
#183=PRESENTATION_STYLE_ASSIGNMENT((#158));
#184=PRESENTATION_STYLE_ASSIGNMENT((#159));
#185=PRESENTATION_STYLE_ASSIGNMENT((#160));
#186=PRESENTATION_STYLE_ASSIGNMENT((#161));
#187=PRESENTATION_STYLE_ASSIGNMENT((#28));
#188=PRESENTATION_STYLE_ASSIGNMENT((#29));
#189=POINT_STYLE('',#193,POSITIVE_LENGTH_MEASURE(3.),#197);
#190=POINT_STYLE('',#194,POSITIVE_LENGTH_MEASURE(3.),#197);
#191=POINT_STYLE('',#195,POSITIVE_LENGTH_MEASURE(3.),#197);
#192=POINT_STYLE('',#196,POSITIVE_LENGTH_MEASURE(3.),#167);
#193=PRE_DEFINED_POINT_MARKER_SYMBOL('plus');
#194=PRE_DEFINED_POINT_MARKER_SYMBOL('plus');
#195=PRE_DEFINED_POINT_MARKER_SYMBOL('plus');
#196=PRE_DEFINED_POINT_MARKER_SYMBOL('plus');
#197=COLOUR_RGB('Strong Stone',0.576470588235294,0.54508278019379,0.392156862745098);
#198=COLOUR_RGB('Medium Gray',0.501960784313725,0.501960784313725,0.501960784313725);
#199=COLOUR_RGB('Light Gray',0.8,0.8,0.8);
#200=AXIS2_PLACEMENT_3D('',#273,#223,#224);
#201=AXIS2_PLACEMENT_3D('PCS',#291,#225,#226);
#202=AXIS2_PLACEMENT_3D('CIP',#292,#227,#228);
#203=AXIS2_PLACEMENT_3D('MCS',#293,#229,#230);
#204=AXIS2_PLACEMENT_3D('',#294,#231,#232);
#205=AXIS2_PLACEMENT_3D('',#296,#233,#234);
#206=AXIS2_PLACEMENT_3D('',#301,#236,#237);
#207=AXIS2_PLACEMENT_3D('',#305,#239,#240);
#208=AXIS2_PLACEMENT_3D('',#306,#241,#242);
#209=AXIS2_PLACEMENT_3D('',#307,#243,#244);
#210=AXIS2_PLACEMENT_3D('',#308,#245,#246);
#211=AXIS2_PLACEMENT_3D('',#310,#247,#248);
#212=AXIS2_PLACEMENT_3D('',#313,#251,#252);
#213=AXIS2_PLACEMENT_3D('',#314,#253,#254);
#214=AXIS2_PLACEMENT_3D('',#315,#255,#256);
#215=AXIS2_PLACEMENT_3D('',#316,#257,#258);
#216=AXIS2_PLACEMENT_3D('',#317,#259,#260);
#217=AXIS2_PLACEMENT_3D('',#319,#261,#262);
#218=AXIS2_PLACEMENT_3D('',#320,#263,#264);
#219=AXIS2_PLACEMENT_3D('',#322,#265,#266);
#220=AXIS2_PLACEMENT_3D('',#323,#267,#268);
#221=AXIS2_PLACEMENT_3D('',#325,#269,#270);
#222=AXIS2_PLACEMENT_3D('',#326,#271,#272);
#223=DIRECTION('',(0.,0.,1.));
#224=DIRECTION('',(1.,0.,0.));
#225=DIRECTION('',(0.,0.,1.));
#226=DIRECTION('',(1.,0.,0.));
#227=DIRECTION('',(0.,0.,1.));
#228=DIRECTION('',(1.,0.,0.));
#229=DIRECTION('',(0.,0.,1.));
#230=DIRECTION('',(1.,0.,0.));
#231=DIRECTION('',(0.,0.,-1.));
#232=DIRECTION('',(1.,0.,0.));
#233=DIRECTION('',(0.,0.,-1.));
#234=DIRECTION('',(1.,0.,0.));
#235=DIRECTION('',(0.,0.,-1.));
#236=DIRECTION('',(-0.707106781186548,0.,-0.707106781186547));
#237=DIRECTION('',(-0.707106781186547,0.,0.707106781186548));
#238=DIRECTION('',(0.,0.,1.));
#239=DIRECTION('',(-0.707106781186548,0.,0.707106781186548));
#240=DIRECTION('',(0.707106781186548,0.,0.707106781186548));
#241=DIRECTION('',(0.,0.,1.));
#242=DIRECTION('',(1.,0.,0.));
#243=DIRECTION('',(0.,0.,1.));
#244=DIRECTION('',(1.,0.,0.));
#245=DIRECTION('',(0.,0.,1.));
#246=DIRECTION('',(1.,0.,0.));
#247=DIRECTION('',(0.,0.,1.));
#248=DIRECTION('',(1.,0.,0.));
#249=DIRECTION('',(0.,-1.,0.));
#250=DIRECTION('',(0.,-1.,0.));
#251=DIRECTION('',(1.,0.,1.08420217248551E-16));
#252=DIRECTION('',(1.0842021724855E-16,0.,-1.));
#253=DIRECTION('',(0.707106781186548,0.,0.707106781186547));
#254=DIRECTION('',(0.707106781186547,0.,-0.707106781186548));
#255=DIRECTION('',(0.707106781186548,0.,-0.707106781186548));
#256=DIRECTION('',(-0.707106781186548,0.,-0.707106781186548));
#257=DIRECTION('',(0.,0.,-1.));
#258=DIRECTION('',(-1.,0.,0.));
#259=DIRECTION('',(0.,0.,-1.));
#260=DIRECTION('',(-1.,0.,0.));
#261=DIRECTION('',(0.,0.,-1.));
#262=DIRECTION('',(-1.,0.,0.));
#263=DIRECTION('',(0.,0.,1.));
#264=DIRECTION('',(-1.,1.22464679914735E-16,0.));
#265=DIRECTION('',(0.,0.,1.));
#266=DIRECTION('',(1.,0.,0.));
#267=DIRECTION('',(0.,0.,1.));
#268=DIRECTION('',(-1.,0.,0.));
#269=DIRECTION('',(0.,0.,1.));
#270=DIRECTION('',(1.,0.,0.));
#271=DIRECTION('',(0.,0.,1.));
#272=DIRECTION('',(1.,0.,1.37813185777705E-17));
#273=CARTESIAN_POINT('',(0.,0.,0.));
#274=CARTESIAN_POINT('PCS',(0.,0.,0.));
#275=CARTESIAN_POINT('CIP',(0.,0.,-83.));
#276=CARTESIAN_POINT('MCS',(0.,0.,-45.));
#277=CARTESIAN_POINT('CRP',(7.,0.,-83.));
#278=CARTESIAN_POINT('',(0.,0.,-83.));
#279=CARTESIAN_POINT('',(2.26666666666667,0.,-83.));
#280=CARTESIAN_POINT('',(4.53333333333333,0.,-83.));
#281=CARTESIAN_POINT('',(6.8,0.,-83.));
#282=CARTESIAN_POINT('',(6.86666666666667,0.,-82.9333333333333));
#283=CARTESIAN_POINT('',(6.93333333333333,0.,-82.8666666666667));
#284=CARTESIAN_POINT('',(7.,0.,-82.8));
#285=CARTESIAN_POINT('',(7.,0.,-75.3666666666667));
#286=CARTESIAN_POINT('',(7.,0.,-67.9333333333333));
#287=CARTESIAN_POINT('',(7.,0.,-60.5));
#288=CARTESIAN_POINT('',(4.66666666666666,0.,-60.5));
#289=CARTESIAN_POINT('',(2.33333333333333,0.,-60.5));
#290=CARTESIAN_POINT('',(0.,0.,-60.5));
#291=CARTESIAN_POINT('',(0.,0.,0.));
#292=CARTESIAN_POINT('',(0.,0.,-83.));
#293=CARTESIAN_POINT('',(0.,0.,-45.));
#294=CARTESIAN_POINT('',(0.,0.,-0.5));
#295=CARTESIAN_POINT('',(7.,0.,-0.5));
#296=CARTESIAN_POINT('',(0.,0.,-60.5));
#297=CARTESIAN_POINT('',(7.,0.,-60.5));
#298=CARTESIAN_POINT('',(5.7,4.063249930782,-66.55));
#299=CARTESIAN_POINT('',(5.7,4.06324993078201,-18.5));
#300=CARTESIAN_POINT('',(5.7,4.06324993078201,-26.5));
#301=CARTESIAN_POINT('',(0.,0.,-20.8));
#302=CARTESIAN_POINT('',(5.7,-4.06324993078201,-26.5));
#303=CARTESIAN_POINT('',(5.7,-4.063249930782,-66.55));
#304=CARTESIAN_POINT('',(5.7,-4.06324993078201,-18.5));
#305=CARTESIAN_POINT('',(0.,0.,-24.2));
#306=CARTESIAN_POINT('',(0.,0.,-66.55));
#307=CARTESIAN_POINT('',(0.,0.,-60.5));
#308=CARTESIAN_POINT('',(0.,0.,0.));
#309=CARTESIAN_POINT('',(6.5,0.,0.));
#310=CARTESIAN_POINT('',(0.,0.,0.));
#311=CARTESIAN_POINT('',(5.7,-17.,-18.5));
#312=CARTESIAN_POINT('',(5.7,-17.,-26.5));
#313=CARTESIAN_POINT('',(5.7,-17.,-18.5));
#314=CARTESIAN_POINT('',(5.7,-17.,-26.5));
#315=CARTESIAN_POINT('',(12.7,-17.,-11.5));
#316=CARTESIAN_POINT('',(0.,0.,0.));
#317=CARTESIAN_POINT('',(0.,0.,-83.));
#318=CARTESIAN_POINT('',(-6.8,0.,-83.));
#319=CARTESIAN_POINT('',(0.,0.,-83.));
#320=CARTESIAN_POINT('',(0.,0.,-60.5));
#321=CARTESIAN_POINT('',(-7.,8.57252759403147E-16,-60.5));
#322=CARTESIAN_POINT('',(0.,0.,-60.5));
#323=CARTESIAN_POINT('',(0.,0.,-82.8));
#324=CARTESIAN_POINT('',(-7.,0.,-82.8));
#325=CARTESIAN_POINT('',(0.,0.,-85.25));
#326=CARTESIAN_POINT('',(0.,0.,-82.8));
#327=MECHANICAL_DESIGN_GEOMETRIC_PRESENTATION_REPRESENTATION('',(#169,#170,
#171,#172,#173,#174,#175,#176,#177,#178),#328);
#328=(
GEOMETRIC_REPRESENTATION_CONTEXT(3)
GLOBAL_UNCERTAINTY_ASSIGNED_CONTEXT((#329))
GLOBAL_UNIT_ASSIGNED_CONTEXT((#335,#331,#330))
REPRESENTATION_CONTEXT('1598518726918','TOP_LEVEL_ASSEMBLY_PART')
);
#329=UNCERTAINTY_MEASURE_WITH_UNIT(LENGTH_MEASURE(2.E-5),#335,
'DISTANCE_ACCURACY_VALUE','Maximum Tolerance applied to model');
#330=(
NAMED_UNIT(*)
SI_UNIT($,.STERADIAN.)
SOLID_ANGLE_UNIT()
);
#331=(
CONVERSION_BASED_UNIT('DEGREE',#333)
NAMED_UNIT(#332)
PLANE_ANGLE_UNIT()
);
#332=DIMENSIONAL_EXPONENTS(0.,0.,0.,0.,0.,0.,0.);
#333=PLANE_ANGLE_MEASURE_WITH_UNIT(PLANE_ANGLE_MEASURE(0.0174532925),#334);
#334=(
NAMED_UNIT(*)
PLANE_ANGLE_UNIT()
SI_UNIT($,.RADIAN.)
);
#335=(
LENGTH_UNIT()
NAMED_UNIT(*)
SI_UNIT(.MILLI.,.METRE.)
);
ENDSEC;
END-ISO-10303-21;
