ISO-10303-21;
HEADER;
FILE_DESCRIPTION(('STEP'), '1');
FILE_NAME('C:\\Users\\ds2002\\OneDrive - Sandvik\\HomeShare\\Documents\\Batchrepair\\CorSRT2\\NEW_MILSQ_SLD\\Output\\MOD000000000000000020082242600000.stp', '2019-01-02T12:07:48', (''), (''), 'Express v3.0.0.0', 'Express Tool', 'Unknown');
FILE_SCHEMA(('AUTOMOTIVE_DESIGN'));
ENDSEC;

DATA;
#1 = MANIFOLD_SOLID_BREP('NOCUT', #2);
#2 = CLOSED_SHELL('', (#3, #50, #59, #98));
#3 = ADVANCED_FACE('', (#4), #31, .T.);
#4 = FACE_OUTER_BOUND('', #5, .T.);
#5 = EDGE_LOOP('', (#6, #16, #23, #24));
#6 = ORIENTED_EDGE('', *, *, #7, .T.);
#7 = EDGE_CURVE('', #8, #10, #12, .T.);
#8 = VERTEX_POINT('', #9);
#9 = CARTESIAN_POINT('', (-9., 6.0620016557794E-16, -0.900000000000006));
#10 = VERTEX_POINT('', #11);
#11 = CARTESIAN_POINT('', (-8.1, 4.95981953654678E-16, 0.));
#12 = LINE('', #13, #14);
#13 = CARTESIAN_POINT('', (-9., 6.0620016557794E-16, -0.900000000000006));
#14 = VECTOR('', #15, 1.27279220613579);
#15 = DIRECTION('', (0.9, -1.10218211923262E-16, 0.900000000000006));
#16 = ORIENTED_EDGE('', *, *, #17, .T.);
#17 = EDGE_CURVE('', #10, #10, #18, .T.);
#18 = CIRCLE('', #19, 8.1);
#19 = AXIS2_PLACEMENT_3D('', #20, #21, #22);
#20 = CARTESIAN_POINT('', (2.4980018054066E-15, 2.22044604925031E-16, 2.46519032881566E-32));
#21 = DIRECTION('', (5.11428742624572E-33, 6.12323399573676E-17, -1.));
#22 = DIRECTION('', (-1., 3.38194257690922E-17, -3.04344485038971E-33));
#23 = ORIENTED_EDGE('', *, *, #7, .F.);
#24 = ORIENTED_EDGE('', *, *, #25, .F.);
#25 = EDGE_CURVE('', #8, #8, #26, .T.);
#26 = CIRCLE('', #27, 9.);
#27 = AXIS2_PLACEMENT_3D('', #28, #29, #30);
#28 = CARTESIAN_POINT('', (-1.36002320516582E-15, -5.10702591327572E-15, -0.900000000000004));
#29 = DIRECTION('', (1.85037170770859E-16, -4.76028297688183E-16, -1.));
#30 = DIRECTION('', (-1., 6.34802897650407E-16, -1.85037170770859E-16));
#31 = (
   BOUNDED_SURFACE ()
   B_SPLINE_SURFACE (1, 2, ((#32, #33, #34, #35, #36, #37, #38, #39, #40), (#41, #42, #43, #44, #45, #46, #47, #48, #49)), .UNSPECIFIED., .F., .T., .U.)
   B_SPLINE_SURFACE_WITH_KNOTS ((2, 2), (3, 2, 2, 2, 3), (0., 1.), (0., 0.25, 0.5, 0.75, 1.), .UNSPECIFIED.)
   GEOMETRIC_REPRESENTATION_ITEM ()
   RATIONAL_B_SPLINE_SURFACE (((1., 0.707106781186548, 1., 0.707106781186548, 1., 0.707106781186548, 1., 0.707106781186548, 1.), (1., 0.707106781186548, 1., 0.707106781186548, 1., 0.707106781186548, 1., 0.707106781186548, 1.)))
   REPRESENTATION_ITEM ('')
   SURFACE ()
);
#32 = CARTESIAN_POINT('', (-9., 3.0437483192183E-16, -0.900000000000004));
#33 = CARTESIAN_POINT('', (-9., 9., -0.900000000000007));
#34 = CARTESIAN_POINT('', (2.25128557771212E-15, 9., -0.900000000000007));
#35 = CARTESIAN_POINT('', (9., 9., -0.900000000000007));
#36 = CARTESIAN_POINT('', (9., 7.97807287310789E-16, -0.900000000000004));
#37 = CARTESIAN_POINT('', (9., -9., -0.900000000000002));
#38 = CARTESIAN_POINT('', (3.8469001523337E-15, -9., -0.900000000000002));
#39 = CARTESIAN_POINT('', (-9., -9., -0.900000000000002));
#40 = CARTESIAN_POINT('', (-9., 3.0437483192183E-16, -0.900000000000004));
#41 = CARTESIAN_POINT('', (-8.1, 4.95981953654678E-16, 5.47382212626882E-48));
#42 = CARTESIAN_POINT('', (-8.1, 8.1, -1.99840144432527E-15));
#43 = CARTESIAN_POINT('', (2.27595720048157E-15, 8.1, -1.99840144432527E-15));
#44 = CARTESIAN_POINT('', (8.1, 8.1, -1.99840144432527E-15));
#45 = CARTESIAN_POINT('', (8.1, 9.40071163504741E-16, -1.95429786644126E-31));
#46 = CARTESIAN_POINT('', (8.1, -8.1, 1.99840144432527E-15));
#47 = CARTESIAN_POINT('', (3.71201031764099E-15, -8.1, 1.99840144432527E-15));
#48 = CARTESIAN_POINT('', (-8.1, -8.1, 1.99840144432527E-15));
#49 = CARTESIAN_POINT('', (-8.1, 4.95981953654678E-16, 5.47382212626882E-48));
#50 = ADVANCED_FACE('', (#51), #54, .T.);
#51 = FACE_OUTER_BOUND('', #52, .T.);
#52 = EDGE_LOOP('', (#53));
#53 = ORIENTED_EDGE('', *, *, #17, .F.);
#54 = B_SPLINE_SURFACE_WITH_KNOTS('', 1, 1, ((#55, #56), (#57, #58)), .UNSPECIFIED., .F., .F., .U., (2, 2), (2, 2), (0.0454545454545454, 0.954545454545455), (0.0454545454545454, 0.954545454545454), .UNSPECIFIED.);
#55 = CARTESIAN_POINT('', (8.1, -8.1, -4.95981953654678E-16));
#56 = CARTESIAN_POINT('', (-8.1, -8.1, -4.95981953654678E-16));
#57 = CARTESIAN_POINT('', (8.1, 8.1, 4.95981953654678E-16));
#58 = CARTESIAN_POINT('', (-8.1, 8.1, 4.95981953654678E-16));
#59 = ADVANCED_FACE('', (#60), #79, .T.);
#60 = FACE_OUTER_BOUND('', #61, .T.);
#61 = EDGE_LOOP('', (#62, #71, #77, #78));
#62 = ORIENTED_EDGE('', *, *, #63, .F.);
#63 = EDGE_CURVE('', #64, #64, #66, .T.);
#64 = VERTEX_POINT('', #65);
#65 = CARTESIAN_POINT('', (-9., 4.56180932682389E-15, -65.5));
#66 = CIRCLE('', #67, 9.);
#67 = AXIS2_PLACEMENT_3D('', #68, #69, #70);
#68 = CARTESIAN_POINT('', (2.33146835171283E-15, 2.22044604925031E-16, -65.5));
#69 = DIRECTION('', (0., 0., -1.));
#70 = DIRECTION('', (-1., 4.82196080210984E-16, 0.));
#71 = ORIENTED_EDGE('', *, *, #72, .T.);
#72 = EDGE_CURVE('', #64, #8, #73, .T.);
#73 = LINE('', #74, #75);
#74 = CARTESIAN_POINT('', (-9., 4.56180932682389E-15, -65.5));
#75 = VECTOR('', #76, 64.6);
#76 = DIRECTION('', (0., -3.95560916124595E-15, 64.6));
#77 = ORIENTED_EDGE('', *, *, #25, .T.);
#78 = ORIENTED_EDGE('', *, *, #72, .F.);
#79 = (
   BOUNDED_SURFACE ()
   B_SPLINE_SURFACE (1, 2, ((#80, #81, #82, #83, #84, #85, #86, #87, #88), (#89, #90, #91, #92, #93, #94, #95, #96, #97)), .UNSPECIFIED., .F., .T., .U.)
   B_SPLINE_SURFACE_WITH_KNOTS ((2, 2), (3, 2, 2, 2, 3), (0., 1.), (0., 14.1371669411541, 28.2743338823082, 42.4115008234622, 56.5486677646163), .UNSPECIFIED.)
   GEOMETRIC_REPRESENTATION_ITEM ()
   RATIONAL_B_SPLINE_SURFACE (((1., 0.707106781186548, 1., 0.707106781186548, 1., 0.707106781186548, 1., 0.707106781186548, 1.), (1., 0.707106781186548, 1., 0.707106781186548, 1., 0.707106781186548, 1., 0.707106781186548, 1.)))
   REPRESENTATION_ITEM ('')
   SURFACE ()
);
#80 = CARTESIAN_POINT('', (-8.99999999999999, 4.15891384437843E-15, -66.));
#81 = CARTESIAN_POINT('', (-8.99999999999998, 9., -66.));
#82 = CARTESIAN_POINT('', (1.58480316312545E-14, 9., -66.));
#83 = CARTESIAN_POINT('', (9.00000000000002, 8.99999999999999, -66.));
#84 = CARTESIAN_POINT('', (9.00000000000001, -6.16535619409627E-15, -66.));
#85 = CARTESIAN_POINT('', (9.00000000000001, -9.00000000000001, -66.));
#86 = CARTESIAN_POINT('', (6.6259437120124E-15, -9., -66.));
#87 = CARTESIAN_POINT('', (-8.99999999999999, -9., -66.));
#88 = CARTESIAN_POINT('', (-8.99999999999999, 4.15891384437843E-15, -66.));
#89 = CARTESIAN_POINT('', (-9., 6.06200165577942E-16, -0.900000000000006));
#90 = CARTESIAN_POINT('', (-9., 9., -0.900000000000006));
#91 = CARTESIAN_POINT('', (3.80211181407154E-15, 8.99999999999999, -0.900000000000004));
#92 = CARTESIAN_POINT('', (9., 8.99999999999999, -0.900000000000002));
#93 = CARTESIAN_POINT('', (9., -9.71806987289676E-15, -0.900000000000003));
#94 = CARTESIAN_POINT('', (8.99999999999999, -9.00000000000001, -0.900000000000003));
#95 = CARTESIAN_POINT('', (-5.41997610517055E-15, -9.00000000000001, -0.900000000000005));
#96 = CARTESIAN_POINT('', (-9.00000000000001, -9., -0.900000000000006));
#97 = CARTESIAN_POINT('', (-9., 6.06200165577942E-16, -0.900000000000006));
#98 = ADVANCED_FACE('', (#99), #102, .T.);
#99 = FACE_OUTER_BOUND('', #100, .T.);
#100 = EDGE_LOOP('', (#101));
#101 = ORIENTED_EDGE('', *, *, #63, .T.);
#102 = B_SPLINE_SURFACE_WITH_KNOTS('', 1, 1, ((#103, #104), (#105, #106)), .UNSPECIFIED., .F., .F., .U., (2, 2), (2, 2), (0.477417257040803, 0.579955139705849), (0.420044860294151, 0.522582742959197), .UNSPECIFIED.);
#103 = CARTESIAN_POINT('', (-9.00000000000001, 9.00000000000001, -65.5));
#104 = CARTESIAN_POINT('', (-9.00000000000001, -8.99999999999999, -65.5));
#105 = CARTESIAN_POINT('', (8.99999999999997, 9.00000000000001, -65.5));
#106 = CARTESIAN_POINT('', (8.99999999999997, -8.99999999999999, -65.5));
#107 = DRAUGHTING_MODEL('', (#115, #268, #323, #328, #333, #338, #343, #348, #353), #367);
#108 = PRESENTATION_STYLE_ASSIGNMENT((#109));
#109 = SURFACE_STYLE_USAGE(.POSITIVE., #110);
#110 = SURFACE_SIDE_STYLE('', (#111));
#111 = SURFACE_STYLE_FILL_AREA(#112);
#112 = FILL_AREA_STYLE('', (#113));
#113 = FILL_AREA_STYLE_COLOUR('', #114);
#114 = COLOUR_RGB('', 0.50196078431373, 0.50196078431373, 0.50196078431373);
#115 = STYLED_ITEM('', (#108), #1);
#116 = MANIFOLD_SOLID_BREP('CUT', #117);
#117 = CLOSED_SHELL('', (#118, #135, #174, #213, #252));
#118 = ADVANCED_FACE('', (#119), #130, .T.);
#119 = FACE_OUTER_BOUND('', #120, .T.);
#120 = EDGE_LOOP('', (#121));
#121 = ORIENTED_EDGE('', *, *, #122, .F.);
#122 = EDGE_CURVE('', #123, #123, #125, .T.);
#123 = VERTEX_POINT('', #124);
#124 = CARTESIAN_POINT('', (-9., 4.56180932682389E-15, -65.5));
#125 = CIRCLE('', #126, 9.);
#126 = AXIS2_PLACEMENT_3D('', #127, #128, #129);
#127 = CARTESIAN_POINT('', (2.33146835171283E-15, 2.22044604925031E-16, -65.5));
#128 = DIRECTION('', (0., 0., -1.));
#129 = DIRECTION('', (-1., 4.82196080210984E-16, 0.));
#130 = B_SPLINE_SURFACE_WITH_KNOTS('', 1, 1, ((#131, #132), (#133, #134)), .UNSPECIFIED., .F., .F., .U., (2, 2), (2, 2), (0.420044860294151, 0.522582742959197), (0.477417257040803, 0.579955139705849), .UNSPECIFIED.);
#131 = CARTESIAN_POINT('', (-9., 9., -65.5));
#132 = CARTESIAN_POINT('', (8.99999999999999, 9., -65.5));
#133 = CARTESIAN_POINT('', (-9., -9.00000000000001, -65.5));
#134 = CARTESIAN_POINT('', (8.99999999999999, -9.00000000000001, -65.5));
#135 = ADVANCED_FACE('', (#136), #155, .T.);
#136 = FACE_OUTER_BOUND('', #137, .T.);
#137 = EDGE_LOOP('', (#138, #139, #147, #154));
#138 = ORIENTED_EDGE('', *, *, #122, .T.);
#139 = ORIENTED_EDGE('', *, *, #140, .F.);
#140 = EDGE_CURVE('', #141, #123, #143, .T.);
#141 = VERTEX_POINT('', #142);
#142 = CARTESIAN_POINT('', (-9., 4.59242549680257E-15, -66.));
#143 = LINE('', #144, #145);
#144 = CARTESIAN_POINT('', (-9., 4.59242549680257E-15, -66.));
#145 = VECTOR('', #146, 0.5);
#146 = DIRECTION('', (0., -3.06161699786798E-17, 0.5));
#147 = ORIENTED_EDGE('', *, *, #148, .F.);
#148 = EDGE_CURVE('', #141, #141, #149, .T.);
#149 = CIRCLE('', #150, 9.);
#150 = AXIS2_PLACEMENT_3D('', #151, #152, #153);
#151 = CARTESIAN_POINT('', (4.413136522885E-15, 3.77475828372553E-15, -66.));
#152 = DIRECTION('', (0., 0., -1.));
#153 = DIRECTION('', (-1., 9.08519125641152E-17, 0.));
#154 = ORIENTED_EDGE('', *, *, #140, .T.);
#155 = (
   BOUNDED_SURFACE ()
   B_SPLINE_SURFACE (1, 2, ((#156, #157, #158, #159, #160, #161, #162, #163, #164), (#165, #166, #167, #168, #169, #170, #171, #172, #173)), .UNSPECIFIED., .F., .T., .U.)
   B_SPLINE_SURFACE_WITH_KNOTS ((2, 2), (3, 2, 2, 2, 3), (0., 0.00768049155145933), (0., 14.1371669411541, 28.2743338823082, 42.4115008234622, 56.5486677646163), .UNSPECIFIED.)
   GEOMETRIC_REPRESENTATION_ITEM ()
   RATIONAL_B_SPLINE_SURFACE (((1., 0.707106781186548, 1., 0.707106781186548, 1., 0.707106781186548, 1., 0.707106781186548, 1.), (1., 0.707106781186548, 1., 0.707106781186548, 1., 0.707106781186548, 1., 0.707106781186548, 1.)))
   REPRESENTATION_ITEM ('')
   SURFACE ()
);
#156 = CARTESIAN_POINT('', (-9., 4.56180932682389E-15, -66.));
#157 = CARTESIAN_POINT('', (-8.99999999999999, 9.00000000000001, -66.));
#158 = CARTESIAN_POINT('', (5.94127274891688E-15, 9., -66.));
#159 = CARTESIAN_POINT('', (9.00000000000001, 9., -66.));
#160 = CARTESIAN_POINT('', (9., -4.79189483714146E-15, -66.));
#161 = CARTESIAN_POINT('', (9., -9., -66.));
#162 = CARTESIAN_POINT('', (-2.31024929581585E-15, -9., -66.));
#163 = CARTESIAN_POINT('', (-9., -9., -66.));
#164 = CARTESIAN_POINT('', (-9., 4.56180932682389E-15, -66.));
#165 = CARTESIAN_POINT('', (-9., 4.56180932682389E-15, -65.5));
#166 = CARTESIAN_POINT('', (-8.99999999999999, 9.00000000000001, -65.5));
#167 = CARTESIAN_POINT('', (6.73076467753921E-15, 9., -65.5));
#168 = CARTESIAN_POINT('', (9.00000000000001, 9., -65.5));
#169 = CARTESIAN_POINT('', (9., -4.79189483714146E-15, -65.5));
#170 = CARTESIAN_POINT('', (9., -9., -65.5));
#171 = CARTESIAN_POINT('', (-1.52075736719352E-15, -9., -65.5));
#172 = CARTESIAN_POINT('', (-9., -9., -65.5));
#173 = CARTESIAN_POINT('', (-9., 4.56180932682389E-15, -65.5));
#174 = ADVANCED_FACE('', (#175), #194, .T.);
#175 = FACE_OUTER_BOUND('', #176, .T.);
#176 = EDGE_LOOP('', (#177, #185, #186, #187));
#177 = ORIENTED_EDGE('', *, *, #178, .F.);
#178 = EDGE_CURVE('', #141, #179, #181, .T.);
#179 = VERTEX_POINT('', #180);
#180 = CARTESIAN_POINT('', (-9., 5.68236114804372E-15, -83.8));
#181 = LINE('', #182, #183);
#182 = CARTESIAN_POINT('', (-9., 4.59242549680257E-15, -66.));
#183 = VECTOR('', #184, 17.8);
#184 = DIRECTION('', (0., 1.08993565124115E-15, -17.8));
#185 = ORIENTED_EDGE('', *, *, #148, .T.);
#186 = ORIENTED_EDGE('', *, *, #178, .T.);
#187 = ORIENTED_EDGE('', *, *, #188, .F.);
#188 = EDGE_CURVE('', #179, #179, #189, .T.);
#189 = CIRCLE('', #190, 9.);
#190 = AXIS2_PLACEMENT_3D('', #191, #192, #193);
#191 = CARTESIAN_POINT('', (-1.27675647831893E-15, 6.66133814775094E-16, -83.8));
#192 = DIRECTION('', (0., 0., -1.));
#193 = DIRECTION('', (-1., 5.57358592585403E-16, 0.));
#194 = (
   BOUNDED_SURFACE ()
   B_SPLINE_SURFACE (2, 1, ((#195, #196), (#197, #198), (#199, #200), (#201, #202), (#203, #204), (#205, #206), (#207, #208), (#209, #210), (#211, #212)), .UNSPECIFIED., .T., .F., .U.)
   B_SPLINE_SURFACE_WITH_KNOTS ((3, 2, 2, 2, 3), (2, 2), (0., 14.1371669411541, 28.2743338823082, 42.4115008234622, 56.5486677646163), (0., 1.), .UNSPECIFIED.)
   GEOMETRIC_REPRESENTATION_ITEM ()
   RATIONAL_B_SPLINE_SURFACE (((1., 1.), (0.707106781186548, 0.707106781186548), (1., 1.), (0.707106781186548, 0.707106781186548), (1., 1.), (0.707106781186548, 0.707106781186548), (1., 1.), (0.707106781186548, 0.707106781186548), (1., 1.)))
   REPRESENTATION_ITEM ('')
   SURFACE ()
);
#195 = CARTESIAN_POINT('', (-9., 4.59242549680257E-15, -66.));
#196 = CARTESIAN_POINT('', (-9.00000000000003, 5.92469312635277E-15, -83.8));
#197 = CARTESIAN_POINT('', (-8.99999999999999, 9.00000000000001, -66.));
#198 = CARTESIAN_POINT('', (-9.00000000000002, 9.00000000000001, -83.8));
#199 = CARTESIAN_POINT('', (6.76138084751789E-15, 9., -66.));
#200 = CARTESIAN_POINT('', (-2.13445318114372E-14, 9., -83.8));
#201 = CARTESIAN_POINT('', (9.00000000000001, 9., -66.));
#202 = CARTESIAN_POINT('', (8.99999999999998, 9., -83.8));
#203 = CARTESIAN_POINT('', (9., -4.82251100712014E-15, -66.));
#204 = CARTESIAN_POINT('', (8.99999999999997, -3.49024337756994E-15, -83.8));
#205 = CARTESIAN_POINT('', (9., -9., -66.));
#206 = CARTESIAN_POINT('', (8.99999999999997, -9., -83.8));
#207 = CARTESIAN_POINT('', (-1.5513735371722E-15, -9., -66.));
#208 = CARTESIAN_POINT('', (-2.96572861961272E-14, -9., -83.8));
#209 = CARTESIAN_POINT('', (-9., -9., -66.));
#210 = CARTESIAN_POINT('', (-9.00000000000003, -9., -83.8));
#211 = CARTESIAN_POINT('', (-9., 4.59242549680257E-15, -66.));
#212 = CARTESIAN_POINT('', (-9.00000000000003, 5.92469312635277E-15, -83.8));
#213 = ADVANCED_FACE('', (#214), #233, .T.);
#214 = FACE_OUTER_BOUND('', #215, .T.);
#215 = EDGE_LOOP('', (#216, #224, #225, #226));
#216 = ORIENTED_EDGE('', *, *, #217, .F.);
#217 = EDGE_CURVE('', #179, #218, #220, .T.);
#218 = VERTEX_POINT('', #219);
#219 = CARTESIAN_POINT('', (-8.8, 5.68236114804372E-15, -84.));
#220 = LINE('', #221, #222);
#221 = CARTESIAN_POINT('', (-9., 5.68236114804372E-15, -83.8));
#222 = VECTOR('', #223, 0.282842712474621);
#223 = DIRECTION('', (0.199999999999999, 0., -0.200000000000003));
#224 = ORIENTED_EDGE('', *, *, #188, .T.);
#225 = ORIENTED_EDGE('', *, *, #217, .T.);
#226 = ORIENTED_EDGE('', *, *, #227, .F.);
#227 = EDGE_CURVE('', #218, #218, #228, .T.);
#228 = CIRCLE('', #229, 8.8);
#229 = AXIS2_PLACEMENT_3D('', #230, #231, #232);
#230 = CARTESIAN_POINT('', (-1.13797860024079E-15, -2.22044604925031E-16, -84.));
#231 = DIRECTION('', (-3.68775119558958E-30, -5.49627039179535E-15, -1.));
#232 = DIRECTION('', (-1., 6.70955199200994E-16, 0.));
#233 = (
   BOUNDED_SURFACE ()
   B_SPLINE_SURFACE (2, 1, ((#234, #235), (#236, #237), (#238, #239), (#240, #241), (#242, #243), (#244, #245), (#246, #247), (#248, #249), (#250, #251)), .UNSPECIFIED., .T., .F., .U.)
   B_SPLINE_SURFACE_WITH_KNOTS ((3, 2, 2, 2, 3), (2, 2), (0., 0.25, 0.5, 0.75, 1.), (0., 1.), .UNSPECIFIED.)
   GEOMETRIC_REPRESENTATION_ITEM ()
   RATIONAL_B_SPLINE_SURFACE (((1., 1.), (0.707106781186548, 0.707106781186548), (1., 1.), (0.707106781186548, 0.707106781186548), (1., 1.), (0.707106781186548, 0.707106781186548), (1., 1.), (0.707106781186548, 0.707106781186548), (1., 1.)))
   REPRESENTATION_ITEM ('')
   SURFACE ()
);
#234 = CARTESIAN_POINT('', (-9., 5.68236114804372E-15, -83.8));
#235 = CARTESIAN_POINT('', (-8.8, -3.56747964427687E-15, -84.));
#236 = CARTESIAN_POINT('', (-9., 9.00000000000001, -83.8000000000004));
#237 = CARTESIAN_POINT('', (-8.80000000000001, 8.8, -84.0000000000004));
#238 = CARTESIAN_POINT('', (-3.52846950364881E-15, 9.00000000000001, -83.8000000000004));
#239 = CARTESIAN_POINT('', (-3.44019042112661E-15, 8.8, -84.0000000000004));
#240 = CARTESIAN_POINT('', (9., 9.00000000000001, -83.8000000000004));
#241 = CARTESIAN_POINT('', (8.8, 8.80000000000001, -84.0000000000004));
#242 = CARTESIAN_POINT('', (9., 1.36274785750415E-14, -83.8));
#243 = CARTESIAN_POINT('', (8.8, 4.20107961767648E-15, -84.));
#244 = CARTESIAN_POINT('', (9.00000000000001, -8.99999999999999, -83.7999999999996));
#245 = CARTESIAN_POINT('', (8.80000000000001, -8.8, -83.9999999999996));
#246 = CARTESIAN_POINT('', (5.51883004258155E-15, -8.99999999999999, -83.7999999999996));
#247 = CARTESIAN_POINT('', (5.40605802407642E-15, -8.8, -83.9999999999996));
#248 = CARTESIAN_POINT('', (-8.99999999999999, -9., -83.7999999999996));
#249 = CARTESIAN_POINT('', (-8.8, -8.80000000000001, -83.9999999999996));
#250 = CARTESIAN_POINT('', (-9., 5.68236114804372E-15, -83.8));
#251 = CARTESIAN_POINT('', (-8.8, -3.56747964427687E-15, -84.));
#252 = ADVANCED_FACE('', (#253), #256, .T.);
#253 = FACE_OUTER_BOUND('', #254, .T.);
#254 = EDGE_LOOP('', (#255));
#255 = ORIENTED_EDGE('', *, *, #227, .T.);
#256 = B_SPLINE_SURFACE_WITH_KNOTS('', 1, 1, ((#257, #258), (#259, #260)), .UNSPECIFIED., .F., .F., .U., (2, 2), (2, 2), (0.0454545454545454, 0.954545454545455), (0.0454545454545454, 0.954545454545455), .UNSPECIFIED.);
#257 = CARTESIAN_POINT('', (8.8, -8.8, -84.));
#258 = CARTESIAN_POINT('', (8.8, 8.80000000000001, -84.));
#259 = CARTESIAN_POINT('', (-8.8, -8.8, -84.));
#260 = CARTESIAN_POINT('', (-8.8, 8.80000000000001, -84.));
#261 = PRESENTATION_STYLE_ASSIGNMENT((#262));
#262 = SURFACE_STYLE_USAGE(.POSITIVE., #263);
#263 = SURFACE_SIDE_STYLE('', (#264));
#264 = SURFACE_STYLE_FILL_AREA(#265);
#265 = FILL_AREA_STYLE('', (#266));
#266 = FILL_AREA_STYLE_COLOUR('', #267);
#267 = COLOUR_RGB('', 0.8, 0.8, 0.8);
#268 = STYLED_ITEM('', (#261), #116);
#269 = TRIMMED_CURVE('cutting part line', #270, (#274), (#275), .T., .CARTESIAN.);
#270 = LINE('', #271, #272);
#271 = CARTESIAN_POINT('', (-9.43689570931383E-16, 0., -84.));
#272 = VECTOR('', #273, 8.80000000000001);
#273 = DIRECTION('', (8.80000000000001, 0., -1.4210854715202E-14));
#274 = CARTESIAN_POINT('', (-9.43689570931383E-16, 0., -84.));
#275 = CARTESIAN_POINT('', (8.8, 0., -84.));
#276 = TRIMMED_CURVE('cutting part line', #277, (#281), (#282), .T., .CARTESIAN.);
#277 = LINE('', #278, #279);
#278 = CARTESIAN_POINT('', (8.8, -2.1426036107149E-16, -84.));
#279 = VECTOR('', #280, 0.282842712474619);
#280 = DIRECTION('', (0.199999999999998, 9.32445303116057E-15, 0.200000000000003));
#281 = CARTESIAN_POINT('', (8.8, -2.1426036107149E-16, -84.));
#282 = CARTESIAN_POINT('', (9., 9.11019267008908E-15, -83.8));
#283 = TRIMMED_CURVE('cutting part line', #284, (#288), (#289), .T., .CARTESIAN.);
#284 = LINE('', #285, #286);
#285 = CARTESIAN_POINT('', (8.99999999999997, 8.41548907722364E-16, -83.8));
#286 = VECTOR('', #287, 17.8);
#287 = DIRECTION('', (2.8421709430404E-14, -8.41548907722364E-16, 17.8));
#288 = CARTESIAN_POINT('', (8.99999999999997, 8.41548907722364E-16, -83.8));
#289 = CARTESIAN_POINT('', (9., 0., -66.));
#290 = TRIMMED_CURVE('cutting part line', #291, (#295), (#296), .T., .CARTESIAN.);
#291 = LINE('', #292, #293);
#292 = CARTESIAN_POINT('', (9., -1.37785340172713E-17, -66.));
#293 = VECTOR('', #294, 0.5);
#294 = DIRECTION('', (0., 1.37785340172713E-17, 0.5));
#295 = CARTESIAN_POINT('', (9., -1.37785340172713E-17, -66.));
#296 = CARTESIAN_POINT('', (9., 0., -65.5));
#297 = TRIMMED_CURVE('cutting part line', #298, (#302), (#303), .T., .CARTESIAN.);
#298 = LINE('', #299, #300);
#299 = CARTESIAN_POINT('', (9., 0., -65.5));
#300 = VECTOR('', #301, 9.);
#301 = DIRECTION('', (-9., 0., 0.));
#302 = CARTESIAN_POINT('', (9., 0., -65.5));
#303 = CARTESIAN_POINT('', (5.55111512312578E-17, 0., -65.5));
#304 = TRIMMED_CURVE('cutting part line', #305, (#309), (#310), .T., .CARTESIAN.);
#305 = LINE('', #306, #307);
#306 = CARTESIAN_POINT('', (0., 0., -65.4999999999999));
#307 = VECTOR('', #308, 18.5000000000005);
#308 = DIRECTION('', (0., 0., -18.5000000000005));
#309 = CARTESIAN_POINT('', (0., 0., -65.4999999999999));
#310 = CARTESIAN_POINT('', (0., 0., -84.0000000000004));
#311 = COMPOSITE_CURVE('cutting part line', (#312, #313, #314, #315, #316, #317), .U.);
#312 = COMPOSITE_CURVE_SEGMENT(.CONTINUOUS., .T., #269);
#313 = COMPOSITE_CURVE_SEGMENT(.CONTINUOUS., .T., #276);
#314 = COMPOSITE_CURVE_SEGMENT(.CONTINUOUS., .T., #283);
#315 = COMPOSITE_CURVE_SEGMENT(.CONTINUOUS., .T., #290);
#316 = COMPOSITE_CURVE_SEGMENT(.CONTINUOUS., .T., #297);
#317 = COMPOSITE_CURVE_SEGMENT(.CONTINUOUS., .T., #304);
#318 = GEOMETRIC_SET('', (#311, #366));
#319 = PRESENTATION_STYLE_ASSIGNMENT((#320));
#320 = CURVE_STYLE('', #322, POSITIVE_LENGTH_MEASURE(1.E-6), #321);
#321 = COLOUR_RGB('', 0., 0., 1.);
#322 = DRAUGHTING_PRE_DEFINED_CURVE_FONT('continuous');
#323 = STYLED_ITEM('', (#319), #311);
#324 = PRESENTATION_STYLE_ASSIGNMENT((#325));
#325 = CURVE_STYLE('', #327, POSITIVE_LENGTH_MEASURE(1.E-6), #326);
#326 = COLOUR_RGB('', 0., 0., 1.);
#327 = DRAUGHTING_PRE_DEFINED_CURVE_FONT('continuous');
#328 = OVER_RIDING_STYLED_ITEM('', (#324), #269, #323);
#329 = PRESENTATION_STYLE_ASSIGNMENT((#330));
#330 = CURVE_STYLE('', #332, POSITIVE_LENGTH_MEASURE(1.E-6), #331);
#331 = COLOUR_RGB('', 0., 0., 1.);
#332 = DRAUGHTING_PRE_DEFINED_CURVE_FONT('continuous');
#333 = OVER_RIDING_STYLED_ITEM('', (#329), #276, #323);
#334 = PRESENTATION_STYLE_ASSIGNMENT((#335));
#335 = CURVE_STYLE('', #337, POSITIVE_LENGTH_MEASURE(1.E-6), #336);
#336 = COLOUR_RGB('', 0., 0., 1.);
#337 = DRAUGHTING_PRE_DEFINED_CURVE_FONT('continuous');
#338 = OVER_RIDING_STYLED_ITEM('', (#334), #283, #323);
#339 = PRESENTATION_STYLE_ASSIGNMENT((#340));
#340 = CURVE_STYLE('', #342, POSITIVE_LENGTH_MEASURE(1.E-6), #341);
#341 = COLOUR_RGB('', 0., 0., 1.);
#342 = DRAUGHTING_PRE_DEFINED_CURVE_FONT('continuous');
#343 = OVER_RIDING_STYLED_ITEM('', (#339), #290, #323);
#344 = PRESENTATION_STYLE_ASSIGNMENT((#345));
#345 = CURVE_STYLE('', #347, POSITIVE_LENGTH_MEASURE(1.E-6), #346);
#346 = COLOUR_RGB('', 0., 0., 1.);
#347 = DRAUGHTING_PRE_DEFINED_CURVE_FONT('continuous');
#348 = OVER_RIDING_STYLED_ITEM('', (#344), #297, #323);
#349 = PRESENTATION_STYLE_ASSIGNMENT((#350));
#350 = CURVE_STYLE('', #352, POSITIVE_LENGTH_MEASURE(1.E-6), #351);
#351 = COLOUR_RGB('', 0., 0., 1.);
#352 = DRAUGHTING_PRE_DEFINED_CURVE_FONT('continuous');
#353 = OVER_RIDING_STYLED_ITEM('', (#349), #304, #323);
#354 = AXIS2_PLACEMENT_3D('MCS', #355, #356, #357);
#355 = CARTESIAN_POINT('', (0., 0., -48.));
#356 = DIRECTION('', (0., 0., 1.));
#357 = DIRECTION('', (1., 0., 0.));
#358 = AXIS2_PLACEMENT_3D('PCS', #359, #360, #361);
#359 = CARTESIAN_POINT('', (0., 0., 0.));
#360 = DIRECTION('', (0., 0., 1.));
#361 = DIRECTION('', (1., 0., 0.));
#362 = AXIS2_PLACEMENT_3D('CIP', #363, #364, #365);
#363 = CARTESIAN_POINT('', (0., 0., -84.0000000000004));
#364 = DIRECTION('', (0., 0., 1.));
#365 = DIRECTION('', (1., 0., 0.));
#366 = CARTESIAN_POINT('CRP', (9., 0., -84.0000000000004));
#367 = (
   GEOMETRIC_REPRESENTATION_CONTEXT (3)
   GLOBAL_UNCERTAINTY_ASSIGNED_CONTEXT ((#369))
   GLOBAL_UNIT_ASSIGNED_CONTEXT ((#368, #370, #371))
   REPRESENTATION_CONTEXT ('', '3D')
);
#368 = (
   LENGTH_UNIT ()
   NAMED_UNIT (*)
   SI_UNIT (.MILLI., .METRE.)
);
#369 = UNCERTAINTY_MEASURE_WITH_UNIT(LENGTH_MEASURE(1.E-6), #368, 'DISTANCE_ACCURACY_VALUE', '');
#370 = (
   NAMED_UNIT (*)
   SI_UNIT ($, .STERADIAN.)
   SOLID_ANGLE_UNIT ()
);
#371 = (
   NAMED_UNIT (*)
   PLANE_ANGLE_UNIT ()
   SI_UNIT ($, .RADIAN.)
);
#372 = SHAPE_REPRESENTATION('', (), #367);
#373 = PRODUCT_DEFINITION_SHAPE('', '', #374);
#374 = PRODUCT_DEFINITION('', '', #377, #381);
#375 = APPLICATION_CONTEXT('configuration controlled 3D designs of mechanical parts and assemblies');
#376 = APPLICATION_PROTOCOL_DEFINITION('International Standard', 'automotive_design', 2002, #375);
#377 = PRODUCT_DEFINITION_FORMATION_WITH_SPECIFIED_SOURCE('', '', #378, .NOT_KNOWN.);
#378 = PRODUCT('product-name', '1P221-1800-XB       1630', '', (#379));
#379 = PRODUCT_CONTEXT('', #375, 'mechanical');
#380 = PRODUCT_RELATED_PRODUCT_CATEGORY('detail', '', (#378));
#381 = PRODUCT_DEFINITION_CONTEXT('part definition', #375, 'design');
#382 = SHAPE_DEFINITION_REPRESENTATION(#373, #372);
#383 = CONSTRUCTIVE_GEOMETRY_REPRESENTATION('supplemental geometry', (#354, #358, #362), #367);
#384 = CONSTRUCTIVE_GEOMETRY_REPRESENTATION_RELATIONSHIP('', '', #372, #383);
#385 = SHAPE_REPRESENTATION_RELATIONSHIP('', '', #372, #386);
#386 = SHAPE_REPRESENTATION('', (#318), #367);
#387 = SHAPE_REPRESENTATION_RELATIONSHIP('', '', #372, #388);
#388 = ADVANCED_BREP_SHAPE_REPRESENTATION('', (#1, #116), #367);
ENDSEC;
END-ISO-10303-21;
