ISO-10303-21;
HEADER;
FILE_DESCRIPTION(('STEP'), '1');
FILE_NAME('C:\\Users\\ds2002\\OneDrive - Sandvik\\HomeShare\\Documents\\Batchrepair\\CorSRT2\\NEW_MILSQ_SLD\\Output\\MOD000000000000000020082241800000.stp', '2019-01-02T12:07:39', (''), (''), 'Express v3.0.0.0', 'Express Tool', 'Unknown');
FILE_SCHEMA(('AUTOMOTIVE_DESIGN'));
ENDSEC;

DATA;
#1 = MANIFOLD_SOLID_BREP('NOCUT', #2);
#2 = CLOSED_SHELL('', (#3, #50, #59, #98));
#3 = ADVANCED_FACE('', (#4), #31, .T.);
#4 = FACE_OUTER_BOUND('', #5, .T.);
#5 = EDGE_LOOP('', (#6, #16, #23, #24));
#6 = ORIENTED_EDGE('', *, *, #7, .T.);
#7 = EDGE_CURVE('', #8, #10, #12, .T.);
#8 = VERTEX_POINT('', #9);
#9 = CARTESIAN_POINT('', (-7., 4.71489017671731E-16, -0.700000000000003));
#10 = VERTEX_POINT('', #11);
#11 = CARTESIAN_POINT('', (-6.3, 3.85763741731416E-16, 0.));
#12 = LINE('', #13, #14);
#13 = CARTESIAN_POINT('', (-7., 4.71489017671731E-16, -0.700000000000003));
#14 = VECTOR('', #15, 0.989949493661169);
#15 = DIRECTION('', (0.7, -8.57252759403149E-17, 0.700000000000003));
#16 = ORIENTED_EDGE('', *, *, #17, .T.);
#17 = EDGE_CURVE('', #10, #10, #18, .T.);
#18 = CIRCLE('', #19, 6.3);
#19 = AXIS2_PLACEMENT_3D('', #20, #21, #22);
#20 = CARTESIAN_POINT('', (-6.93889390390723E-16, -3.44169137633799E-15, -2.2186712959341E-31));
#21 = DIRECTION('', (1.9836354552036E-33, 6.12323399573676E-17, -1.));
#22 = DIRECTION('', (-1., 6.07532558423715E-16, 3.52170046973666E-32));
#23 = ORIENTED_EDGE('', *, *, #7, .F.);
#24 = ORIENTED_EDGE('', *, *, #25, .F.);
#25 = EDGE_CURVE('', #8, #8, #26, .T.);
#26 = CIRCLE('', #27, 7.);
#27 = AXIS2_PLACEMENT_3D('', #28, #29, #30);
#28 = CARTESIAN_POINT('', (4.44089209850063E-16, -1.77635683940025E-15, -0.700000000000003));
#29 = DIRECTION('', (1.58603289232165E-17, 2.38255613369127E-18, -1.));
#30 = DIRECTION('', (-1., 3.21120836724569E-16, -1.58603289232165E-17));
#31 = (
   BOUNDED_SURFACE ()
   B_SPLINE_SURFACE (1, 2, ((#32, #33, #34, #35, #36, #37, #38, #39, #40), (#41, #42, #43, #44, #45, #46, #47, #48, #49)), .UNSPECIFIED., .F., .T., .U.)
   B_SPLINE_SURFACE_WITH_KNOTS ((2, 2), (3, 2, 2, 2, 3), (0., 1.), (0., 0.25, 0.5, 0.75, 1.), .UNSPECIFIED.)
   GEOMETRIC_REPRESENTATION_ITEM ()
   RATIONAL_B_SPLINE_SURFACE (((1., 0.707106781186548, 1., 0.707106781186548, 1., 0.707106781186548, 1., 0.707106781186548, 1.), (1., 0.707106781186548, 1., 0.707106781186548, 1., 0.707106781186548, 1., 0.707106781186548, 1.)))
   REPRESENTATION_ITEM ('')
   SURFACE ()
);
#32 = CARTESIAN_POINT('', (-7., -2.1865656338599E-15, -0.700000000000003));
#33 = CARTESIAN_POINT('', (-7., 7., -0.700000000000033));
#34 = CARTESIAN_POINT('', (3.1302121388737E-15, 6.99999999999999, -0.700000000000033));
#35 = CARTESIAN_POINT('', (7., 6.99999999999999, -0.700000000000033));
#36 = CARTESIAN_POINT('', (7., -9.83476869238876E-15, -0.700000000000003));
#37 = CARTESIAN_POINT('', (7., -7.00000000000001, -0.699999999999973));
#38 = CARTESIAN_POINT('', (-3.66073816025201E-15, -7.00000000000001, -0.699999999999973));
#39 = CARTESIAN_POINT('', (-7., -7., -0.699999999999973));
#40 = CARTESIAN_POINT('', (-7., -2.1865656338599E-15, -0.700000000000003));
#41 = CARTESIAN_POINT('', (-6.3, 3.85763741731417E-16, 4.37905770101505E-47));
#42 = CARTESIAN_POINT('', (-6.3, 6.3, -2.69784194983912E-14));
#43 = CARTESIAN_POINT('', (2.74780198594726E-15, 6.3, -2.69784194983912E-14));
#44 = CARTESIAN_POINT('', (6.3, 6.29999999999999, -2.69784194983912E-14));
#45 = CARTESIAN_POINT('', (6.3, -6.49761901094455E-15, -3.74763776766275E-30));
#46 = CARTESIAN_POINT('', (6.3, -6.30000000000001, 2.69784194983912E-14));
#47 = CARTESIAN_POINT('', (-3.36405328326588E-15, -6.3, 2.69784194983912E-14));
#48 = CARTESIAN_POINT('', (-6.3, -6.3, 2.69784194983912E-14));
#49 = CARTESIAN_POINT('', (-6.3, 3.85763741731417E-16, 4.37905770101505E-47));
#50 = ADVANCED_FACE('', (#51), #54, .T.);
#51 = FACE_OUTER_BOUND('', #52, .T.);
#52 = EDGE_LOOP('', (#53));
#53 = ORIENTED_EDGE('', *, *, #17, .F.);
#54 = B_SPLINE_SURFACE_WITH_KNOTS('', 1, 1, ((#55, #56), (#57, #58)), .UNSPECIFIED., .F., .F., .U., (2, 2), (2, 2), (0.0454545454545454, 0.954545454545454), (0.0454545454545454, 0.954545454545454), .UNSPECIFIED.);
#55 = CARTESIAN_POINT('', (6.3, -6.3, -3.85763741731416E-16));
#56 = CARTESIAN_POINT('', (-6.3, -6.3, -3.85763741731416E-16));
#57 = CARTESIAN_POINT('', (6.3, 6.3, 3.85763741731416E-16));
#58 = CARTESIAN_POINT('', (-6.3, 6.3, 3.85763741731416E-16));
#59 = ADVANCED_FACE('', (#60), #79, .T.);
#60 = FACE_OUTER_BOUND('', #61, .T.);
#61 = EDGE_LOOP('', (#62, #71, #77, #78));
#62 = ORIENTED_EDGE('', *, *, #63, .F.);
#63 = EDGE_CURVE('', #64, #64, #66, .T.);
#64 = VERTEX_POINT('', #65);
#65 = CARTESIAN_POINT('', (-7., 4.13318294712232E-15, -60.5));
#66 = CIRCLE('', #67, 7.);
#67 = AXIS2_PLACEMENT_3D('', #68, #69, #70);
#68 = CARTESIAN_POINT('', (1.2490009027033E-15, -1.33226762955019E-15, -60.5));
#69 = DIRECTION('', (0., 0., -1.));
#70 = DIRECTION('', (-1., 7.80778653810358E-16, 0.));
#71 = ORIENTED_EDGE('', *, *, #72, .T.);
#72 = EDGE_CURVE('', #64, #8, #73, .T.);
#73 = LINE('', #74, #75);
#74 = CARTESIAN_POINT('', (-7., 4.13318294712232E-15, -60.5));
#75 = VECTOR('', #76, 59.8);
#76 = DIRECTION('', (0., -3.66169392945059E-15, 59.8));
#77 = ORIENTED_EDGE('', *, *, #25, .T.);
#78 = ORIENTED_EDGE('', *, *, #72, .F.);
#79 = (
   BOUNDED_SURFACE ()
   B_SPLINE_SURFACE (1, 2, ((#80, #81, #82, #83, #84, #85, #86, #87, #88), (#89, #90, #91, #92, #93, #94, #95, #96, #97)), .UNSPECIFIED., .F., .T., .U.)
   B_SPLINE_SURFACE_WITH_KNOTS ((2, 2), (3, 2, 2, 2, 3), (0., 1.), (0., 10.9955742875643, 21.9911485751286, 32.9867228626928, 43.9822971502571), .UNSPECIFIED.)
   GEOMETRIC_REPRESENTATION_ITEM ()
   RATIONAL_B_SPLINE_SURFACE (((1., 0.707106781186548, 1., 0.707106781186548, 1., 0.707106781186548, 1., 0.707106781186548, 1.), (1., 0.707106781186548, 1., 0.707106781186548, 1., 0.707106781186548, 1., 0.707106781186548, 1.)))
   REPRESENTATION_ITEM ('')
   SURFACE ()
);
#80 = CARTESIAN_POINT('', (-7., 4.71489017671731E-16, -61.));
#81 = CARTESIAN_POINT('', (-7., 7., -61.));
#82 = CARTESIAN_POINT('', (3.21968652129043E-15, 7., -61.));
#83 = CARTESIAN_POINT('', (7., 7., -61.));
#84 = CARTESIAN_POINT('', (7., -3.16694993706908E-15, -61.));
#85 = CARTESIAN_POINT('', (7., -7., -61.));
#86 = CARTESIAN_POINT('', (4.38500325952758E-16, -7., -61.));
#87 = CARTESIAN_POINT('', (-7., -7., -61.));
#88 = CARTESIAN_POINT('', (-7., 4.71489017671731E-16, -61.));
#89 = CARTESIAN_POINT('', (-7., 4.71489017671731E-16, -0.700000000000003));
#90 = CARTESIAN_POINT('', (-7., 7., -0.700000000000003));
#91 = CARTESIAN_POINT('', (2.26330868722047E-15, 7., -0.700000000000003));
#92 = CARTESIAN_POINT('', (7., 7., -0.700000000000003));
#93 = CARTESIAN_POINT('', (7., -3.16694993706908E-15, -0.700000000000003));
#94 = CARTESIAN_POINT('', (7., -7., -0.700000000000003));
#95 = CARTESIAN_POINT('', (-5.17877508117198E-16, -7., -0.700000000000003));
#96 = CARTESIAN_POINT('', (-7., -7., -0.700000000000003));
#97 = CARTESIAN_POINT('', (-7., 4.71489017671731E-16, -0.700000000000003));
#98 = ADVANCED_FACE('', (#99), #102, .T.);
#99 = FACE_OUTER_BOUND('', #100, .T.);
#100 = EDGE_LOOP('', (#101));
#101 = ORIENTED_EDGE('', *, *, #63, .T.);
#102 = B_SPLINE_SURFACE_WITH_KNOTS('', 1, 1, ((#103, #104), (#105, #106)), .UNSPECIFIED., .F., .F., .U., (2, 2), (2, 2), (0.482553248179319, 0.572795101204991), (0.427204898795008, 0.517446751820681), .UNSPECIFIED.);
#103 = CARTESIAN_POINT('', (-7.00000000000001, 7.00000000000001, -60.5));
#104 = CARTESIAN_POINT('', (-7.00000000000001, -6.99999999999999, -60.5));
#105 = CARTESIAN_POINT('', (6.99999999999996, 7.00000000000001, -60.5));
#106 = CARTESIAN_POINT('', (6.99999999999996, -6.99999999999999, -60.5));
#107 = DRAUGHTING_MODEL('', (#115, #268, #323, #328, #333, #338, #343, #348, #353), #367);
#108 = PRESENTATION_STYLE_ASSIGNMENT((#109));
#109 = SURFACE_STYLE_USAGE(.POSITIVE., #110);
#110 = SURFACE_SIDE_STYLE('', (#111));
#111 = SURFACE_STYLE_FILL_AREA(#112);
#112 = FILL_AREA_STYLE('', (#113));
#113 = FILL_AREA_STYLE_COLOUR('', #114);
#114 = COLOUR_RGB('', 0.50196078431373, 0.50196078431373, 0.50196078431373);
#115 = STYLED_ITEM('', (#108), #1);
#116 = MANIFOLD_SOLID_BREP('CUT', #117);
#117 = CLOSED_SHELL('', (#118, #135, #174, #213, #252));
#118 = ADVANCED_FACE('', (#119), #130, .T.);
#119 = FACE_OUTER_BOUND('', #120, .T.);
#120 = EDGE_LOOP('', (#121));
#121 = ORIENTED_EDGE('', *, *, #122, .F.);
#122 = EDGE_CURVE('', #123, #123, #125, .T.);
#123 = VERTEX_POINT('', #124);
#124 = CARTESIAN_POINT('', (-7., 4.13318294712232E-15, -60.5));
#125 = CIRCLE('', #126, 7.);
#126 = AXIS2_PLACEMENT_3D('', #127, #128, #129);
#127 = CARTESIAN_POINT('', (1.2490009027033E-15, -1.33226762955019E-15, -60.5));
#128 = DIRECTION('', (0., 0., -1.));
#129 = DIRECTION('', (-1., 7.80778653810358E-16, 0.));
#130 = B_SPLINE_SURFACE_WITH_KNOTS('', 1, 1, ((#131, #132), (#133, #134)), .UNSPECIFIED., .F., .F., .U., (2, 2), (2, 2), (0.427204898795009, 0.517446751820681), (0.482553248179319, 0.572795101204991), .UNSPECIFIED.);
#131 = CARTESIAN_POINT('', (-7., 7., -60.5));
#132 = CARTESIAN_POINT('', (7., 7., -60.5));
#133 = CARTESIAN_POINT('', (-7., -7., -60.5));
#134 = CARTESIAN_POINT('', (7., -7., -60.5));
#135 = ADVANCED_FACE('', (#136), #155, .T.);
#136 = FACE_OUTER_BOUND('', #137, .T.);
#137 = EDGE_LOOP('', (#138, #139, #147, #154));
#138 = ORIENTED_EDGE('', *, *, #122, .T.);
#139 = ORIENTED_EDGE('', *, *, #140, .F.);
#140 = EDGE_CURVE('', #141, #123, #143, .T.);
#141 = VERTEX_POINT('', #142);
#142 = CARTESIAN_POINT('', (-7., 4.163799117101E-15, -61.));
#143 = LINE('', #144, #145);
#144 = CARTESIAN_POINT('', (-7., 4.163799117101E-15, -61.));
#145 = VECTOR('', #146, 0.5);
#146 = DIRECTION('', (0., -3.06161699786798E-17, 0.5));
#147 = ORIENTED_EDGE('', *, *, #148, .F.);
#148 = EDGE_CURVE('', #141, #141, #149, .T.);
#149 = CIRCLE('', #150, 7.);
#150 = AXIS2_PLACEMENT_3D('', #151, #152, #153);
#151 = CARTESIAN_POINT('', (-1.66533453693773E-16, 6.66133814775094E-16, -61.));
#152 = DIRECTION('', (0., 0., -1.));
#153 = DIRECTION('', (-1., 4.99666471760844E-16, 0.));
#154 = ORIENTED_EDGE('', *, *, #140, .T.);
#155 = (
   BOUNDED_SURFACE ()
   B_SPLINE_SURFACE (1, 2, ((#156, #157, #158, #159, #160, #161, #162, #163, #164), (#165, #166, #167, #168, #169, #170, #171, #172, #173)), .UNSPECIFIED., .F., .T., .U.)
   B_SPLINE_SURFACE_WITH_KNOTS ((2, 2), (3, 2, 2, 2, 3), (0., 0.00829187396351572), (0., 10.9955742875643, 21.9911485751286, 32.9867228626928, 43.9822971502571), .UNSPECIFIED.)
   GEOMETRIC_REPRESENTATION_ITEM ()
   RATIONAL_B_SPLINE_SURFACE (((1., 0.707106781186548, 1., 0.707106781186548, 1., 0.707106781186548, 1., 0.707106781186548, 1.), (1., 0.707106781186548, 1., 0.707106781186548, 1., 0.707106781186548, 1., 0.707106781186548, 1.)))
   REPRESENTATION_ITEM ('')
   SURFACE ()
);
#156 = CARTESIAN_POINT('', (-7., 4.13318294712232E-15, -61.));
#157 = CARTESIAN_POINT('', (-6.99999999999999, 7., -61.));
#158 = CARTESIAN_POINT('', (5.480913406821E-15, 7., -61.));
#159 = CARTESIAN_POINT('', (7.00000000000001, 6.99999999999999, -61.));
#160 = CARTESIAN_POINT('', (7., -6.82864386651967E-15, -61.));
#161 = CARTESIAN_POINT('', (6.99999999999999, -7.00000000000001, -61.));
#162 = CARTESIAN_POINT('', (-4.62366064741785E-15, -7., -61.));
#163 = CARTESIAN_POINT('', (-7., -7., -61.));
#164 = CARTESIAN_POINT('', (-7., 4.13318294712232E-15, -61.));
#165 = CARTESIAN_POINT('', (-7., 4.13318294712232E-15, -60.5));
#166 = CARTESIAN_POINT('', (-6.99999999999999, 7., -60.5));
#167 = CARTESIAN_POINT('', (5.480913406821E-15, 7., -60.5));
#168 = CARTESIAN_POINT('', (7.00000000000001, 6.99999999999999, -60.5));
#169 = CARTESIAN_POINT('', (7., -6.82864386651967E-15, -60.5));
#170 = CARTESIAN_POINT('', (6.99999999999999, -7.00000000000001, -60.5));
#171 = CARTESIAN_POINT('', (-4.62366064741785E-15, -7., -60.5));
#172 = CARTESIAN_POINT('', (-7., -7., -60.5));
#173 = CARTESIAN_POINT('', (-7., 4.13318294712232E-15, -60.5));
#174 = ADVANCED_FACE('', (#175), #194, .T.);
#175 = FACE_OUTER_BOUND('', #176, .T.);
#176 = EDGE_LOOP('', (#177, #185, #186, #187));
#177 = ORIENTED_EDGE('', *, *, #178, .F.);
#178 = EDGE_CURVE('', #141, #179, #181, .T.);
#179 = VERTEX_POINT('', #180);
#180 = CARTESIAN_POINT('', (-7., 5.00880540851267E-15, -74.8));
#181 = LINE('', #182, #183);
#182 = CARTESIAN_POINT('', (-7., 4.163799117101E-15, -61.));
#183 = VECTOR('', #184, 13.8);
#184 = DIRECTION('', (0., 8.4500629141167E-16, -13.8));
#185 = ORIENTED_EDGE('', *, *, #148, .T.);
#186 = ORIENTED_EDGE('', *, *, #178, .T.);
#187 = ORIENTED_EDGE('', *, *, #188, .F.);
#188 = EDGE_CURVE('', #179, #179, #189, .T.);
#189 = CIRCLE('', #190, 7.);
#190 = AXIS2_PLACEMENT_3D('', #191, #192, #193);
#191 = CARTESIAN_POINT('', (8.04911692853238E-16, -8.88178419700125E-16, -74.8));
#192 = DIRECTION('', (0., 0., -1.));
#193 = DIRECTION('', (-1., 8.42426261173256E-16, 0.));
#194 = (
   BOUNDED_SURFACE ()
   B_SPLINE_SURFACE (2, 1, ((#195, #196), (#197, #198), (#199, #200), (#201, #202), (#203, #204), (#205, #206), (#207, #208), (#209, #210), (#211, #212)), .UNSPECIFIED., .T., .F., .U.)
   B_SPLINE_SURFACE_WITH_KNOTS ((3, 2, 2, 2, 3), (2, 2), (0., 10.9955742875643, 21.9911485751286, 32.9867228626928, 43.9822971502571), (0., 1.), .UNSPECIFIED.)
   GEOMETRIC_REPRESENTATION_ITEM ()
   RATIONAL_B_SPLINE_SURFACE (((1., 1.), (0.707106781186548, 0.707106781186548), (1., 1.), (0.707106781186548, 0.707106781186548), (1., 1.), (0.707106781186548, 0.707106781186548), (1., 1.), (0.707106781186548, 0.707106781186548), (1., 1.)))
   REPRESENTATION_ITEM ('')
   SURFACE ()
);
#195 = CARTESIAN_POINT('', (-7., 4.163799117101E-15, -61.));
#196 = CARTESIAN_POINT('', (-7., 5.05197753680113E-15, -74.8));
#197 = CARTESIAN_POINT('', (-6.99999999999999, 7., -61.));
#198 = CARTESIAN_POINT('', (-6.99999999999999, 7.00000000000001, -74.8));
#199 = CARTESIAN_POINT('', (5.51152957679968E-15, 7., -61.));
#200 = CARTESIAN_POINT('', (5.51152957679968E-15, 7., -74.8));
#201 = CARTESIAN_POINT('', (7.00000000000001, 6.99999999999999, -61.));
#202 = CARTESIAN_POINT('', (7.00000000000001, 6.99999999999999, -74.8));
#203 = CARTESIAN_POINT('', (7., -6.85926003649835E-15, -61.));
#204 = CARTESIAN_POINT('', (7., -5.97108161679823E-15, -74.8));
#205 = CARTESIAN_POINT('', (6.99999999999999, -7.00000000000001, -61.));
#206 = CARTESIAN_POINT('', (6.99999999999999, -7.00000000000001, -74.8));
#207 = CARTESIAN_POINT('', (-4.65427681739653E-15, -7., -61.));
#208 = CARTESIAN_POINT('', (-4.65427681739653E-15, -7., -74.8));
#209 = CARTESIAN_POINT('', (-7., -7., -61.));
#210 = CARTESIAN_POINT('', (-7., -7., -74.8));
#211 = CARTESIAN_POINT('', (-7., 4.163799117101E-15, -61.));
#212 = CARTESIAN_POINT('', (-7., 5.05197753680113E-15, -74.8));
#213 = ADVANCED_FACE('', (#214), #233, .T.);
#214 = FACE_OUTER_BOUND('', #215, .T.);
#215 = EDGE_LOOP('', (#216, #224, #225, #226));
#216 = ORIENTED_EDGE('', *, *, #217, .F.);
#217 = EDGE_CURVE('', #179, #218, #220, .T.);
#218 = VERTEX_POINT('', #219);
#219 = CARTESIAN_POINT('', (-6.8, 5.00880540851267E-15, -75.));
#220 = LINE('', #221, #222);
#221 = CARTESIAN_POINT('', (-7., 5.00880540851267E-15, -74.8));
#222 = VECTOR('', #223, 0.282842712474621);
#223 = DIRECTION('', (0.2, 0., -0.200000000000003));
#224 = ORIENTED_EDGE('', *, *, #188, .T.);
#225 = ORIENTED_EDGE('', *, *, #217, .T.);
#226 = ORIENTED_EDGE('', *, *, #227, .F.);
#227 = EDGE_CURVE('', #218, #218, #228, .T.);
#228 = CIRCLE('', #229, 6.8);
#229 = AXIS2_PLACEMENT_3D('', #230, #231, #232);
#230 = CARTESIAN_POINT('', (3.60822483003176E-16, 3.44169137633799E-15, -75.));
#231 = DIRECTION('', (0., 0., -1.));
#232 = DIRECTION('', (-1., 2.30457945908042E-16, 0.));
#233 = (
   BOUNDED_SURFACE ()
   B_SPLINE_SURFACE (2, 1, ((#234, #235), (#236, #237), (#238, #239), (#240, #241), (#242, #243), (#244, #245), (#246, #247), (#248, #249), (#250, #251)), .UNSPECIFIED., .T., .F., .U.)
   B_SPLINE_SURFACE_WITH_KNOTS ((3, 2, 2, 2, 3), (2, 2), (0., 0.25, 0.5, 0.75, 1.), (0., 1.), .UNSPECIFIED.)
   GEOMETRIC_REPRESENTATION_ITEM ()
   RATIONAL_B_SPLINE_SURFACE (((1., 1.), (0.707106781186548, 0.707106781186548), (1., 1.), (0.707106781186548, 0.707106781186548), (1., 1.), (0.707106781186548, 0.707106781186548), (1., 1.), (0.707106781186548, 0.707106781186548), (1., 1.)))
   REPRESENTATION_ITEM ('')
   SURFACE ()
);
#234 = CARTESIAN_POINT('', (-7., 5.00880540851267E-15, -74.8));
#235 = CARTESIAN_POINT('', (-6.8, 7.01318521875868E-15, -75.));
#236 = CARTESIAN_POINT('', (-7., 7.00000000000001, -74.7999999999999));
#237 = CARTESIAN_POINT('', (-6.8, 6.80000000000001, -74.9999999999999));
#238 = CARTESIAN_POINT('', (3.05362236995151E-15, 7., -74.7999999999999));
#239 = CARTESIAN_POINT('', (2.9608249014012E-15, 6.8, -74.9999999999999));
#240 = CARTESIAN_POINT('', (7., 7., -74.7999999999999));
#241 = CARTESIAN_POINT('', (6.8, 6.8, -74.9999999999999));
#242 = CARTESIAN_POINT('', (7., -1.48701739000915E-15, -74.8));
#243 = CARTESIAN_POINT('', (6.8, 7.02957357337489E-16, -75.));
#244 = CARTESIAN_POINT('', (7., -7., -74.8000000000001));
#245 = CARTESIAN_POINT('', (6.8, -6.8, -75.0000000000001));
#246 = CARTESIAN_POINT('', (-2.58494766916716E-15, -7., -74.8000000000001));
#247 = CARTESIAN_POINT('', (-2.5166431365998E-15, -6.8, -75.0000000000001));
#248 = CARTESIAN_POINT('', (-7., -7., -74.8000000000001));
#249 = CARTESIAN_POINT('', (-6.8, -6.79999999999999, -75.0000000000001));
#250 = CARTESIAN_POINT('', (-7., 5.00880540851267E-15, -74.8));
#251 = CARTESIAN_POINT('', (-6.8, 7.01318521875868E-15, -75.));
#252 = ADVANCED_FACE('', (#253), #256, .T.);
#253 = FACE_OUTER_BOUND('', #254, .T.);
#254 = EDGE_LOOP('', (#255));
#255 = ORIENTED_EDGE('', *, *, #227, .T.);
#256 = B_SPLINE_SURFACE_WITH_KNOTS('', 1, 1, ((#257, #258), (#259, #260)), .UNSPECIFIED., .F., .F., .U., (2, 2), (2, 2), (0.0454545454545454, 0.954545454545455), (0.0454545454545454, 0.954545454545455), .UNSPECIFIED.);
#257 = CARTESIAN_POINT('', (6.8, -6.8, -75.));
#258 = CARTESIAN_POINT('', (6.8, 6.80000000000001, -75.));
#259 = CARTESIAN_POINT('', (-6.8, -6.8, -75.));
#260 = CARTESIAN_POINT('', (-6.8, 6.80000000000001, -75.));
#261 = PRESENTATION_STYLE_ASSIGNMENT((#262));
#262 = SURFACE_STYLE_USAGE(.POSITIVE., #263);
#263 = SURFACE_SIDE_STYLE('', (#264));
#264 = SURFACE_STYLE_FILL_AREA(#265);
#265 = FILL_AREA_STYLE('', (#266));
#266 = FILL_AREA_STYLE_COLOUR('', #267);
#267 = COLOUR_RGB('', 0.8, 0.8, 0.8);
#268 = STYLED_ITEM('', (#261), #116);
#269 = TRIMMED_CURVE('cutting part line', #270, (#274), (#275), .T., .CARTESIAN.);
#270 = LINE('', #271, #272);
#271 = CARTESIAN_POINT('', (5.55111512312578E-17, 0., -75.));
#272 = VECTOR('', #273, 6.8);
#273 = DIRECTION('', (6.8, 0., 1.4210854715202E-14));
#274 = CARTESIAN_POINT('', (5.55111512312578E-17, 0., -75.));
#275 = CARTESIAN_POINT('', (6.8, 0., -75.));
#276 = TRIMMED_CURVE('cutting part line', #277, (#281), (#282), .T., .CARTESIAN.);
#277 = LINE('', #278, #279);
#278 = CARTESIAN_POINT('', (6.8, 3.43777637896535E-15, -75.));
#279 = VECTOR('', #280, 0.282842712474621);
#280 = DIRECTION('', (0.2, -2.10910247133394E-15, 0.200000000000003));
#281 = CARTESIAN_POINT('', (6.8, 3.43777637896535E-15, -75.));
#282 = CARTESIAN_POINT('', (7., 1.32867390763141E-15, -74.8));
#283 = TRIMMED_CURVE('cutting part line', #284, (#288), (#289), .T., .CARTESIAN.);
#284 = LINE('', #285, #286);
#285 = CARTESIAN_POINT('', (7., 8.88043145824817E-16, -74.8));
#286 = VECTOR('', #287, 13.8);
#287 = DIRECTION('', (0., -8.88043145824817E-16, 13.8));
#288 = CARTESIAN_POINT('', (7., 8.88043145824817E-16, -74.8));
#289 = CARTESIAN_POINT('', (7., 0., -61.));
#290 = TRIMMED_CURVE('cutting part line', #291, (#295), (#296), .T., .CARTESIAN.);
#291 = LINE('', #292, #293);
#292 = CARTESIAN_POINT('', (7., 0., -61.));
#293 = VECTOR('', #294, 0.5);
#294 = DIRECTION('', (0., 0., 0.5));
#295 = CARTESIAN_POINT('', (7., 0., -61.));
#296 = CARTESIAN_POINT('', (7., 0., -60.5));
#297 = TRIMMED_CURVE('cutting part line', #298, (#302), (#303), .T., .CARTESIAN.);
#298 = LINE('', #299, #300);
#299 = CARTESIAN_POINT('', (7., 0., -60.5));
#300 = VECTOR('', #301, 7.);
#301 = DIRECTION('', (-7., 0., -7.105427357601E-15));
#302 = CARTESIAN_POINT('', (7., 0., -60.5));
#303 = CARTESIAN_POINT('', (0., 0., -60.5));
#304 = TRIMMED_CURVE('cutting part line', #305, (#309), (#310), .T., .CARTESIAN.);
#305 = LINE('', #306, #307);
#306 = CARTESIAN_POINT('', (0., 0., -60.5));
#307 = VECTOR('', #308, 14.5);
#308 = DIRECTION('', (0., 0., -14.5));
#309 = CARTESIAN_POINT('', (0., 0., -60.5));
#310 = CARTESIAN_POINT('', (0., 0., -75.));
#311 = COMPOSITE_CURVE('cutting part line', (#312, #313, #314, #315, #316, #317), .U.);
#312 = COMPOSITE_CURVE_SEGMENT(.CONTINUOUS., .T., #269);
#313 = COMPOSITE_CURVE_SEGMENT(.CONTINUOUS., .T., #276);
#314 = COMPOSITE_CURVE_SEGMENT(.CONTINUOUS., .T., #283);
#315 = COMPOSITE_CURVE_SEGMENT(.CONTINUOUS., .T., #290);
#316 = COMPOSITE_CURVE_SEGMENT(.CONTINUOUS., .T., #297);
#317 = COMPOSITE_CURVE_SEGMENT(.CONTINUOUS., .T., #304);
#318 = GEOMETRIC_SET('', (#311, #366));
#319 = PRESENTATION_STYLE_ASSIGNMENT((#320));
#320 = CURVE_STYLE('', #322, POSITIVE_LENGTH_MEASURE(1.E-6), #321);
#321 = COLOUR_RGB('', 0., 0., 1.);
#322 = DRAUGHTING_PRE_DEFINED_CURVE_FONT('continuous');
#323 = STYLED_ITEM('', (#319), #311);
#324 = PRESENTATION_STYLE_ASSIGNMENT((#325));
#325 = CURVE_STYLE('', #327, POSITIVE_LENGTH_MEASURE(1.E-6), #326);
#326 = COLOUR_RGB('', 0., 0., 1.);
#327 = DRAUGHTING_PRE_DEFINED_CURVE_FONT('continuous');
#328 = OVER_RIDING_STYLED_ITEM('', (#324), #269, #323);
#329 = PRESENTATION_STYLE_ASSIGNMENT((#330));
#330 = CURVE_STYLE('', #332, POSITIVE_LENGTH_MEASURE(1.E-6), #331);
#331 = COLOUR_RGB('', 0., 0., 1.);
#332 = DRAUGHTING_PRE_DEFINED_CURVE_FONT('continuous');
#333 = OVER_RIDING_STYLED_ITEM('', (#329), #276, #323);
#334 = PRESENTATION_STYLE_ASSIGNMENT((#335));
#335 = CURVE_STYLE('', #337, POSITIVE_LENGTH_MEASURE(1.E-6), #336);
#336 = COLOUR_RGB('', 0., 0., 1.);
#337 = DRAUGHTING_PRE_DEFINED_CURVE_FONT('continuous');
#338 = OVER_RIDING_STYLED_ITEM('', (#334), #283, #323);
#339 = PRESENTATION_STYLE_ASSIGNMENT((#340));
#340 = CURVE_STYLE('', #342, POSITIVE_LENGTH_MEASURE(1.E-6), #341);
#341 = COLOUR_RGB('', 0., 0., 1.);
#342 = DRAUGHTING_PRE_DEFINED_CURVE_FONT('continuous');
#343 = OVER_RIDING_STYLED_ITEM('', (#339), #290, #323);
#344 = PRESENTATION_STYLE_ASSIGNMENT((#345));
#345 = CURVE_STYLE('', #347, POSITIVE_LENGTH_MEASURE(1.E-6), #346);
#346 = COLOUR_RGB('', 0., 0., 1.);
#347 = DRAUGHTING_PRE_DEFINED_CURVE_FONT('continuous');
#348 = OVER_RIDING_STYLED_ITEM('', (#344), #297, #323);
#349 = PRESENTATION_STYLE_ASSIGNMENT((#350));
#350 = CURVE_STYLE('', #352, POSITIVE_LENGTH_MEASURE(1.E-6), #351);
#351 = COLOUR_RGB('', 0., 0., 1.);
#352 = DRAUGHTING_PRE_DEFINED_CURVE_FONT('continuous');
#353 = OVER_RIDING_STYLED_ITEM('', (#349), #304, #323);
#354 = AXIS2_PLACEMENT_3D('MCS', #355, #356, #357);
#355 = CARTESIAN_POINT('', (0., 0., -45.));
#356 = DIRECTION('', (0., 0., 1.));
#357 = DIRECTION('', (1., 0., 0.));
#358 = AXIS2_PLACEMENT_3D('PCS', #359, #360, #361);
#359 = CARTESIAN_POINT('', (0., 0., 0.));
#360 = DIRECTION('', (0., 0., 1.));
#361 = DIRECTION('', (1., 0., 0.));
#362 = AXIS2_PLACEMENT_3D('CIP', #363, #364, #365);
#363 = CARTESIAN_POINT('', (0., 0., -75.0000000000001));
#364 = DIRECTION('', (0., 0., 1.));
#365 = DIRECTION('', (1., 0., 0.));
#366 = CARTESIAN_POINT('CRP', (7., 0., -75.));
#367 = (
   GEOMETRIC_REPRESENTATION_CONTEXT (3)
   GLOBAL_UNCERTAINTY_ASSIGNED_CONTEXT ((#369))
   GLOBAL_UNIT_ASSIGNED_CONTEXT ((#368, #370, #371))
   REPRESENTATION_CONTEXT ('', '3D')
);
#368 = (
   LENGTH_UNIT ()
   NAMED_UNIT (*)
   SI_UNIT (.MILLI., .METRE.)
);
#369 = UNCERTAINTY_MEASURE_WITH_UNIT(LENGTH_MEASURE(1.E-6), #368, 'DISTANCE_ACCURACY_VALUE', '');
#370 = (
   NAMED_UNIT (*)
   SI_UNIT ($, .STERADIAN.)
   SOLID_ANGLE_UNIT ()
);
#371 = (
   NAMED_UNIT (*)
   PLANE_ANGLE_UNIT ()
   SI_UNIT ($, .RADIAN.)
);
#372 = SHAPE_REPRESENTATION('', (), #367);
#373 = PRODUCT_DEFINITION_SHAPE('', '', #374);
#374 = PRODUCT_DEFINITION('', '', #377, #381);
#375 = APPLICATION_CONTEXT('configuration controlled 3D designs of mechanical parts and assemblies');
#376 = APPLICATION_PROTOCOL_DEFINITION('International Standard', 'automotive_design', 2002, #375);
#377 = PRODUCT_DEFINITION_FORMATION_WITH_SPECIFIED_SOURCE('', '', #378, .NOT_KNOWN.);
#378 = PRODUCT('product-name', '1P221-1400-XB       1630', '', (#379));
#379 = PRODUCT_CONTEXT('', #375, 'mechanical');
#380 = PRODUCT_RELATED_PRODUCT_CATEGORY('detail', '', (#378));
#381 = PRODUCT_DEFINITION_CONTEXT('part definition', #375, 'design');
#382 = SHAPE_DEFINITION_REPRESENTATION(#373, #372);
#383 = CONSTRUCTIVE_GEOMETRY_REPRESENTATION('supplemental geometry', (#354, #358, #362), #367);
#384 = CONSTRUCTIVE_GEOMETRY_REPRESENTATION_RELATIONSHIP('', '', #372, #383);
#385 = SHAPE_REPRESENTATION_RELATIONSHIP('', '', #372, #386);
#386 = SHAPE_REPRESENTATION('', (#318), #367);
#387 = SHAPE_REPRESENTATION_RELATIONSHIP('', '', #372, #388);
#388 = ADVANCED_BREP_SHAPE_REPRESENTATION('', (#1, #116), #367);
ENDSEC;
END-ISO-10303-21;
