ISO-10303-21;
HEADER;
FILE_DESCRIPTION(('STEP'), '1');
FILE_NAME('C:\\Users\\ds2002\\OneDrive - Sandvik\\HomeShare\\Documents\\Batchrepair\\CorSRT2\\NEW_MILSQ_SLD\\Output\\MOD000000000000000020082241000000.stp', '2019-01-02T12:07:33', (''), (''), 'Express v3.0.0.0', 'Express Tool', 'Unknown');
FILE_SCHEMA(('AUTOMOTIVE_DESIGN'));
ENDSEC;

DATA;
#1 = MANIFOLD_SOLID_BREP('NOCUT', #2);
#2 = CLOSED_SHELL('', (#3, #50, #59, #98));
#3 = ADVANCED_FACE('', (#4), #31, .T.);
#4 = FACE_OUTER_BOUND('', #5, .T.);
#5 = EDGE_LOOP('', (#6, #16, #23, #24));
#6 = ORIENTED_EDGE('', *, *, #7, .T.);
#7 = EDGE_CURVE('', #8, #10, #12, .T.);
#8 = VERTEX_POINT('', #9);
#9 = CARTESIAN_POINT('', (-5., 3.36777869765522E-16, -0.5));
#10 = VERTEX_POINT('', #11);
#11 = CARTESIAN_POINT('', (-4.5, 2.75545529808154E-16, 0.));
#12 = LINE('', #13, #14);
#13 = CARTESIAN_POINT('', (-5., 3.36777869765522E-16, -0.5));
#14 = VECTOR('', #15, 0.707106781186548);
#15 = DIRECTION('', (0.5, -6.1232339957368E-17, 0.5));
#16 = ORIENTED_EDGE('', *, *, #17, .T.);
#17 = EDGE_CURVE('', #10, #10, #18, .T.);
#18 = CIRCLE('', #19, 4.5);
#19 = AXIS2_PLACEMENT_3D('', #20, #21, #22);
#20 = CARTESIAN_POINT('', (2.28983498828939E-15, 0., -1.84889274661175E-32));
#21 = DIRECTION('', (-3.59251091371472E-34, 6.12323399573676E-17, -1.));
#22 = DIRECTION('', (-1., 6.12323399573675E-17, 4.1086505480261E-33));
#23 = ORIENTED_EDGE('', *, *, #7, .F.);
#24 = ORIENTED_EDGE('', *, *, #25, .F.);
#25 = EDGE_CURVE('', #8, #8, #26, .T.);
#26 = CIRCLE('', #27, 5.);
#27 = AXIS2_PLACEMENT_3D('', #28, #29, #30);
#28 = CARTESIAN_POINT('', (8.88178419700125E-16, -1.99840144432528E-15, -0.5));
#29 = DIRECTION('', (0., 0., -1.));
#30 = DIRECTION('', (-1., 4.67035862818161E-16, 0.));
#31 = (
   BOUNDED_SURFACE ()
   B_SPLINE_SURFACE (1, 2, ((#32, #33, #34, #35, #36, #37, #38, #39, #40), (#41, #42, #43, #44, #45, #46, #47, #48, #49)), .UNSPECIFIED., .F., .T., .U.)
   B_SPLINE_SURFACE_WITH_KNOTS ((2, 2), (3, 2, 2, 2, 3), (0., 1.), (0., 0.25, 0.5, 0.75, 1.), .UNSPECIFIED.)
   GEOMETRIC_REPRESENTATION_ITEM ()
   RATIONAL_B_SPLINE_SURFACE (((1., 0.707106781186548, 1., 0.707106781186548, 1., 0.707106781186548, 1., 0.707106781186548, 1.), (1., 0.707106781186548, 1., 0.707106781186548, 1., 0.707106781186548, 1., 0.707106781186548, 1.)))
   REPRESENTATION_ITEM ('')
   SURFACE ()
);
#32 = CARTESIAN_POINT('', (-5., -2.69144046670109E-15, -0.5));
#33 = CARTESIAN_POINT('', (-5., 5., -0.50000000000003));
#34 = CARTESIAN_POINT('', (2.28983498828938E-15, 5., -0.50000000000003));
#35 = CARTESIAN_POINT('', (5., 5., -0.50000000000003));
#36 = CARTESIAN_POINT('', (5., -2.69144046670108E-15, -0.5));
#37 = CARTESIAN_POINT('', (5., -5., -0.49999999999997));
#38 = CARTESIAN_POINT('', (2.90215838786306E-15, -5., -0.49999999999997));
#39 = CARTESIAN_POINT('', (-5., -5., -0.49999999999997));
#40 = CARTESIAN_POINT('', (-5., -2.69144046670109E-15, -0.5));
#41 = CARTESIAN_POINT('', (-4.5, 2.75545529808154E-16, -5.47382212626882E-48));
#42 = CARTESIAN_POINT('', (-4.5, 4.5, -2.69784194983913E-14));
#43 = CARTESIAN_POINT('', (2.28983498828938E-15, 4.5, -2.69784194983913E-14));
#44 = CARTESIAN_POINT('', (4.5, 4.5, -2.69784194983913E-14));
#45 = CARTESIAN_POINT('', (4.5, 2.75545529808155E-16, -3.34088136340818E-30));
#46 = CARTESIAN_POINT('', (4.5, -4.5, 2.69784194983913E-14));
#47 = CARTESIAN_POINT('', (2.8409260479057E-15, -4.5, 2.69784194983913E-14));
#48 = CARTESIAN_POINT('', (-4.5, -4.5, 2.69784194983913E-14));
#49 = CARTESIAN_POINT('', (-4.5, 2.75545529808154E-16, -5.47382212626882E-48));
#50 = ADVANCED_FACE('', (#51), #54, .T.);
#51 = FACE_OUTER_BOUND('', #52, .T.);
#52 = EDGE_LOOP('', (#53));
#53 = ORIENTED_EDGE('', *, *, #17, .F.);
#54 = B_SPLINE_SURFACE_WITH_KNOTS('', 1, 1, ((#55, #56), (#57, #58)), .UNSPECIFIED., .F., .F., .U., (2, 2), (2, 2), (0.0454545454545454, 0.954545454545454), (0.0454545454545454, 0.954545454545454), .UNSPECIFIED.);
#55 = CARTESIAN_POINT('', (4.5, -4.5, -2.75545529808155E-16));
#56 = CARTESIAN_POINT('', (-4.5, -4.5, -2.75545529808154E-16));
#57 = CARTESIAN_POINT('', (4.5, 4.5, 2.75545529808154E-16));
#58 = CARTESIAN_POINT('', (-4.5, 4.5, 2.75545529808155E-16));
#59 = ADVANCED_FACE('', (#60), #79, .T.);
#60 = FACE_OUTER_BOUND('', #61, .T.);
#61 = EDGE_LOOP('', (#62, #71, #77, #78));
#62 = ORIENTED_EDGE('', *, *, #63, .F.);
#63 = EDGE_CURVE('', #64, #64, #66, .T.);
#64 = VERTEX_POINT('', #65);
#65 = CARTESIAN_POINT('', (-5., 3.64332422746338E-15, -54.5));
#66 = CIRCLE('', #67, 5.);
#67 = AXIS2_PLACEMENT_3D('', #68, #69, #70);
#68 = CARTESIAN_POINT('', (-7.7715611723761E-16, 2.60791388484449E-13, -54.5));
#69 = DIRECTION('', (0., 0., -1.));
#70 = DIRECTION('', (-1., 8.0694095222595E-16, 0.));
#71 = ORIENTED_EDGE('', *, *, #72, .T.);
#72 = EDGE_CURVE('', #64, #8, #73, .T.);
#73 = LINE('', #74, #75);
#74 = CARTESIAN_POINT('', (-5., 3.64332422746338E-15, -54.5));
#75 = VECTOR('', #76, 54.);
#76 = DIRECTION('', (0., -3.30654635769786E-15, 54.));
#77 = ORIENTED_EDGE('', *, *, #25, .T.);
#78 = ORIENTED_EDGE('', *, *, #72, .F.);
#79 = (
   BOUNDED_SURFACE ()
   B_SPLINE_SURFACE (1, 2, ((#80, #81, #82, #83, #84, #85, #86, #87, #88), (#89, #90, #91, #92, #93, #94, #95, #96, #97)), .UNSPECIFIED., .F., .T., .U.)
   B_SPLINE_SURFACE_WITH_KNOTS ((2, 2), (3, 2, 2, 2, 3), (0., 1.), (0., 7.85398163397447, 15.707963267949, 23.5619449019234, 31.4159265358979), .UNSPECIFIED.)
   GEOMETRIC_REPRESENTATION_ITEM ()
   RATIONAL_B_SPLINE_SURFACE (((1., 0.707106781186548, 1., 0.707106781186548, 1., 0.707106781186548, 1., 0.707106781186548, 1.), (1., 0.707106781186548, 1., 0.707106781186548, 1., 0.707106781186548, 1., 0.707106781186548, 1.)))
   REPRESENTATION_ITEM ('')
   SURFACE ()
);
#80 = CARTESIAN_POINT('', (-5., -1.07311340084541E-16, -56.));
#81 = CARTESIAN_POINT('', (-5., 5., -56.));
#82 = CARTESIAN_POINT('', (2.91719603400409E-15, 5., -56.));
#83 = CARTESIAN_POINT('', (5., 5., -56.));
#84 = CARTESIAN_POINT('', (5., -4.16534656869247E-15, -56.));
#85 = CARTESIAN_POINT('', (5., -5., -56.));
#86 = CARTESIAN_POINT('', (-5.28515795030164E-16, -5., -56.));
#87 = CARTESIAN_POINT('', (-5., -5., -56.));
#88 = CARTESIAN_POINT('', (-5., -1.07311340084541E-16, -56.));
#89 = CARTESIAN_POINT('', (-5., 3.36777869765522E-16, -0.5));
#90 = CARTESIAN_POINT('', (-5., 5., -0.5));
#91 = CARTESIAN_POINT('', (2.91719603400409E-15, 5., -0.5));
#92 = CARTESIAN_POINT('', (5., 5., -0.5));
#93 = CARTESIAN_POINT('', (5., -3.72125735884241E-15, -0.5));
#94 = CARTESIAN_POINT('', (5., -5., -0.5));
#95 = CARTESIAN_POINT('', (-5.28515795030163E-16, -5., -0.5));
#96 = CARTESIAN_POINT('', (-5., -5., -0.5));
#97 = CARTESIAN_POINT('', (-5., 3.36777869765522E-16, -0.5));
#98 = ADVANCED_FACE('', (#99), #102, .T.);
#99 = FACE_OUTER_BOUND('', #100, .T.);
#100 = EDGE_LOOP('', (#101));
#101 = ORIENTED_EDGE('', *, *, #63, .T.);
#102 = B_SPLINE_SURFACE_WITH_KNOTS('', 1, 1, ((#103, #104), (#105, #106)), .UNSPECIFIED., .F., .F., .U., (2, 2), (2, 2), (0.487092808812377, 0.561168909587519), (0.438831090412479, 0.512907191187621), .UNSPECIFIED.);
#103 = CARTESIAN_POINT('', (-5.00000000000001, 5.00000000000028, -54.5));
#104 = CARTESIAN_POINT('', (-5.00000000000001, -4.99999999999973, -54.5));
#105 = CARTESIAN_POINT('', (4.99999999999999, 5.00000000000028, -54.5));
#106 = CARTESIAN_POINT('', (4.99999999999999, -4.99999999999973, -54.5));
#107 = DRAUGHTING_MODEL('', (#115, #268, #323, #328, #333, #338, #343, #348, #353), #367);
#108 = PRESENTATION_STYLE_ASSIGNMENT((#109));
#109 = SURFACE_STYLE_USAGE(.POSITIVE., #110);
#110 = SURFACE_SIDE_STYLE('', (#111));
#111 = SURFACE_STYLE_FILL_AREA(#112);
#112 = FILL_AREA_STYLE('', (#113));
#113 = FILL_AREA_STYLE_COLOUR('', #114);
#114 = COLOUR_RGB('', 0.50196078431373, 0.50196078431373, 0.50196078431373);
#115 = STYLED_ITEM('', (#108), #1);
#116 = MANIFOLD_SOLID_BREP('CUT', #117);
#117 = CLOSED_SHELL('', (#118, #135, #174, #213, #252));
#118 = ADVANCED_FACE('', (#119), #130, .T.);
#119 = FACE_OUTER_BOUND('', #120, .T.);
#120 = EDGE_LOOP('', (#121));
#121 = ORIENTED_EDGE('', *, *, #122, .F.);
#122 = EDGE_CURVE('', #123, #123, #125, .T.);
#123 = VERTEX_POINT('', #124);
#124 = CARTESIAN_POINT('', (-5., 3.64332422746338E-15, -54.5));
#125 = CIRCLE('', #126, 5.);
#126 = AXIS2_PLACEMENT_3D('', #127, #128, #129);
#127 = CARTESIAN_POINT('', (-7.7715611723761E-16, 2.60791388484449E-13, -54.5));
#128 = DIRECTION('', (0., 0., -1.));
#129 = DIRECTION('', (-1., 8.0694095222595E-16, 0.));
#130 = B_SPLINE_SURFACE_WITH_KNOTS('', 1, 1, ((#131, #132), (#133, #134)), .UNSPECIFIED., .F., .F., .U., (2, 2), (2, 2), (0.438831090412479, 0.512907191187621), (0.487092808812377, 0.561168909587519), .UNSPECIFIED.);
#131 = CARTESIAN_POINT('', (-5., 5.00000000000028, -54.5));
#132 = CARTESIAN_POINT('', (5., 5.00000000000028, -54.5));
#133 = CARTESIAN_POINT('', (-5., -4.99999999999973, -54.5));
#134 = CARTESIAN_POINT('', (5., -4.99999999999973, -54.5));
#135 = ADVANCED_FACE('', (#136), #155, .T.);
#136 = FACE_OUTER_BOUND('', #137, .T.);
#137 = EDGE_LOOP('', (#138, #139, #147, #154));
#138 = ORIENTED_EDGE('', *, *, #122, .T.);
#139 = ORIENTED_EDGE('', *, *, #140, .F.);
#140 = EDGE_CURVE('', #141, #123, #143, .T.);
#141 = VERTEX_POINT('', #142);
#142 = CARTESIAN_POINT('', (-5., 3.73517273739943E-15, -56.));
#143 = LINE('', #144, #145);
#144 = CARTESIAN_POINT('', (-5., 3.73517273739943E-15, -56.));
#145 = VECTOR('', #146, 1.5);
#146 = DIRECTION('', (0., -9.18485099360498E-17, 1.5));
#147 = ORIENTED_EDGE('', *, *, #148, .F.);
#148 = EDGE_CURVE('', #141, #141, #149, .T.);
#149 = CIRCLE('', #150, 5.);
#150 = AXIS2_PLACEMENT_3D('', #151, #152, #153);
#151 = CARTESIAN_POINT('', (-1.11022302462516E-16, -3.33066907387547E-15, -56.));
#152 = DIRECTION('', (6.83509677671387E-30, 4.83671794477989E-15, -1.));
#153 = DIRECTION('', (-1., 1.41316836225498E-15, 0.));
#154 = ORIENTED_EDGE('', *, *, #140, .T.);
#155 = (
   BOUNDED_SURFACE ()
   B_SPLINE_SURFACE (1, 2, ((#156, #157, #158, #159, #160, #161, #162, #163, #164), (#165, #166, #167, #168, #169, #170, #171, #172, #173)), .UNSPECIFIED., .F., .T., .U.)
   B_SPLINE_SURFACE_WITH_KNOTS ((2, 2), (3, 2, 2, 2, 3), (0., 0.027027027027027), (0., 7.85398163397448, 15.707963267949, 23.5619449019234, 31.4159265358979), .UNSPECIFIED.)
   GEOMETRIC_REPRESENTATION_ITEM ()
   RATIONAL_B_SPLINE_SURFACE (((1., 0.707106781186548, 1., 0.707106781186548, 1., 0.707106781186548, 1., 0.707106781186548, 1.), (1., 0.707106781186548, 1., 0.707106781186548, 1., 0.707106781186548, 1., 0.707106781186548, 1.)))
   REPRESENTATION_ITEM ('')
   SURFACE ()
);
#156 = CARTESIAN_POINT('', (-5., 3.64332422746338E-15, -56.));
#157 = CARTESIAN_POINT('', (-4.99999999999999, 5., -56.));
#158 = CARTESIAN_POINT('', (7.15355417482552E-15, 5., -56.));
#159 = CARTESIAN_POINT('', (5.00000000000001, 4.99999999999999, -56.));
#160 = CARTESIAN_POINT('', (5., -7.91598213624039E-15, -56.));
#161 = CARTESIAN_POINT('', (5., -5.00000000000001, -56.));
#162 = CARTESIAN_POINT('', (-3.79342878930458E-15, -5., -56.));
#163 = CARTESIAN_POINT('', (-5., -5., -56.));
#164 = CARTESIAN_POINT('', (-5., 3.64332422746338E-15, -56.));
#165 = CARTESIAN_POINT('', (-5., 3.64332422746338E-15, -54.5));
#166 = CARTESIAN_POINT('', (-4.99999999999999, 5., -54.5));
#167 = CARTESIAN_POINT('', (7.15355417482552E-15, 5., -54.5));
#168 = CARTESIAN_POINT('', (5.00000000000001, 4.99999999999999, -54.5));
#169 = CARTESIAN_POINT('', (5., -7.91598213624039E-15, -54.5));
#170 = CARTESIAN_POINT('', (5., -5.00000000000001, -54.5));
#171 = CARTESIAN_POINT('', (-3.79342878930458E-15, -5., -54.5));
#172 = CARTESIAN_POINT('', (-5., -5., -54.5));
#173 = CARTESIAN_POINT('', (-5., 3.64332422746338E-15, -54.5));
#174 = ADVANCED_FACE('', (#175), #194, .T.);
#175 = FACE_OUTER_BOUND('', #176, .T.);
#176 = EDGE_LOOP('', (#177, #185, #186, #187));
#177 = ORIENTED_EDGE('', *, *, #178, .F.);
#178 = EDGE_CURVE('', #141, #179, #181, .T.);
#179 = VERTEX_POINT('', #180);
#180 = CARTESIAN_POINT('', (-5., 4.33524966898163E-15, -65.8));
#181 = LINE('', #182, #183);
#182 = CARTESIAN_POINT('', (-5., 3.73517273739943E-15, -56.));
#183 = VECTOR('', #184, 9.8);
#184 = DIRECTION('', (0., 6.000769315822E-16, -9.8));
#185 = ORIENTED_EDGE('', *, *, #148, .T.);
#186 = ORIENTED_EDGE('', *, *, #178, .T.);
#187 = ORIENTED_EDGE('', *, *, #188, .F.);
#188 = EDGE_CURVE('', #179, #179, #189, .T.);
#189 = CIRCLE('', #190, 5.);
#190 = AXIS2_PLACEMENT_3D('', #191, #192, #193);
#191 = CARTESIAN_POINT('', (-4.57966997657877E-16, -2.44249065417534E-15, -65.8));
#192 = DIRECTION('', (0., 0., -1.));
#193 = DIRECTION('', (-1., 1.3555480646314E-15, 0.));
#194 = (
   BOUNDED_SURFACE ()
   B_SPLINE_SURFACE (2, 1, ((#195, #196), (#197, #198), (#199, #200), (#201, #202), (#203, #204), (#205, #206), (#207, #208), (#209, #210), (#211, #212)), .UNSPECIFIED., .T., .F., .U.)
   B_SPLINE_SURFACE_WITH_KNOTS ((3, 2, 2, 2, 3), (2, 2), (0., 7.85398163397448, 15.707963267949, 23.5619449019234, 31.4159265358979), (0., 1.), .UNSPECIFIED.)
   GEOMETRIC_REPRESENTATION_ITEM ()
   RATIONAL_B_SPLINE_SURFACE (((1., 1.), (0.707106781186548, 0.707106781186548), (1., 1.), (0.707106781186548, 0.707106781186548), (1., 1.), (0.707106781186548, 0.707106781186548), (1., 1.), (0.707106781186548, 0.707106781186548), (1., 1.)))
   REPRESENTATION_ITEM ('')
   SURFACE ()
);
#195 = CARTESIAN_POINT('', (-5., 3.73517273739943E-15, -56.));
#196 = CARTESIAN_POINT('', (-5., 3.73517273739943E-15, -65.8));
#197 = CARTESIAN_POINT('', (-4.99999999999999, 5., -56.));
#198 = CARTESIAN_POINT('', (-4.99999999999999, 5., -65.8));
#199 = CARTESIAN_POINT('', (7.23152489695375E-15, 5., -56.));
#200 = CARTESIAN_POINT('', (7.23152489695375E-15, 5., -65.8));
#201 = CARTESIAN_POINT('', (5.00000000000001, 4.99999999999999, -56.));
#202 = CARTESIAN_POINT('', (5.00000000000001, 4.99999999999999, -65.8));
#203 = CARTESIAN_POINT('', (5., -8.00783064617644E-15, -56.));
#204 = CARTESIAN_POINT('', (5., -8.00783064617644E-15, -65.8));
#205 = CARTESIAN_POINT('', (5., -5.00000000000001, -56.));
#206 = CARTESIAN_POINT('', (5., -5.00000000000001, -65.8));
#207 = CARTESIAN_POINT('', (-3.89915508704844E-15, -5., -56.));
#208 = CARTESIAN_POINT('', (-3.89915508704844E-15, -5., -65.8));
#209 = CARTESIAN_POINT('', (-5., -5., -56.));
#210 = CARTESIAN_POINT('', (-5., -5., -65.8));
#211 = CARTESIAN_POINT('', (-5., 3.73517273739943E-15, -56.));
#212 = CARTESIAN_POINT('', (-5., 3.73517273739943E-15, -65.8));
#213 = ADVANCED_FACE('', (#214), #233, .T.);
#214 = FACE_OUTER_BOUND('', #215, .T.);
#215 = EDGE_LOOP('', (#216, #224, #225, #226));
#216 = ORIENTED_EDGE('', *, *, #217, .F.);
#217 = EDGE_CURVE('', #179, #218, #220, .T.);
#218 = VERTEX_POINT('', #219);
#219 = CARTESIAN_POINT('', (-4.8, 4.33524966898163E-15, -66.));
#220 = LINE('', #221, #222);
#221 = CARTESIAN_POINT('', (-5., 4.33524966898163E-15, -65.8));
#222 = VECTOR('', #223, 0.282842712474621);
#223 = DIRECTION('', (0.2, 0., -0.200000000000003));
#224 = ORIENTED_EDGE('', *, *, #188, .T.);
#225 = ORIENTED_EDGE('', *, *, #217, .T.);
#226 = ORIENTED_EDGE('', *, *, #227, .F.);
#227 = EDGE_CURVE('', #218, #218, #228, .T.);
#228 = CIRCLE('', #229, 4.8);
#229 = AXIS2_PLACEMENT_3D('', #230, #231, #232);
#230 = CARTESIAN_POINT('', (1.76247905159244E-15, 2.88657986402541E-15, -66.));
#231 = DIRECTION('', (0., 0., -1.));
#232 = DIRECTION('', (-1., 3.0180620936588E-16, 0.));
#233 = (
   BOUNDED_SURFACE ()
   B_SPLINE_SURFACE (2, 1, ((#234, #235), (#236, #237), (#238, #239), (#240, #241), (#242, #243), (#244, #245), (#246, #247), (#248, #249), (#250, #251)), .UNSPECIFIED., .T., .F., .U.)
   B_SPLINE_SURFACE_WITH_KNOTS ((3, 2, 2, 2, 3), (2, 2), (0., 0.25, 0.5, 0.75, 1.), (0., 1.), .UNSPECIFIED.)
   GEOMETRIC_REPRESENTATION_ITEM ()
   RATIONAL_B_SPLINE_SURFACE (((1., 1.), (0.707106781186548, 0.707106781186548), (1., 1.), (0.707106781186548, 0.707106781186548), (1., 1.), (0.707106781186548, 0.707106781186548), (1., 1.), (0.707106781186548, 0.707106781186548), (1., 1.)))
   REPRESENTATION_ITEM ('')
   SURFACE ()
);
#234 = CARTESIAN_POINT('', (-5., 4.33524966898163E-15, -65.8));
#235 = CARTESIAN_POINT('', (-4.8, 9.92611762607618E-15, -66.));
#236 = CARTESIAN_POINT('', (-4.99999999999999, 5., -65.7999999999999));
#237 = CARTESIAN_POINT('', (-4.79999999999999, 4.80000000000001, -65.9999999999999));
#238 = CARTESIAN_POINT('', (6.87403446979676E-15, 5., -65.7999999999999));
#239 = CARTESIAN_POINT('', (6.59296686436945E-15, 4.8, -65.9999999999999));
#240 = CARTESIAN_POINT('', (5.00000000000001, 4.99999999999999, -65.7999999999999));
#241 = CARTESIAN_POINT('', (4.80000000000001, 4.8, -65.9999999999999));
#242 = CARTESIAN_POINT('', (5., -9.7181306023838E-15, -65.8));
#243 = CARTESIAN_POINT('', (4.8, -3.56512743443463E-15, -66.));
#244 = CARTESIAN_POINT('', (4.99999999999999, -5.00000000000001, -65.8000000000001));
#245 = CARTESIAN_POINT('', (4.79999999999999, -4.8, -66.0000000000001));
#246 = CARTESIAN_POINT('', (-6.567022401995E-15, -5., -65.8000000000001));
#247 = CARTESIAN_POINT('', (-6.31044773255063E-15, -4.8, -66.0000000000001));
#248 = CARTESIAN_POINT('', (-5.00000000000001, -5., -65.8000000000001));
#249 = CARTESIAN_POINT('', (-4.80000000000001, -4.79999999999999, -66.0000000000001));
#250 = CARTESIAN_POINT('', (-5., 4.33524966898163E-15, -65.8));
#251 = CARTESIAN_POINT('', (-4.8, 9.92611762607618E-15, -66.));
#252 = ADVANCED_FACE('', (#253), #256, .T.);
#253 = FACE_OUTER_BOUND('', #254, .T.);
#254 = EDGE_LOOP('', (#255));
#255 = ORIENTED_EDGE('', *, *, #227, .T.);
#256 = B_SPLINE_SURFACE_WITH_KNOTS('', 1, 1, ((#257, #258), (#259, #260)), .UNSPECIFIED., .F., .F., .U., (2, 2), (2, 2), (0.0454545454545454, 0.954545454545454), (0.0454545454545454, 0.954545454545455), .UNSPECIFIED.);
#257 = CARTESIAN_POINT('', (4.8, -4.8, -66.));
#258 = CARTESIAN_POINT('', (4.8, 4.8, -66.));
#259 = CARTESIAN_POINT('', (-4.8, -4.8, -66.));
#260 = CARTESIAN_POINT('', (-4.8, 4.8, -66.));
#261 = PRESENTATION_STYLE_ASSIGNMENT((#262));
#262 = SURFACE_STYLE_USAGE(.POSITIVE., #263);
#263 = SURFACE_SIDE_STYLE('', (#264));
#264 = SURFACE_STYLE_FILL_AREA(#265);
#265 = FILL_AREA_STYLE('', (#266));
#266 = FILL_AREA_STYLE_COLOUR('', #267);
#267 = COLOUR_RGB('', 0.8, 0.8, 0.8);
#268 = STYLED_ITEM('', (#261), #116);
#269 = TRIMMED_CURVE('cutting part line', #270, (#274), (#275), .T., .CARTESIAN.);
#270 = LINE('', #271, #272);
#271 = CARTESIAN_POINT('', (-6.24500451351651E-16, 0., -66.));
#272 = VECTOR('', #273, 4.8);
#273 = DIRECTION('', (4.8, 0., 0.));
#274 = CARTESIAN_POINT('', (-6.24500451351651E-16, 0., -66.));
#275 = CARTESIAN_POINT('', (4.8, 0., -66.));
#276 = TRIMMED_CURVE('cutting part line', #277, (#281), (#282), .T., .CARTESIAN.);
#277 = LINE('', #278, #279);
#278 = CARTESIAN_POINT('', (4.8, 2.88347601520466E-15, -66.));
#279 = VECTOR('', #280, 0.282842712474622);
#280 = DIRECTION('', (0.200000000000001, -5.88328584108941E-15, 0.200000000000003));
#281 = CARTESIAN_POINT('', (4.8, 2.88347601520466E-15, -66.));
#282 = CARTESIAN_POINT('', (5., -2.99980982588475E-15, -65.8));
#283 = TRIMMED_CURVE('cutting part line', #284, (#288), (#289), .T., .CARTESIAN.);
#284 = LINE('', #285, #286);
#285 = CARTESIAN_POINT('', (5., -2.24584419939129E-30, -65.8));
#286 = VECTOR('', #287, 9.8);
#287 = DIRECTION('', (0., 2.24584419939129E-30, 9.8));
#288 = CARTESIAN_POINT('', (5., -2.24584419939129E-30, -65.8));
#289 = CARTESIAN_POINT('', (5., 0., -56.));
#290 = TRIMMED_CURVE('cutting part line', #291, (#295), (#296), .T., .CARTESIAN.);
#291 = LINE('', #292, #293);
#292 = CARTESIAN_POINT('', (5., -1.68889568512435E-32, -56.));
#293 = VECTOR('', #294, 1.5);
#294 = DIRECTION('', (0., 1.68889568512435E-32, 1.5));
#295 = CARTESIAN_POINT('', (5., -1.68889568512435E-32, -56.));
#296 = CARTESIAN_POINT('', (5., 0., -54.5));
#297 = TRIMMED_CURVE('cutting part line', #298, (#302), (#303), .T., .CARTESIAN.);
#298 = LINE('', #299, #300);
#299 = CARTESIAN_POINT('', (4.99999999999999, 0., -54.5));
#300 = VECTOR('', #301, 4.99999999999999);
#301 = DIRECTION('', (-4.99999999999999, 0., 7.105427357601E-15));
#302 = CARTESIAN_POINT('', (4.99999999999999, 0., -54.5));
#303 = CARTESIAN_POINT('', (-1.38777878078145E-17, 0., -54.5));
#304 = TRIMMED_CURVE('cutting part line', #305, (#309), (#310), .T., .CARTESIAN.);
#305 = LINE('', #306, #307);
#306 = CARTESIAN_POINT('', (0., 0., -54.5));
#307 = VECTOR('', #308, 11.5000000000001);
#308 = DIRECTION('', (0., 0., -11.5000000000001));
#309 = CARTESIAN_POINT('', (0., 0., -54.5));
#310 = CARTESIAN_POINT('', (0., 0., -66.0000000000001));
#311 = COMPOSITE_CURVE('cutting part line', (#312, #313, #314, #315, #316, #317), .U.);
#312 = COMPOSITE_CURVE_SEGMENT(.CONTINUOUS., .T., #269);
#313 = COMPOSITE_CURVE_SEGMENT(.CONTINUOUS., .T., #276);
#314 = COMPOSITE_CURVE_SEGMENT(.CONTINUOUS., .T., #283);
#315 = COMPOSITE_CURVE_SEGMENT(.CONTINUOUS., .T., #290);
#316 = COMPOSITE_CURVE_SEGMENT(.CONTINUOUS., .T., #297);
#317 = COMPOSITE_CURVE_SEGMENT(.CONTINUOUS., .T., #304);
#318 = GEOMETRIC_SET('', (#311, #366));
#319 = PRESENTATION_STYLE_ASSIGNMENT((#320));
#320 = CURVE_STYLE('', #322, POSITIVE_LENGTH_MEASURE(1.E-6), #321);
#321 = COLOUR_RGB('', 0., 0., 1.);
#322 = DRAUGHTING_PRE_DEFINED_CURVE_FONT('continuous');
#323 = STYLED_ITEM('', (#319), #311);
#324 = PRESENTATION_STYLE_ASSIGNMENT((#325));
#325 = CURVE_STYLE('', #327, POSITIVE_LENGTH_MEASURE(1.E-6), #326);
#326 = COLOUR_RGB('', 0., 0., 1.);
#327 = DRAUGHTING_PRE_DEFINED_CURVE_FONT('continuous');
#328 = OVER_RIDING_STYLED_ITEM('', (#324), #269, #323);
#329 = PRESENTATION_STYLE_ASSIGNMENT((#330));
#330 = CURVE_STYLE('', #332, POSITIVE_LENGTH_MEASURE(1.E-6), #331);
#331 = COLOUR_RGB('', 0., 0., 1.);
#332 = DRAUGHTING_PRE_DEFINED_CURVE_FONT('continuous');
#333 = OVER_RIDING_STYLED_ITEM('', (#329), #276, #323);
#334 = PRESENTATION_STYLE_ASSIGNMENT((#335));
#335 = CURVE_STYLE('', #337, POSITIVE_LENGTH_MEASURE(1.E-6), #336);
#336 = COLOUR_RGB('', 0., 0., 1.);
#337 = DRAUGHTING_PRE_DEFINED_CURVE_FONT('continuous');
#338 = OVER_RIDING_STYLED_ITEM('', (#334), #283, #323);
#339 = PRESENTATION_STYLE_ASSIGNMENT((#340));
#340 = CURVE_STYLE('', #342, POSITIVE_LENGTH_MEASURE(1.E-6), #341);
#341 = COLOUR_RGB('', 0., 0., 1.);
#342 = DRAUGHTING_PRE_DEFINED_CURVE_FONT('continuous');
#343 = OVER_RIDING_STYLED_ITEM('', (#339), #290, #323);
#344 = PRESENTATION_STYLE_ASSIGNMENT((#345));
#345 = CURVE_STYLE('', #347, POSITIVE_LENGTH_MEASURE(1.E-6), #346);
#346 = COLOUR_RGB('', 0., 0., 1.);
#347 = DRAUGHTING_PRE_DEFINED_CURVE_FONT('continuous');
#348 = OVER_RIDING_STYLED_ITEM('', (#344), #297, #323);
#349 = PRESENTATION_STYLE_ASSIGNMENT((#350));
#350 = CURVE_STYLE('', #352, POSITIVE_LENGTH_MEASURE(1.E-6), #351);
#351 = COLOUR_RGB('', 0., 0., 1.);
#352 = DRAUGHTING_PRE_DEFINED_CURVE_FONT('continuous');
#353 = OVER_RIDING_STYLED_ITEM('', (#349), #304, #323);
#354 = AXIS2_PLACEMENT_3D('MCS', #355, #356, #357);
#355 = CARTESIAN_POINT('', (0., 0., -40.));
#356 = DIRECTION('', (0., 0., 1.));
#357 = DIRECTION('', (1., 0., 0.));
#358 = AXIS2_PLACEMENT_3D('PCS', #359, #360, #361);
#359 = CARTESIAN_POINT('', (0., 0., 0.));
#360 = DIRECTION('', (0., 0., 1.));
#361 = DIRECTION('', (1., 0., 0.));
#362 = AXIS2_PLACEMENT_3D('CIP', #363, #364, #365);
#363 = CARTESIAN_POINT('', (0., 0., -66.0000000000001));
#364 = DIRECTION('', (0., 0., 1.));
#365 = DIRECTION('', (1., 0., 0.));
#366 = CARTESIAN_POINT('CRP', (5., 0., -66.0000000000001));
#367 = (
   GEOMETRIC_REPRESENTATION_CONTEXT (3)
   GLOBAL_UNCERTAINTY_ASSIGNED_CONTEXT ((#369))
   GLOBAL_UNIT_ASSIGNED_CONTEXT ((#368, #370, #371))
   REPRESENTATION_CONTEXT ('', '3D')
);
#368 = (
   LENGTH_UNIT ()
   NAMED_UNIT (*)
   SI_UNIT (.MILLI., .METRE.)
);
#369 = UNCERTAINTY_MEASURE_WITH_UNIT(LENGTH_MEASURE(1.E-6), #368, 'DISTANCE_ACCURACY_VALUE', '');
#370 = (
   NAMED_UNIT (*)
   SI_UNIT ($, .STERADIAN.)
   SOLID_ANGLE_UNIT ()
);
#371 = (
   NAMED_UNIT (*)
   PLANE_ANGLE_UNIT ()
   SI_UNIT ($, .RADIAN.)
);
#372 = SHAPE_REPRESENTATION('', (), #367);
#373 = PRODUCT_DEFINITION_SHAPE('', '', #374);
#374 = PRODUCT_DEFINITION('', '', #377, #381);
#375 = APPLICATION_CONTEXT('configuration controlled 3D designs of mechanical parts and assemblies');
#376 = APPLICATION_PROTOCOL_DEFINITION('International Standard', 'automotive_design', 2002, #375);
#377 = PRODUCT_DEFINITION_FORMATION_WITH_SPECIFIED_SOURCE('', '', #378, .NOT_KNOWN.);
#378 = PRODUCT('product-name', '1P221-1000-XB       1630', '', (#379));
#379 = PRODUCT_CONTEXT('', #375, 'mechanical');
#380 = PRODUCT_RELATED_PRODUCT_CATEGORY('detail', '', (#378));
#381 = PRODUCT_DEFINITION_CONTEXT('part definition', #375, 'design');
#382 = SHAPE_DEFINITION_REPRESENTATION(#373, #372);
#383 = CONSTRUCTIVE_GEOMETRY_REPRESENTATION('supplemental geometry', (#354, #358, #362), #367);
#384 = CONSTRUCTIVE_GEOMETRY_REPRESENTATION_RELATIONSHIP('', '', #372, #383);
#385 = SHAPE_REPRESENTATION_RELATIONSHIP('', '', #372, #386);
#386 = SHAPE_REPRESENTATION('', (#318), #367);
#387 = SHAPE_REPRESENTATION_RELATIONSHIP('', '', #372, #388);
#388 = ADVANCED_BREP_SHAPE_REPRESENTATION('', (#1, #116), #367);
ENDSEC;
END-ISO-10303-21;
