ISO-10303-21;
HEADER;
/****************************************************************
 * Generated by software with PDElib inside                     *
 * PDElib Version v7.5, created Tue 10/04/2016 12:12:03.09      *
 * International Technegroup Inc. (www.iti-global.com)          *
 ****************************************************************/
FILE_DESCRIPTION((''),'2;1');
FILE_NAME('E:\\17.0 Project Information\\2020\\12. 2D & 3D drawing for all HPMT product (dxf & stp file)\\...Customer request\\Dormer\\K67\\K67 1600 125.stp','2020-06-26T08:19:43',(''),(''),'STEP Write','Mastercam 2019 ... CNC Software, Inc.','');
FILE_SCHEMA(('AUTOMOTIVE_DESIGN'));
ENDSEC;
DATA;
#10=(NAMED_UNIT(*)PLANE_ANGLE_UNIT()SI_UNIT($,.RADIAN.));
#11=DIMENSIONAL_EXPONENTS(0.0,0.0,0.0,0.0,0.0,0.0,0.0);
#12=PLANE_ANGLE_MEASURE_WITH_UNIT(PLANE_ANGLE_MEASURE(0.017453292500000),#10);
#16=(CONVERSION_BASED_UNIT('DEGREE',#12)NAMED_UNIT(#11)PLANE_ANGLE_UNIT());
#20=(NAMED_UNIT(*)SI_UNIT($,.STERADIAN.)SOLID_ANGLE_UNIT());
#24=(LENGTH_UNIT()NAMED_UNIT(*)SI_UNIT(.MILLI.,.METRE.));
#26=UNCERTAINTY_MEASURE_WITH_UNIT(LENGTH_MEASURE(0.000050000000000),#24,'DISTANCE_ACCURACY_VALUE','');
#28=(GEOMETRIC_REPRESENTATION_CONTEXT(3)GLOBAL_UNCERTAINTY_ASSIGNED_CONTEXT((#26))GLOBAL_UNIT_ASSIGNED_CONTEXT((#16,#20,#24))REPRESENTATION_CONTEXT('','3D'));
#29=APPLICATION_CONTEXT('automotive design');
#30=APPLICATION_PROTOCOL_DEFINITION('Draft International Standard','automotive_design',1998,#29);
#31=PRODUCT_CONTEXT('None',#29,'mechanical');
#32=PRODUCT('None','None','None',(#31));
#33=PRODUCT_RELATED_PRODUCT_CATEGORY('part','description',(#32));
#34=PRODUCT_DEFINITION_FORMATION('None','None',#32);
#35=PRODUCT_DEFINITION_CONTEXT('part definition',#29,'design');
#36=PRODUCT_DEFINITION('None','None',#34,#35);
#37=PRODUCT_DEFINITION_SHAPE('None','None',#36);
#38=SHAPE_REPRESENTATION('',(),#28);
#39=SHAPE_DEFINITION_REPRESENTATION(#37,#38);
#40=CARTESIAN_POINT('',(0.0,0.0,0.0));
#41=DIRECTION('',(1.0,0.0,0.0));
#42=VECTOR('',#41,7.700000000000000);
#43=LINE('',#40,#42);
#44=CARTESIAN_POINT('',(7.700000000000000,0.0,0.0));
#45=TRIMMED_CURVE('',#43,(PARAMETER_VALUE(0.0),#40),(PARAMETER_VALUE(1.0),#44),.T.,.PARAMETER.);
#46=CARTESIAN_POINT('',(8.0,0.300000000000000,0.0));
#47=DIRECTION('',(0.0,1.0,0.0));
#48=VECTOR('',#47,59.700000000000003);
#49=LINE('',#46,#48);
#50=CARTESIAN_POINT('',(8.000000000000004,60.0,0.0));
#51=TRIMMED_CURVE('',#49,(PARAMETER_VALUE(0.0),#46),(PARAMETER_VALUE(1.0),#50),.T.,.PARAMETER.);
#52=CARTESIAN_POINT('',(7.700000000000000,0.300000000000000,0.0));
#53=DIRECTION('',(0.0,0.0,1.0));
#54=DIRECTION('',(1.0,0.0,0.0));
#55=AXIS2_PLACEMENT_3D('',#52,#53,#54);
#56=CIRCLE('',#55,0.300000000000000);
#57=CARTESIAN_POINT('',(7.700000000000000,0.0,0.0));
#58=CARTESIAN_POINT('',(8.0,0.300000000000000,0.0));
#59=TRIMMED_CURVE('',#56,(PARAMETER_VALUE(270.0),#57),(PARAMETER_VALUE(360.0),#58),.T.,.PARAMETER.);
#60=CARTESIAN_POINT('',(0.0,125.0,0.0));
#61=DIRECTION('',(1.0,0.0,0.0));
#62=VECTOR('',#61,8.0);
#63=LINE('',#60,#62);
#64=CARTESIAN_POINT('',(8.0,125.0,0.0));
#65=TRIMMED_CURVE('',#63,(PARAMETER_VALUE(0.0),#60),(PARAMETER_VALUE(1.0),#64),.T.,.PARAMETER.);
#66=CARTESIAN_POINT('',(8.0,60.0,0.0));
#67=DIRECTION('',(-1.0,0.0,0.0));
#68=VECTOR('',#67,0.150000000000000);
#69=LINE('',#66,#68);
#70=CARTESIAN_POINT('',(7.850000000000000,60.0,0.0));
#71=TRIMMED_CURVE('',#69,(PARAMETER_VALUE(0.0),#66),(PARAMETER_VALUE(1.0),#70),.T.,.PARAMETER.);
#72=CARTESIAN_POINT('',(7.850000000000000,60.0,0.0));
#73=DIRECTION('',(0.0,1.0,0.0));
#74=VECTOR('',#73,8.0);
#75=LINE('',#72,#74);
#76=CARTESIAN_POINT('',(7.850000000000001,68.0,0.0));
#77=TRIMMED_CURVE('',#75,(PARAMETER_VALUE(0.0),#72),(PARAMETER_VALUE(1.0),#76),.T.,.PARAMETER.);
#78=CARTESIAN_POINT('',(8.0,125.0,0.0));
#79=DIRECTION('',(0.0,-1.0,0.0));
#80=VECTOR('',#79,57.0);
#81=LINE('',#78,#80);
#82=CARTESIAN_POINT('',(8.0,68.0,0.0));
#83=TRIMMED_CURVE('',#81,(PARAMETER_VALUE(0.0),#78),(PARAMETER_VALUE(1.0),#82),.T.,.PARAMETER.);
#84=CARTESIAN_POINT('',(7.850000000000001,68.0,0.0));
#85=DIRECTION('',(1.0,0.0,0.0));
#86=VECTOR('',#85,0.149999999999999);
#87=LINE('',#84,#86);
#88=CARTESIAN_POINT('',(8.0,68.0,0.0));
#89=TRIMMED_CURVE('',#87,(PARAMETER_VALUE(0.0),#84),(PARAMETER_VALUE(1.0),#88),.T.,.PARAMETER.);
#90=CARTESIAN_POINT('',(0.0,125.0,0.0));
#91=DIRECTION('',(0.0,-1.0,0.0));
#92=VECTOR('',#91,125.0);
#93=LINE('',#90,#92);
#94=CARTESIAN_POINT('',(0.0,0.0,0.0));
#95=TRIMMED_CURVE('',#93,(PARAMETER_VALUE(0.0),#90),(PARAMETER_VALUE(1.0),#94),.T.,.PARAMETER.);
#96=CARTESIAN_POINT('',(0.0,125.0,0.0));
#97=DIRECTION('',(0.0,1.0,0.0));
#98=DIRECTION('',(0.0,0.0,1.0));
#99=AXIS2_PLACEMENT_3D('',#96,#97,#98);
#100=PLANE('',#99);
#101=CARTESIAN_POINT('',(0.0,125.0,8.0));
#102=VERTEX_POINT('',#101);
#103=CARTESIAN_POINT('',(0.0,125.0,0.0));
#104=DIRECTION('',(0.0,1.0,0.0));
#105=DIRECTION('',(0.0,0.0,1.0));
#106=AXIS2_PLACEMENT_3D('',#103,#104,#105);
#107=CIRCLE('',#106,8.0);
#108=EDGE_CURVE('',#102,#102,#107,.T.);
#109=ORIENTED_EDGE('',*,*,#108,.T.);
#110=EDGE_LOOP('',(#109));
#111=FACE_OUTER_BOUND('',#110,.T.);
#112=ADVANCED_FACE('',(#111),#100,.T.);
#113=CARTESIAN_POINT('',(0.0,125.0,0.0));
#114=DIRECTION('',(0.0,1.0,0.0));
#115=DIRECTION('',(0.0,0.0,1.0));
#116=AXIS2_PLACEMENT_3D('',#113,#114,#115);
#117=CYLINDRICAL_SURFACE('',#116,8.0);
#118=CARTESIAN_POINT('',(0.0,68.0,8.0));
#119=VERTEX_POINT('',#118);
#120=CARTESIAN_POINT('',(0.0,68.0,0.0));
#121=DIRECTION('',(0.0,1.0,0.0));
#122=DIRECTION('',(0.0,0.0,1.0));
#123=AXIS2_PLACEMENT_3D('',#120,#121,#122);
#124=CIRCLE('',#123,8.0);
#125=EDGE_CURVE('',#119,#119,#124,.T.);
#126=ORIENTED_EDGE('',*,*,#125,.T.);
#127=EDGE_LOOP('',(#126));
#128=FACE_BOUND('',#127,.T.);
#129=ORIENTED_EDGE('',*,*,#108,.F.);
#130=EDGE_LOOP('',(#129));
#131=FACE_BOUND('',#130,.T.);
#132=ADVANCED_FACE('',(#128,#131),#117,.T.);
#133=CARTESIAN_POINT('',(7.850000000000001,68.0,0.0));
#134=DIRECTION('',(0.0,1.0,0.0));
#135=DIRECTION('',(0.0,0.0,1.0));
#136=AXIS2_PLACEMENT_3D('',#133,#134,#135);
#137=PLANE('',#136);
#138=ORIENTED_EDGE('',*,*,#125,.F.);
#139=EDGE_LOOP('',(#138));
#140=FACE_OUTER_BOUND('',#139,.T.);
#141=CARTESIAN_POINT('',(0.0,68.0,7.850000000000001));
#142=VERTEX_POINT('',#141);
#143=CARTESIAN_POINT('',(0.0,68.0,0.0));
#144=DIRECTION('',(0.0,1.0,0.0));
#145=DIRECTION('',(0.0,0.0,1.0));
#146=AXIS2_PLACEMENT_3D('',#143,#144,#145);
#147=CIRCLE('',#146,7.850000000000001);
#148=EDGE_CURVE('',#142,#142,#147,.T.);
#149=ORIENTED_EDGE('',*,*,#148,.T.);
#150=EDGE_LOOP('',(#149));
#151=FACE_BOUND('',#150,.T.);
#152=ADVANCED_FACE('',(#140,#151),#137,.F.);
#153=CARTESIAN_POINT('',(0.0,125.0,0.0));
#154=DIRECTION('',(0.0,1.0,0.0));
#155=DIRECTION('',(0.0,0.0,1.0));
#156=AXIS2_PLACEMENT_3D('',#153,#154,#155);
#157=CYLINDRICAL_SURFACE('',#156,7.850000000000000);
#158=ORIENTED_EDGE('',*,*,#148,.F.);
#159=EDGE_LOOP('',(#158));
#160=FACE_BOUND('',#159,.T.);
#161=CARTESIAN_POINT('',(0.0,60.0,7.850000000000000));
#162=VERTEX_POINT('',#161);
#163=CARTESIAN_POINT('',(0.0,60.0,0.0));
#164=DIRECTION('',(0.0,1.0,0.0));
#165=DIRECTION('',(0.0,0.0,1.0));
#166=AXIS2_PLACEMENT_3D('',#163,#164,#165);
#167=CIRCLE('',#166,7.850000000000000);
#168=EDGE_CURVE('',#162,#162,#167,.T.);
#169=ORIENTED_EDGE('',*,*,#168,.T.);
#170=EDGE_LOOP('',(#169));
#171=FACE_BOUND('',#170,.T.);
#172=ADVANCED_FACE('',(#160,#171),#157,.T.);
#173=CARTESIAN_POINT('',(8.0,60.0,0.0));
#174=DIRECTION('',(0.0,-1.0,0.0));
#175=DIRECTION('',(0.0,0.0,-1.0));
#176=AXIS2_PLACEMENT_3D('',#173,#174,#175);
#177=PLANE('',#176);
#178=CARTESIAN_POINT('',(0.0,60.0,8.000000000000004));
#179=VERTEX_POINT('',#178);
#180=CARTESIAN_POINT('',(0.0,60.0,0.0));
#181=DIRECTION('',(0.0,1.0,0.0));
#182=DIRECTION('',(0.0,0.0,1.0));
#183=AXIS2_PLACEMENT_3D('',#180,#181,#182);
#184=CIRCLE('',#183,8.000000000000004);
#185=EDGE_CURVE('',#179,#179,#184,.T.);
#186=ORIENTED_EDGE('',*,*,#185,.T.);
#187=EDGE_LOOP('',(#186));
#188=FACE_OUTER_BOUND('',#187,.T.);
#189=ORIENTED_EDGE('',*,*,#168,.F.);
#190=EDGE_LOOP('',(#189));
#191=FACE_BOUND('',#190,.T.);
#192=ADVANCED_FACE('',(#188,#191),#177,.F.);
#193=CARTESIAN_POINT('',(0.0,125.0,0.0));
#194=DIRECTION('',(0.0,1.0,0.0));
#195=DIRECTION('',(0.0,0.0,1.0));
#196=AXIS2_PLACEMENT_3D('',#193,#194,#195);
#197=CYLINDRICAL_SURFACE('',#196,8.000000000000002);
#198=ORIENTED_EDGE('',*,*,#185,.F.);
#199=EDGE_LOOP('',(#198));
#200=FACE_BOUND('',#199,.T.);
#201=CARTESIAN_POINT('',(0.0,0.299999999999995,8.0));
#202=VERTEX_POINT('',#201);
#203=CARTESIAN_POINT('',(0.0,0.299999999999995,0.0));
#204=DIRECTION('',(0.0,1.0,0.0));
#205=DIRECTION('',(0.0,0.0,1.0));
#206=AXIS2_PLACEMENT_3D('',#203,#204,#205);
#207=CIRCLE('',#206,8.0);
#208=EDGE_CURVE('',#202,#202,#207,.T.);
#209=ORIENTED_EDGE('',*,*,#208,.T.);
#210=EDGE_LOOP('',(#209));
#211=FACE_BOUND('',#210,.T.);
#212=ADVANCED_FACE('',(#200,#211),#197,.T.);
#213=CARTESIAN_POINT('',(0.0,0.300000000000000,0.0));
#214=DIRECTION('',(0.0,1.0,0.0));
#215=DIRECTION('',(0.0,0.0,1.0));
#216=AXIS2_PLACEMENT_3D('',#213,#214,#215);
#217=TOROIDAL_SURFACE('',#216,7.700000000000000,0.300000000000000);
#218=ORIENTED_EDGE('',*,*,#208,.F.);
#219=EDGE_LOOP('',(#218));
#220=FACE_BOUND('',#219,.T.);
#221=CARTESIAN_POINT('',(0.0,0.0,7.700000000000000));
#222=VERTEX_POINT('',#221);
#223=CARTESIAN_POINT('',(0.0,0.0,0.0));
#224=DIRECTION('',(0.0,1.0,0.0));
#225=DIRECTION('',(0.0,0.0,1.0));
#226=AXIS2_PLACEMENT_3D('',#223,#224,#225);
#227=CIRCLE('',#226,7.700000000000000);
#228=EDGE_CURVE('',#222,#222,#227,.T.);
#229=ORIENTED_EDGE('',*,*,#228,.T.);
#230=EDGE_LOOP('',(#229));
#231=FACE_BOUND('',#230,.T.);
#232=ADVANCED_FACE('',(#220,#231),#217,.T.);
#233=CARTESIAN_POINT('',(0.0,0.0,0.0));
#234=DIRECTION('',(0.0,1.0,0.0));
#235=DIRECTION('',(0.0,0.0,1.0));
#236=AXIS2_PLACEMENT_3D('',#233,#234,#235);
#237=PLANE('',#236);
#238=ORIENTED_EDGE('',*,*,#228,.F.);
#239=EDGE_LOOP('',(#238));
#240=FACE_OUTER_BOUND('',#239,.T.);
#241=ADVANCED_FACE('',(#240),#237,.F.);
#242=CLOSED_SHELL('',(#112,#132,#152,#172,#192,#212,#232,#241));
#243=MANIFOLD_SOLID_BREP('',#242);
#244=ADVANCED_BREP_SHAPE_REPRESENTATION('',(#243),#28);
#245=SHAPE_REPRESENTATION_RELATIONSHIP('','',#244,#38);
#246=GEOMETRIC_SET('',(#45,#51,#59,#65,#71,#77,#83,#89,#95));
#247=GEOMETRICALLY_BOUNDED_SURFACE_SHAPE_REPRESENTATION('',(#246),#28);
#248=SHAPE_REPRESENTATION_RELATIONSHIP('','',#247,#38);
#249=COLOUR_RGB('',0.0,0.0,0.501960784313725);
#250=DRAUGHTING_PRE_DEFINED_CURVE_FONT('continuous');
#251=CURVE_STYLE('',#250,POSITIVE_LENGTH_MEASURE(0.100000000000000),#249);
#252=PRESENTATION_STYLE_ASSIGNMENT((#251));
#253=STYLED_ITEM('',(#252),#45);
#254=STYLED_ITEM('',(#252),#51);
#255=STYLED_ITEM('',(#252),#59);
#256=STYLED_ITEM('',(#252),#65);
#257=STYLED_ITEM('',(#252),#71);
#258=STYLED_ITEM('',(#252),#77);
#259=STYLED_ITEM('',(#252),#83);
#260=STYLED_ITEM('',(#252),#89);
#261=STYLED_ITEM('',(#252),#95);
#262=COLOUR_RGB('',0.501960784313725,0.501960784313725,0.501960784313725);
#263=FILL_AREA_STYLE_COLOUR('',#262);
#264=FILL_AREA_STYLE('',(#263));
#265=SURFACE_STYLE_FILL_AREA(#264);
#266=SURFACE_SIDE_STYLE('',(#265));
#267=SURFACE_STYLE_USAGE(.BOTH.,#266);
#268=PRESENTATION_STYLE_ASSIGNMENT((#267));
#269=STYLED_ITEM('',(#268),#112);
#270=STYLED_ITEM('',(#268),#132);
#271=STYLED_ITEM('',(#268),#152);
#272=STYLED_ITEM('',(#268),#172);
#273=STYLED_ITEM('',(#268),#192);
#274=STYLED_ITEM('',(#268),#212);
#275=STYLED_ITEM('',(#268),#232);
#276=STYLED_ITEM('',(#268),#241);
#277=STYLED_ITEM('',(#268),#243);
#278=PRESENTATION_LAYER_ASSIGNMENT('0','',(#45,#51,#59,#65,#71,#77,#83,#89,#95,#243));
#279=MECHANICAL_DESIGN_GEOMETRIC_PRESENTATION_REPRESENTATION('',(#253,#254,#255,#256,#257,#258,#259,#260,#261,#269,#270,#271,#272,#273,#274,#275,#276,#277),#28);
#280=PRESENTATION_STYLE_ASSIGNMENT((NULL_STYLE(.NULL.)));
#281=DRAUGHTING_MODEL('',(#291,#292),#28);
#282=AXIS2_PLACEMENT_3D('',#283,#284,#285);
#283=CARTESIAN_POINT('',(0.0,0.0,0.0));
#284=DIRECTION('',(0.0,0.0,1.0));
#285=DIRECTION('',(1.0,0.0,0.0));
#286=REPRESENTATION_MAP(#282,#38);
#287=AXIS2_PLACEMENT_3D('',#288,#289,#290);
#288=CARTESIAN_POINT('',(0.0,0.0,0.0));
#289=DIRECTION('',(0.0,0.0,1.0));
#290=DIRECTION('',(1.0,0.0,0.0));
#291=MAPPED_ITEM('',#286,#287);
#292=STYLED_ITEM('',(#280),#291);
ENDSEC;
END-ISO-10303-21;
