ISO-10303-21;
HEADER;
FILE_DESCRIPTION (( 'STEP AP203' ),
    '1' );
FILE_NAME ('A1N 1600.STEP',
    '2021-11-08T09:52:27',
    ( '' ),
    ( '' ),
    'SwSTEP 2.0',
    'SolidWorks 2021',
    '' );
FILE_SCHEMA (( 'CONFIG_CONTROL_DESIGN' ));
ENDSEC;

DATA;
#1 = CARTESIAN_POINT ( 'NONE',  ( 0.000000000000000000, 8.000000000000000000, 0.000000000000000000 ) ) ;
#2 = SECURITY_CLASSIFICATION_LEVEL ( 'unclassified' ) ;
#3 = EDGE_CURVE ( 'NONE', #147, #143, #34, .T. ) ;
#4 = EDGE_LOOP ( 'NONE', ( #53, #21, #59, #141, #72 ) ) ;
#5 = ORIENTED_EDGE ( 'NONE', *, *, #97, .T. ) ;
#6 = CIRCLE ( 'NONE', #74, 8.000000000000000000 ) ;
#7 = CARTESIAN_POINT ( 'NONE',  ( 8.000000000000000000, 8.000000000000000000, -9.797174393178825657E-16 ) ) ;
#8 = DIRECTION ( 'NONE',  ( -1.224646799147353207E-16, 0.000000000000000000, -1.000000000000000000 ) ) ;
#9 = DIRECTION ( 'NONE',  ( 0.000000000000000000, 0.000000000000000000, -1.000000000000000000 ) ) ;
#10 = APPROVAL_PERSON_ORGANIZATION ( #87, #185, #169 ) ;
#11 = CARTESIAN_POINT ( 'NONE',  ( 0.000000000000000000, 125.0000000000000000, 0.000000000000000000 ) ) ;
#12 = COORDINATED_UNIVERSAL_TIME_OFFSET ( 8, 0, .AHEAD. ) ;
#13 = DIRECTION ( 'NONE',  ( 1.000000000000000000, 0.000000000000000000, 0.000000000000000000 ) ) ;
#14 = AXIS2_PLACEMENT_3D ( 'NONE', #1, #209, #198 ) ;
#15 = COORDINATED_UNIVERSAL_TIME_OFFSET ( 8, 0, .AHEAD. ) ;
#16 = PERSON_AND_ORGANIZATION_ROLE ( 'creator' ) ;
#17 = CC_DESIGN_DATE_AND_TIME_ASSIGNMENT ( #145, #69, ( #210 ) ) ;
#18 = EDGE_LOOP ( 'NONE', ( #94, #5, #178, #35 ) ) ;
#19 = PERSON_AND_ORGANIZATION ( #23, #191 ) ;
#20 = APPROVAL_PERSON_ORGANIZATION ( #90, #99, #137 ) ;
#21 = ORIENTED_EDGE ( 'NONE', *, *, #37, .T. ) ;
#22 = VERTEX_POINT ( 'NONE', #180 ) ;
#23 = PERSON ( 'UNSPECIFIED', 'UNSPECIFIED', 'UNSPECIFIED', ('UNSPECIFIED'), ('UNSPECIFIED'), ('UNSPECIFIED') ) ;
#24 = ORIENTED_EDGE ( 'NONE', *, *, #56, .F. ) ;
#25 = CARTESIAN_POINT ( 'NONE',  ( 0.000000000000000000, 8.000000000000000000, -8.000000000000000000 ) ) ;
#26 = DIRECTION ( 'NONE',  ( 0.000000000000000000, 0.000000000000000000, -1.000000000000000000 ) ) ;
#27 = DIRECTION ( 'NONE',  ( -1.000000000000000000, 0.000000000000000000, 0.000000000000000000 ) ) ;
#28 = FACE_OUTER_BOUND ( 'NONE', #177, .T. ) ;
#29 = FACE_OUTER_BOUND ( 'NONE', #61, .T. ) ;
#30 = APPROVAL_STATUS ( 'not_yet_approved' ) ;
#31 = DIRECTION ( 'NONE',  ( 0.000000000000000000, 0.000000000000000000, 1.000000000000000000 ) ) ;
#32 = AXIS2_PLACEMENT_3D ( 'NONE', #101, #213, #9 ) ;
#33 = MANIFOLD_SOLID_BREP ( 'Revolve1', #54 ) ;
#34 = CIRCLE ( 'NONE', #14, 8.000000000000000000 ) ;
#35 = ORIENTED_EDGE ( 'NONE', *, *, #157, .F. ) ;
#36 = SHAPE_DEFINITION_REPRESENTATION ( #190, #129 ) ;
#37 = EDGE_CURVE ( 'NONE', #206, #195, #122, .T. ) ;
#38 = PERSON_AND_ORGANIZATION ( #23, #191 ) ;
#39 = EDGE_LOOP ( 'NONE', ( #176, #57, #123, #76 ) ) ;
#40 = CARTESIAN_POINT ( 'NONE',  ( 0.000000000000000000, 0.000000000000000000, 0.000000000000000000 ) ) ;
#41 = CIRCLE ( 'NONE', #170, 8.000000000000000000 ) ;
#42 = CARTESIAN_POINT ( 'NONE',  ( 0.000000000000000000, 8.000000000000000000, 0.000000000000000000 ) ) ;
#43 = CARTESIAN_POINT ( 'NONE',  ( -4.898587196589412829E-16, 0.000000000000000000, 0.000000000000000000 ) ) ;
#44 = ADVANCED_FACE ( 'NONE', ( #28 ), #102, .T. ) ;
#45 = DIRECTION ( 'NONE',  ( 0.000000000000000000, 0.000000000000000000, -1.000000000000000000 ) ) ;
#46 = CARTESIAN_POINT ( 'NONE',  ( 0.000000000000000000, 8.000000000000000000, 0.000000000000000000 ) ) ;
#47 = AXIS2_PLACEMENT_3D ( 'NONE', #64, #134, #136 ) ;
#48 = DESIGN_CONTEXT ( 'detailed design', #193, 'design' ) ;
#49 = EDGE_CURVE ( 'NONE', #93, #91, #144, .T. ) ;
#50 = DATE_AND_TIME ( #203, #220 ) ;
#51 = DATE_AND_TIME ( #156, #109 ) ;
#52 = PRODUCT ( 'A1N 1600', 'A1N 1600', '', ( #75 ) ) ;
#53 = ORIENTED_EDGE ( 'NONE', *, *, #174, .F. ) ;
#54 = CLOSED_SHELL ( 'NONE', ( #44, #146, #151, #120, #112 ) ) ;
#55 = DATE_TIME_ROLE ( 'classification_date' ) ;
#56 = EDGE_CURVE ( 'NONE', #195, #143, #149, .T. ) ;
#57 = ORIENTED_EDGE ( 'NONE', *, *, #78, .T. ) ;
#58 = PERSON_AND_ORGANIZATION_ROLE ( 'design_owner' ) ;
#59 = ORIENTED_EDGE ( 'NONE', *, *, #56, .T. ) ;
#60 = AXIS2_PLACEMENT_3D ( 'NONE', #46, #201, #118 ) ;
#61 = EDGE_LOOP ( 'NONE', ( #161, #111 ) ) ;
#62 = DIRECTION ( 'NONE',  ( -0.000000000000000000, -0.000000000000000000, -1.000000000000000000 ) ) ;
#63 = LINE ( 'NONE', #152, #128 ) ;
#64 = CARTESIAN_POINT ( 'NONE',  ( 0.000000000000000000, 0.000000000000000000, 0.000000000000000000 ) ) ;
#65 = DIRECTION ( 'NONE',  ( 0.000000000000000000, 0.000000000000000000, -1.000000000000000000 ) ) ;
#66 = SPHERICAL_SURFACE ( 'NONE', #133, 8.000000000000000000 ) ;
#67 =( GEOMETRIC_REPRESENTATION_CONTEXT ( 3 ) GLOBAL_UNCERTAINTY_ASSIGNED_CONTEXT ( ( #83 ) ) GLOBAL_UNIT_ASSIGNED_CONTEXT ( ( #121, #218, #187 ) ) REPRESENTATION_CONTEXT ( 'NONE', 'WORKASPACE' ) );
#68 = CC_DESIGN_PERSON_AND_ORGANIZATION_ASSIGNMENT ( #171, #155, ( #80 ) ) ;
#69 = DATE_TIME_ROLE ( 'creation_date' ) ;
#70 = EDGE_CURVE ( 'NONE', #195, #206, #89, .T. ) ;
#71 = LOCAL_TIME ( 17, 52, 27.00000000000000000, #12 ) ;
#72 = ORIENTED_EDGE ( 'NONE', *, *, #197, .F. ) ;
#73 = COORDINATED_UNIVERSAL_TIME_OFFSET ( 8, 0, .AHEAD. ) ;
#74 = AXIS2_PLACEMENT_3D ( 'NONE', #42, #117, #100 ) ;
#75 = MECHANICAL_CONTEXT ( 'NONE', #200, 'mechanical' ) ;
#76 = ORIENTED_EDGE ( 'NONE', *, *, #157, .T. ) ;
#77 = CARTESIAN_POINT ( 'NONE',  ( 0.000000000000000000, 0.000000000000000000, -8.000000000000000000 ) ) ;
#78 = EDGE_CURVE ( 'NONE', #93, #22, #41, .T. ) ;
#79 = DIRECTION ( 'NONE',  ( -1.000000000000000000, 0.000000000000000000, 1.224646799147353207E-16 ) ) ;
#80 = SECURITY_CLASSIFICATION ( '', '', #2 ) ;
#81 = FACE_OUTER_BOUND ( 'NONE', #39, .T. ) ;
#82 = CARTESIAN_POINT ( 'NONE',  ( 0.000000000000000000, 8.000000000000000000, 0.000000000000000000 ) ) ;
#83 = UNCERTAINTY_MEASURE_WITH_UNIT (LENGTH_MEASURE( 1.000000000000000082E-05 ), #121, 'distance_accuracy_value', 'NONE');
#84 = DATE_AND_TIME ( #119, #71 ) ;
#85 = APPROVAL_STATUS ( 'not_yet_approved' ) ;
#86 = CIRCLE ( 'NONE', #183, 8.000000000000000000 ) ;
#87 = PERSON_AND_ORGANIZATION ( #23, #191 ) ;
#88 = PERSON_AND_ORGANIZATION ( #23, #191 ) ;
#89 = CIRCLE ( 'NONE', #32, 8.000000000000000000 ) ;
#90 = PERSON_AND_ORGANIZATION ( #23, #191 ) ;
#91 = VERTEX_POINT ( 'NONE', #43 ) ;
#92 = AXIS2_PLACEMENT_3D ( 'NONE', #40, #113, #26 ) ;
#93 = VERTEX_POINT ( 'NONE', #7 ) ;
#94 = ORIENTED_EDGE ( 'NONE', *, *, #3, .T. ) ;
#95 = AXIS2_PLACEMENT_3D ( 'NONE', #11, #116, #45 ) ;
#96 = CARTESIAN_POINT ( 'NONE',  ( 0.000000000000000000, 8.000000000000000000, 0.000000000000000000 ) ) ;
#97 = EDGE_CURVE ( 'NONE', #143, #93, #6, .T. ) ;
#98 = DIRECTION ( 'NONE',  ( -0.000000000000000000, -1.000000000000000000, -0.000000000000000000 ) ) ;
#99 = APPROVAL ( #139, 'UNSPECIFIED' ) ;
#100 = DIRECTION ( 'NONE',  ( 0.000000000000000000, 0.000000000000000000, -1.000000000000000000 ) ) ;
#101 = CARTESIAN_POINT ( 'NONE',  ( 0.000000000000000000, 125.0000000000000000, 0.000000000000000000 ) ) ;
#102 = CYLINDRICAL_SURFACE ( 'NONE', #92, 8.000000000000000000 ) ;
#103 = PERSON_AND_ORGANIZATION ( #23, #191 ) ;
#104 = AXIS2_PLACEMENT_3D ( 'NONE', #184, #98, #164 ) ;
#105 = APPROVAL_DATE_TIME ( #189, #185 ) ;
#106 = AXIS2_PLACEMENT_3D ( 'NONE', #130, #8, #79 ) ;
#107 = CC_DESIGN_PERSON_AND_ORGANIZATION_ASSIGNMENT ( #153, #16, ( #210 ) ) ;
#108 = CC_DESIGN_PERSON_AND_ORGANIZATION_ASSIGNMENT ( #88, #58, ( #52 ) ) ;
#109 = LOCAL_TIME ( 17, 52, 27.00000000000000000, #73 ) ;
#110 = ORIENTED_EDGE ( 'NONE', *, *, #78, .F. ) ;
#111 = ORIENTED_EDGE ( 'NONE', *, *, #37, .F. ) ;
#112 = ADVANCED_FACE ( 'NONE', ( #202 ), #196, .T. ) ;
#113 = DIRECTION ( 'NONE',  ( -0.000000000000000000, -1.000000000000000000, -0.000000000000000000 ) ) ;
#114 = CC_DESIGN_PERSON_AND_ORGANIZATION_ASSIGNMENT ( #103, #186, ( #159 ) ) ;
#115 = DIRECTION ( 'NONE',  ( -0.000000000000000000, -1.000000000000000000, -0.000000000000000000 ) ) ;
#116 = DIRECTION ( 'NONE',  ( 0.000000000000000000, -1.000000000000000000, -0.000000000000000000 ) ) ;
#117 = DIRECTION ( 'NONE',  ( -0.000000000000000000, -1.000000000000000000, -0.000000000000000000 ) ) ;
#118 = DIRECTION ( 'NONE',  ( 0.000000000000000000, 0.000000000000000000, -1.000000000000000000 ) ) ;
#119 = CALENDAR_DATE ( 2021, 8, 11 ) ;
#120 = ADVANCED_FACE ( 'NONE', ( #29 ), #199, .F. ) ;
#121 =( LENGTH_UNIT ( ) NAMED_UNIT ( * ) SI_UNIT ( .MILLI., .METRE. ) );
#122 = CIRCLE ( 'NONE', #104, 8.000000000000000000 ) ;
#123 = ORIENTED_EDGE ( 'NONE', *, *, #197, .T. ) ;
#124 = APPROVAL_PERSON_ORGANIZATION ( #38, #172, #154 ) ;
#125 = APPROVAL_DATE_TIME ( #84, #172 ) ;
#126 = CALENDAR_DATE ( 2021, 8, 11 ) ;
#127 = ORIENTED_EDGE ( 'NONE', *, *, #70, .T. ) ;
#128 = VECTOR ( 'NONE', #115, 1000.000000000000000 ) ;
#129 = ADVANCED_BREP_SHAPE_REPRESENTATION ( 'A1N 1600', ( #33, #205 ), #67 ) ;
#130 = CARTESIAN_POINT ( 'NONE',  ( 0.000000000000000000, 8.000000000000000000, 0.000000000000000000 ) ) ;
#131 = CC_DESIGN_PERSON_AND_ORGANIZATION_ASSIGNMENT ( #19, #192, ( #159 ) ) ;
#132 = DIRECTION ( 'NONE',  ( 1.000000000000000000, 0.000000000000000000, 0.000000000000000000 ) ) ;
#133 = AXIS2_PLACEMENT_3D ( 'NONE', #82, #181, #27 ) ;
#134 = DIRECTION ( 'NONE',  ( -0.000000000000000000, -1.000000000000000000, -0.000000000000000000 ) ) ;
#135 = CARTESIAN_POINT ( 'NONE',  ( 0.000000000000000000, 8.000000000000000000, 0.000000000000000000 ) ) ;
#136 = DIRECTION ( 'NONE',  ( 0.000000000000000000, 0.000000000000000000, -1.000000000000000000 ) ) ;
#137 = APPROVAL_ROLE ( '' ) ;
#138 = APPLICATION_PROTOCOL_DEFINITION ( 'international standard', 'config_control_design', 1994, #193 ) ;
#139 = APPROVAL_STATUS ( 'not_yet_approved' ) ;
#140 = LOCAL_TIME ( 17, 52, 27.00000000000000000, #15 ) ;
#141 = ORIENTED_EDGE ( 'NONE', *, *, #3, .F. ) ;
#142 = APPLICATION_PROTOCOL_DEFINITION ( 'international standard', 'config_control_design', 1994, #200 ) ;
#143 = VERTEX_POINT ( 'NONE', #25 ) ;
#144 = CIRCLE ( 'NONE', #106, 8.000000000000000000 ) ;
#145 = DATE_AND_TIME ( #126, #188 ) ;
#146 = ADVANCED_FACE ( 'NONE', ( #165 ), #66, .T. ) ;
#147 = VERTEX_POINT ( 'NONE', #148 ) ;
#148 = CARTESIAN_POINT ( 'NONE',  ( -8.000000000000000000, 8.000000000000000000, 0.000000000000000000 ) ) ;
#149 = LINE ( 'NONE', #77, #217 ) ;
#150 = CC_DESIGN_APPROVAL ( #99, ( #159 ) ) ;
#151 = ADVANCED_FACE ( 'NONE', ( #81 ), #214, .T. ) ;
#152 = CARTESIAN_POINT ( 'NONE',  ( 9.797174393178825657E-16, 0.000000000000000000, 8.000000000000000000 ) ) ;
#153 = PERSON_AND_ORGANIZATION ( #23, #191 ) ;
#154 = APPROVAL_ROLE ( '' ) ;
#155 = PERSON_AND_ORGANIZATION_ROLE ( 'classification_officer' ) ;
#156 = CALENDAR_DATE ( 2021, 8, 11 ) ;
#157 = EDGE_CURVE ( 'NONE', #147, #91, #86, .T. ) ;
#158 = APPROVAL_DATE_TIME ( #50, #99 ) ;
#159 = PRODUCT_DEFINITION_FORMATION_WITH_SPECIFIED_SOURCE ( 'ANY', '', #52, .NOT_KNOWN. ) ;
#160 = ORIENTED_EDGE ( 'NONE', *, *, #97, .F. ) ;
#161 = ORIENTED_EDGE ( 'NONE', *, *, #70, .F. ) ;
#162 = CIRCLE ( 'NONE', #60, 8.000000000000000000 ) ;
#163 = DIRECTION ( 'NONE',  ( -0.000000000000000000, 0.000000000000000000, 1.000000000000000000 ) ) ;
#164 = DIRECTION ( 'NONE',  ( 0.000000000000000000, 0.000000000000000000, -1.000000000000000000 ) ) ;
#165 = FACE_OUTER_BOUND ( 'NONE', #18, .T. ) ;
#166 = CC_DESIGN_APPROVAL ( #185, ( #80 ) ) ;
#167 = DIRECTION ( 'NONE',  ( -0.000000000000000000, -1.000000000000000000, -0.000000000000000000 ) ) ;
#168 = CARTESIAN_POINT ( 'NONE',  ( 0.000000000000000000, 0.000000000000000000, 0.000000000000000000 ) ) ;
#169 = APPROVAL_ROLE ( '' ) ;
#170 = AXIS2_PLACEMENT_3D ( 'NONE', #212, #179, #65 ) ;
#171 = PERSON_AND_ORGANIZATION ( #23, #191 ) ;
#172 = APPROVAL ( #85, 'UNSPECIFIED' ) ;
#173 = AXIS2_PLACEMENT_3D ( 'NONE', #135, #62, #182 ) ;
#174 = EDGE_CURVE ( 'NONE', #206, #22, #63, .T. ) ;
#175 = ORIENTED_EDGE ( 'NONE', *, *, #174, .T. ) ;
#176 = ORIENTED_EDGE ( 'NONE', *, *, #49, .F. ) ;
#177 = EDGE_LOOP ( 'NONE', ( #127, #175, #110, #160, #24 ) ) ;
#178 = ORIENTED_EDGE ( 'NONE', *, *, #49, .T. ) ;
#179 = DIRECTION ( 'NONE',  ( -0.000000000000000000, -1.000000000000000000, -0.000000000000000000 ) ) ;
#180 = CARTESIAN_POINT ( 'NONE',  ( 9.797174393178825657E-16, 8.000000000000000000, 8.000000000000000000 ) ) ;
#181 = DIRECTION ( 'NONE',  ( -0.000000000000000000, -0.000000000000000000, -1.000000000000000000 ) ) ;
#182 = DIRECTION ( 'NONE',  ( -1.000000000000000000, 0.000000000000000000, 0.000000000000000000 ) ) ;
#183 = AXIS2_PLACEMENT_3D ( 'NONE', #96, #163, #132 ) ;
#184 = CARTESIAN_POINT ( 'NONE',  ( 0.000000000000000000, 125.0000000000000000, 0.000000000000000000 ) ) ;
#185 = APPROVAL ( #30, 'UNSPECIFIED' ) ;
#186 = PERSON_AND_ORGANIZATION_ROLE ( 'design_supplier' ) ;
#187 =( NAMED_UNIT ( * ) SI_UNIT ( $, .STERADIAN. ) SOLID_ANGLE_UNIT ( ) );
#188 = LOCAL_TIME ( 17, 52, 27.00000000000000000, #204 ) ;
#189 = DATE_AND_TIME ( #219, #140 ) ;
#190 = PRODUCT_DEFINITION_SHAPE ( 'NONE', 'NONE',  #210 ) ;
#191 = ORGANIZATION ( 'UNSPECIFIED', 'UNSPECIFIED', '' ) ;
#192 = PERSON_AND_ORGANIZATION_ROLE ( 'creator' ) ;
#193 = APPLICATION_CONTEXT ( 'configuration controlled 3d designs of mechanical parts and assemblies' ) ;
#194 = CC_DESIGN_SECURITY_CLASSIFICATION ( #80, ( #159 ) ) ;
#195 = VERTEX_POINT ( 'NONE', #215 ) ;
#196 = CYLINDRICAL_SURFACE ( 'NONE', #47, 8.000000000000000000 ) ;
#197 = EDGE_CURVE ( 'NONE', #22, #147, #162, .T. ) ;
#198 = DIRECTION ( 'NONE',  ( 0.000000000000000000, 0.000000000000000000, -1.000000000000000000 ) ) ;
#199 = PLANE ( 'NONE',  #95 ) ;
#200 = APPLICATION_CONTEXT ( 'configuration controlled 3d designs of mechanical parts and assemblies' ) ;
#201 = DIRECTION ( 'NONE',  ( -0.000000000000000000, -1.000000000000000000, -0.000000000000000000 ) ) ;
#202 = FACE_OUTER_BOUND ( 'NONE', #4, .T. ) ;
#203 = CALENDAR_DATE ( 2021, 8, 11 ) ;
#204 = COORDINATED_UNIVERSAL_TIME_OFFSET ( 8, 0, .AHEAD. ) ;
#205 = AXIS2_PLACEMENT_3D ( 'NONE', #168, #31, #13 ) ;
#206 = VERTEX_POINT ( 'NONE', #211 ) ;
#207 = PRODUCT_RELATED_PRODUCT_CATEGORY ( 'detail', '', ( #52 ) ) ;
#208 = CC_DESIGN_APPROVAL ( #172, ( #210 ) ) ;
#209 = DIRECTION ( 'NONE',  ( -0.000000000000000000, -1.000000000000000000, -0.000000000000000000 ) ) ;
#210 = PRODUCT_DEFINITION ( 'UNKNOWN', '', #159, #48 ) ;
#211 = CARTESIAN_POINT ( 'NONE',  ( 9.797174393178825657E-16, 125.0000000000000000, 8.000000000000000000 ) ) ;
#212 = CARTESIAN_POINT ( 'NONE',  ( 0.000000000000000000, 8.000000000000000000, 0.000000000000000000 ) ) ;
#213 = DIRECTION ( 'NONE',  ( -0.000000000000000000, -1.000000000000000000, -0.000000000000000000 ) ) ;
#214 = SPHERICAL_SURFACE ( 'NONE', #173, 8.000000000000000000 ) ;
#215 = CARTESIAN_POINT ( 'NONE',  ( 0.000000000000000000, 125.0000000000000000, -8.000000000000000000 ) ) ;
#216 = COORDINATED_UNIVERSAL_TIME_OFFSET ( 8, 0, .AHEAD. ) ;
#217 = VECTOR ( 'NONE', #167, 1000.000000000000000 ) ;
#218 =( NAMED_UNIT ( * ) PLANE_ANGLE_UNIT ( ) SI_UNIT ( $, .RADIAN. ) );
#219 = CALENDAR_DATE ( 2021, 8, 11 ) ;
#220 = LOCAL_TIME ( 17, 52, 27.00000000000000000, #216 ) ;
#221 = CC_DESIGN_DATE_AND_TIME_ASSIGNMENT ( #51, #55, ( #80 ) ) ;
ENDSEC;
END-ISO-10303-21;
