ISO-10303-21;
HEADER;
FILE_DESCRIPTION (( 'STEP AP203' ),
    '1' );
FILE_NAME ('C82 1600.STEP',
    '2021-11-08T09:47:53',
    ( '' ),
    ( '' ),
    'SwSTEP 2.0',
    'SolidWorks 2021',
    '' );
FILE_SCHEMA (( 'CONFIG_CONTROL_DESIGN' ));
ENDSEC;

DATA;
#1 = APPROVAL_ROLE ( '' ) ;
#2 = EDGE_LOOP ( 'NONE', ( #102, #20, #6, #125 ) ) ;
#3 = CYLINDRICAL_SURFACE ( 'NONE', #145, 8.000000000000000000 ) ;
#4 = DIRECTION ( 'NONE',  ( 0.000000000000000000, -1.000000000000000000, -0.000000000000000000 ) ) ;
#5 = UNCERTAINTY_MEASURE_WITH_UNIT (LENGTH_MEASURE( 1.000000000000000082E-05 ), #7, 'distance_accuracy_value', 'NONE');
#6 = ORIENTED_EDGE ( 'NONE', *, *, #130, .T. ) ;
#7 =( LENGTH_UNIT ( ) NAMED_UNIT ( * ) SI_UNIT ( .MILLI., .METRE. ) );
#8 = CARTESIAN_POINT ( 'NONE',  ( 0.000000000000000000, 0.000000000000000000, 0.000000000000000000 ) ) ;
#9 = APPLICATION_PROTOCOL_DEFINITION ( 'international standard', 'config_control_design', 1994, #151 ) ;
#10 = PERSON_AND_ORGANIZATION ( #46, #13 ) ;
#11 = COORDINATED_UNIVERSAL_TIME_OFFSET ( 8, 0, .AHEAD. ) ;
#12 = AXIS2_PLACEMENT_3D ( 'NONE', #52, #24, #55 ) ;
#13 = ORGANIZATION ( 'UNSPECIFIED', 'UNSPECIFIED', '' ) ;
#14 = COORDINATED_UNIVERSAL_TIME_OFFSET ( 8, 0, .AHEAD. ) ;
#15 = DATE_AND_TIME ( #107, #60 ) ;
#16 = CC_DESIGN_PERSON_AND_ORGANIZATION_ASSIGNMENT ( #162, #174, ( #39 ) ) ;
#17 = CIRCLE ( 'NONE', #116, 8.000000000000000000 ) ;
#18 = CC_DESIGN_SECURITY_CLASSIFICATION ( #165, ( #39 ) ) ;
#19 = ORIENTED_EDGE ( 'NONE', *, *, #152, .T. ) ;
#20 = ORIENTED_EDGE ( 'NONE', *, *, #85, .T. ) ;
#21 = CARTESIAN_POINT ( 'NONE',  ( 0.000000000000000000, 150.0000000000000000, 0.000000000000000000 ) ) ;
#22 = VERTEX_POINT ( 'NONE', #103 ) ;
#23 = DIRECTION ( 'NONE',  ( 0.000000000000000000, 0.000000000000000000, -1.000000000000000000 ) ) ;
#24 = DIRECTION ( 'NONE',  ( -0.000000000000000000, -1.000000000000000000, -0.000000000000000000 ) ) ;
#25 = DIRECTION ( 'NONE',  ( 0.000000000000000000, 1.000000000000000000, 0.000000000000000000 ) ) ;
#26 = DIRECTION ( 'NONE',  ( -0.000000000000000000, -1.000000000000000000, -0.000000000000000000 ) ) ;
#27 = DIRECTION ( 'NONE',  ( 0.000000000000000000, -0.000000000000000000, 1.000000000000000000 ) ) ;
#28 = PRODUCT ( 'C82 1600', 'C82 1600', '', ( #132 ) ) ;
#29 = DATE_AND_TIME ( #133, #93 ) ;
#30 = COORDINATED_UNIVERSAL_TIME_OFFSET ( 8, 0, .AHEAD. ) ;
#31 = DATE_AND_TIME ( #144, #146 ) ;
#32 = AXIS2_PLACEMENT_3D ( 'NONE', #171, #170, #169 ) ;
#33 = APPROVAL_PERSON_ORGANIZATION ( #121, #172, #1 ) ;
#34 = EDGE_LOOP ( 'NONE', ( #101, #139 ) ) ;
#35 = EDGE_LOOP ( 'NONE', ( #62, #113 ) ) ;
#36 = EDGE_CURVE ( 'NONE', #22, #138, #17, .T. ) ;
#37 = DIRECTION ( 'NONE',  ( 0.000000000000000000, 0.000000000000000000, -1.000000000000000000 ) ) ;
#38 = SHAPE_DEFINITION_REPRESENTATION ( #124, #173 ) ;
#39 = PRODUCT_DEFINITION_FORMATION_WITH_SPECIFIED_SOURCE ( 'ANY', '', #28, .NOT_KNOWN. ) ;
#40 = CC_DESIGN_PERSON_AND_ORGANIZATION_ASSIGNMENT ( #41, #97, ( #39 ) ) ;
#41 = PERSON_AND_ORGANIZATION ( #46, #13 ) ;
#42 = APPROVAL_DATE_TIME ( #29, #90 ) ;
#43 = PRODUCT_RELATED_PRODUCT_CATEGORY ( 'detail', '', ( #28 ) ) ;
#44 = CIRCLE ( 'NONE', #99, 8.000000000000000000 ) ;
#45 = PLANE ( 'NONE',  #153 ) ;
#46 = PERSON ( 'UNSPECIFIED', 'UNSPECIFIED', 'UNSPECIFIED', ('UNSPECIFIED'), ('UNSPECIFIED'), ('UNSPECIFIED') ) ;
#47 = EDGE_LOOP ( 'NONE', ( #74, #19, #76, #100 ) ) ;
#48 = DIRECTION ( 'NONE',  ( 0.000000000000000000, 0.000000000000000000, -1.000000000000000000 ) ) ;
#49 = CC_DESIGN_APPROVAL ( #172, ( #165 ) ) ;
#50 = LINE ( 'NONE', #140, #69 ) ;
#51 = DIRECTION ( 'NONE',  ( -0.000000000000000000, -1.000000000000000000, -0.000000000000000000 ) ) ;
#52 = CARTESIAN_POINT ( 'NONE',  ( 0.000000000000000000, 0.000000000000000000, 0.000000000000000000 ) ) ;
#53 = LOCAL_TIME ( 17, 47, 53.00000000000000000, #14 ) ;
#54 = CARTESIAN_POINT ( 'NONE',  ( 9.797174393178825657E-16, 0.000000000000000000, 8.000000000000000000 ) ) ;
#55 = DIRECTION ( 'NONE',  ( 0.000000000000000000, 0.000000000000000000, -1.000000000000000000 ) ) ;
#56 = ADVANCED_FACE ( 'NONE', ( #88 ), #3, .T. ) ;
#57 = APPROVAL_DATE_TIME ( #58, #71 ) ;
#58 = DATE_AND_TIME ( #175, #53 ) ;
#59 = SECURITY_CLASSIFICATION_LEVEL ( 'unclassified' ) ;
#60 = LOCAL_TIME ( 17, 47, 53.00000000000000000, #11 ) ;
#61 = CC_DESIGN_PERSON_AND_ORGANIZATION_ASSIGNMENT ( #143, #163, ( #164 ) ) ;
#62 = ORIENTED_EDGE ( 'NONE', *, *, #126, .F. ) ;
#63 = CARTESIAN_POINT ( 'NONE',  ( 0.000000000000000000, 0.000000000000000000, 0.000000000000000000 ) ) ;
#64 = AXIS2_PLACEMENT_3D ( 'NONE', #8, #25, #27 ) ;
#65 = PLANE ( 'NONE',  #64 ) ;
#66 = LINE ( 'NONE', #54, #91 ) ;
#67 = CARTESIAN_POINT ( 'NONE',  ( 9.797174393178825657E-16, 0.000000000000000000, 8.000000000000000000 ) ) ;
#68 = ADVANCED_FACE ( 'NONE', ( #137 ), #45, .F. ) ;
#69 = VECTOR ( 'NONE', #51, 1000.000000000000000 ) ;
#70 = DATE_TIME_ROLE ( 'classification_date' ) ;
#71 = APPROVAL ( #161, 'UNSPECIFIED' ) ;
#72 = APPROVAL_PERSON_ORGANIZATION ( #120, #90, #84 ) ;
#73 = ADVANCED_FACE ( 'NONE', ( #154 ), #65, .F. ) ;
#74 = ORIENTED_EDGE ( 'NONE', *, *, #126, .T. ) ;
#75 = DIRECTION ( 'NONE',  ( 0.000000000000000000, 0.000000000000000000, -1.000000000000000000 ) ) ;
#76 = ORIENTED_EDGE ( 'NONE', *, *, #36, .F. ) ;
#77 = CIRCLE ( 'NONE', #160, 8.000000000000000000 ) ;
#78 = CARTESIAN_POINT ( 'NONE',  ( 0.000000000000000000, 150.0000000000000000, 0.000000000000000000 ) ) ;
#79 = CARTESIAN_POINT ( 'NONE',  ( 0.000000000000000000, 150.0000000000000000, -8.000000000000000000 ) ) ;
#80 = PERSON_AND_ORGANIZATION ( #46, #13 ) ;
#81 = CALENDAR_DATE ( 2021, 8, 11 ) ;
#82 =( GEOMETRIC_REPRESENTATION_CONTEXT ( 3 ) GLOBAL_UNCERTAINTY_ASSIGNED_CONTEXT ( ( #5 ) ) GLOBAL_UNIT_ASSIGNED_CONTEXT ( ( #7, #92, #128 ) ) REPRESENTATION_CONTEXT ( 'NONE', 'WORKASPACE' ) );
#83 = COORDINATED_UNIVERSAL_TIME_OFFSET ( 8, 0, .AHEAD. ) ;
#84 = APPROVAL_ROLE ( '' ) ;
#85 = EDGE_CURVE ( 'NONE', #89, #167, #77, .T. ) ;
#86 = CIRCLE ( 'NONE', #32, 8.000000000000000000 ) ;
#87 = CARTESIAN_POINT ( 'NONE',  ( 0.000000000000000000, 0.000000000000000000, 0.000000000000000000 ) ) ;
#88 = FACE_OUTER_BOUND ( 'NONE', #2, .T. ) ;
#89 = VERTEX_POINT ( 'NONE', #156 ) ;
#90 = APPROVAL ( #142, 'UNSPECIFIED' ) ;
#91 = VECTOR ( 'NONE', #26, 1000.000000000000000 ) ;
#92 =( NAMED_UNIT ( * ) PLANE_ANGLE_UNIT ( ) SI_UNIT ( $, .RADIAN. ) );
#93 = LOCAL_TIME ( 17, 47, 53.00000000000000000, #83 ) ;
#94 = APPLICATION_CONTEXT ( 'configuration controlled 3d designs of mechanical parts and assemblies' ) ;
#95 = PERSON_AND_ORGANIZATION_ROLE ( 'design_owner' ) ;
#96 = LOCAL_TIME ( 17, 47, 53.00000000000000000, #111 ) ;
#97 = PERSON_AND_ORGANIZATION_ROLE ( 'design_supplier' ) ;
#98 = EDGE_CURVE ( 'NONE', #138, #22, #86, .T. ) ;
#99 = AXIS2_PLACEMENT_3D ( 'NONE', #118, #157, #37 ) ;
#100 = ORIENTED_EDGE ( 'NONE', *, *, #130, .F. ) ;
#101 = ORIENTED_EDGE ( 'NONE', *, *, #36, .T. ) ;
#102 = ORIENTED_EDGE ( 'NONE', *, *, #152, .F. ) ;
#103 = CARTESIAN_POINT ( 'NONE',  ( 0.000000000000000000, 0.000000000000000000, -8.000000000000000000 ) ) ;
#104 = CC_DESIGN_PERSON_AND_ORGANIZATION_ASSIGNMENT ( #80, #95, ( #28 ) ) ;
#105 = AXIS2_PLACEMENT_3D ( 'NONE', #115, #110, #109 ) ;
#106 = FACE_OUTER_BOUND ( 'NONE', #47, .T. ) ;
#107 = CALENDAR_DATE ( 2021, 8, 11 ) ;
#108 = CC_DESIGN_APPROVAL ( #71, ( #164 ) ) ;
#109 = DIRECTION ( 'NONE',  ( 1.000000000000000000, 0.000000000000000000, 0.000000000000000000 ) ) ;
#110 = DIRECTION ( 'NONE',  ( 0.000000000000000000, 0.000000000000000000, 1.000000000000000000 ) ) ;
#111 = COORDINATED_UNIVERSAL_TIME_OFFSET ( 8, 0, .AHEAD. ) ;
#112 = CC_DESIGN_APPROVAL ( #90, ( #39 ) ) ;
#113 = ORIENTED_EDGE ( 'NONE', *, *, #85, .F. ) ;
#114 = DIRECTION ( 'NONE',  ( -0.000000000000000000, -1.000000000000000000, -0.000000000000000000 ) ) ;
#115 = CARTESIAN_POINT ( 'NONE',  ( 0.000000000000000000, 0.000000000000000000, 0.000000000000000000 ) ) ;
#116 = AXIS2_PLACEMENT_3D ( 'NONE', #87, #136, #75 ) ;
#117 = APPROVAL_PERSON_ORGANIZATION ( #10, #71, #148 ) ;
#118 = CARTESIAN_POINT ( 'NONE',  ( 0.000000000000000000, 150.0000000000000000, 0.000000000000000000 ) ) ;
#119 = DIRECTION ( 'NONE',  ( 0.000000000000000000, 0.000000000000000000, -1.000000000000000000 ) ) ;
#120 = PERSON_AND_ORGANIZATION ( #46, #13 ) ;
#121 = PERSON_AND_ORGANIZATION ( #46, #13 ) ;
#122 = DATE_TIME_ROLE ( 'creation_date' ) ;
#123 = APPROVAL_STATUS ( 'not_yet_approved' ) ;
#124 = PRODUCT_DEFINITION_SHAPE ( 'NONE', 'NONE',  #164 ) ;
#125 = ORIENTED_EDGE ( 'NONE', *, *, #98, .F. ) ;
#126 = EDGE_CURVE ( 'NONE', #167, #89, #44, .T. ) ;
#127 = CYLINDRICAL_SURFACE ( 'NONE', #12, 8.000000000000000000 ) ;
#128 =( NAMED_UNIT ( * ) SI_UNIT ( $, .STERADIAN. ) SOLID_ANGLE_UNIT ( ) );
#129 = CC_DESIGN_DATE_AND_TIME_ASSIGNMENT ( #15, #70, ( #165 ) ) ;
#130 = EDGE_CURVE ( 'NONE', #167, #22, #50, .T. ) ;
#131 = APPLICATION_PROTOCOL_DEFINITION ( 'international standard', 'config_control_design', 1994, #94 ) ;
#132 = MECHANICAL_CONTEXT ( 'NONE', #151, 'mechanical' ) ;
#133 = CALENDAR_DATE ( 2021, 8, 11 ) ;
#134 = ADVANCED_FACE ( 'NONE', ( #106 ), #127, .T. ) ;
#135 = PERSON_AND_ORGANIZATION_ROLE ( 'classification_officer' ) ;
#136 = DIRECTION ( 'NONE',  ( -0.000000000000000000, -1.000000000000000000, -0.000000000000000000 ) ) ;
#137 = FACE_OUTER_BOUND ( 'NONE', #35, .T. ) ;
#138 = VERTEX_POINT ( 'NONE', #67 ) ;
#139 = ORIENTED_EDGE ( 'NONE', *, *, #98, .T. ) ;
#140 = CARTESIAN_POINT ( 'NONE',  ( 0.000000000000000000, 0.000000000000000000, -8.000000000000000000 ) ) ;
#141 = DESIGN_CONTEXT ( 'detailed design', #94, 'design' ) ;
#142 = APPROVAL_STATUS ( 'not_yet_approved' ) ;
#143 = PERSON_AND_ORGANIZATION ( #46, #13 ) ;
#144 = CALENDAR_DATE ( 2021, 8, 11 ) ;
#145 = AXIS2_PLACEMENT_3D ( 'NONE', #63, #114, #48 ) ;
#146 = LOCAL_TIME ( 17, 47, 53.00000000000000000, #30 ) ;
#147 = MANIFOLD_SOLID_BREP ( 'Revolve1', #168 ) ;
#148 = APPROVAL_ROLE ( '' ) ;
#149 = CC_DESIGN_DATE_AND_TIME_ASSIGNMENT ( #31, #122, ( #164 ) ) ;
#150 = PERSON_AND_ORGANIZATION ( #46, #13 ) ;
#151 = APPLICATION_CONTEXT ( 'configuration controlled 3d designs of mechanical parts and assemblies' ) ;
#152 = EDGE_CURVE ( 'NONE', #89, #138, #66, .T. ) ;
#153 = AXIS2_PLACEMENT_3D ( 'NONE', #21, #4, #23 ) ;
#154 = FACE_OUTER_BOUND ( 'NONE', #34, .T. ) ;
#155 = DIRECTION ( 'NONE',  ( -0.000000000000000000, -1.000000000000000000, -0.000000000000000000 ) ) ;
#156 = CARTESIAN_POINT ( 'NONE',  ( 9.797174393178825657E-16, 150.0000000000000000, 8.000000000000000000 ) ) ;
#157 = DIRECTION ( 'NONE',  ( -0.000000000000000000, -1.000000000000000000, -0.000000000000000000 ) ) ;
#158 = CC_DESIGN_PERSON_AND_ORGANIZATION_ASSIGNMENT ( #150, #135, ( #165 ) ) ;
#159 = DATE_AND_TIME ( #81, #96 ) ;
#160 = AXIS2_PLACEMENT_3D ( 'NONE', #78, #155, #119 ) ;
#161 = APPROVAL_STATUS ( 'not_yet_approved' ) ;
#162 = PERSON_AND_ORGANIZATION ( #46, #13 ) ;
#163 = PERSON_AND_ORGANIZATION_ROLE ( 'creator' ) ;
#164 = PRODUCT_DEFINITION ( 'UNKNOWN', '', #39, #141 ) ;
#165 = SECURITY_CLASSIFICATION ( '', '', #59 ) ;
#166 = APPROVAL_DATE_TIME ( #159, #172 ) ;
#167 = VERTEX_POINT ( 'NONE', #79 ) ;
#168 = CLOSED_SHELL ( 'NONE', ( #134, #73, #68, #56 ) ) ;
#169 = DIRECTION ( 'NONE',  ( 0.000000000000000000, 0.000000000000000000, -1.000000000000000000 ) ) ;
#170 = DIRECTION ( 'NONE',  ( -0.000000000000000000, -1.000000000000000000, -0.000000000000000000 ) ) ;
#171 = CARTESIAN_POINT ( 'NONE',  ( 0.000000000000000000, 0.000000000000000000, 0.000000000000000000 ) ) ;
#172 = APPROVAL ( #123, 'UNSPECIFIED' ) ;
#173 = ADVANCED_BREP_SHAPE_REPRESENTATION ( 'C82 1600', ( #147, #105 ), #82 ) ;
#174 = PERSON_AND_ORGANIZATION_ROLE ( 'creator' ) ;
#175 = CALENDAR_DATE ( 2021, 8, 11 ) ;
ENDSEC;
END-ISO-10303-21;
