ISO-10303-21;
HEADER;
/****************************************************************
 * Generated by software with PDElib inside                     *
 * PDElib Version v7.5, created Tue 10/04/2016 12:12:03.09      *
 * International Technegroup Inc. (www.iti-global.com)          *
 ****************************************************************/
FILE_DESCRIPTION((''),'2;1');
FILE_NAME('X:\\2.0 Engineer\\AFIFF\\HPMT\\PROJECT\\2020\\Dormer Pramet\\STP\\K30 0500 050 06.stp','2020-06-25T13:59:35',(''),(''),'STEP Write','Mastercam 2019 ... CNC Software, Inc.','');
FILE_SCHEMA(('AUTOMOTIVE_DESIGN'));
ENDSEC;
DATA;
#10=(NAMED_UNIT(*)PLANE_ANGLE_UNIT()SI_UNIT($,.RADIAN.));
#11=DIMENSIONAL_EXPONENTS(0.0,0.0,0.0,0.0,0.0,0.0,0.0);
#12=PLANE_ANGLE_MEASURE_WITH_UNIT(PLANE_ANGLE_MEASURE(0.017453292500000),#10);
#16=(CONVERSION_BASED_UNIT('DEGREE',#12)NAMED_UNIT(#11)PLANE_ANGLE_UNIT());
#20=(NAMED_UNIT(*)SI_UNIT($,.STERADIAN.)SOLID_ANGLE_UNIT());
#24=(LENGTH_UNIT()NAMED_UNIT(*)SI_UNIT(.MILLI.,.METRE.));
#26=UNCERTAINTY_MEASURE_WITH_UNIT(LENGTH_MEASURE(0.000050000000000),#24,'DISTANCE_ACCURACY_VALUE','');
#28=(GEOMETRIC_REPRESENTATION_CONTEXT(3)GLOBAL_UNCERTAINTY_ASSIGNED_CONTEXT((#26))GLOBAL_UNIT_ASSIGNED_CONTEXT((#16,#20,#24))REPRESENTATION_CONTEXT('','3D'));
#29=APPLICATION_CONTEXT('automotive design');
#30=APPLICATION_PROTOCOL_DEFINITION('Draft International Standard','automotive_design',1998,#29);
#31=PRODUCT_CONTEXT('None',#29,'mechanical');
#32=PRODUCT('None','None','None',(#31));
#33=PRODUCT_RELATED_PRODUCT_CATEGORY('part','description',(#32));
#34=PRODUCT_DEFINITION_FORMATION('None','None',#32);
#35=PRODUCT_DEFINITION_CONTEXT('part definition',#29,'design');
#36=PRODUCT_DEFINITION('None','None',#34,#35);
#37=PRODUCT_DEFINITION_SHAPE('None','None',#36);
#38=SHAPE_REPRESENTATION('',(),#28);
#39=SHAPE_DEFINITION_REPRESENTATION(#37,#38);
#40=CARTESIAN_POINT('',(0.0,50.0,0.0));
#41=DIRECTION('',(1.0,0.0,0.0));
#42=VECTOR('',#41,3.0);
#43=LINE('',#40,#42);
#44=CARTESIAN_POINT('',(3.0,50.0,0.0));
#45=TRIMMED_CURVE('',#43,(PARAMETER_VALUE(0.0),#40),(PARAMETER_VALUE(1.0),#44),.T.,.PARAMETER.);
#46=CARTESIAN_POINT('',(3.0,50.0,0.0));
#47=DIRECTION('',(0.0,-1.0,0.0));
#48=VECTOR('',#47,31.133974596215570);
#49=LINE('',#46,#48);
#50=CARTESIAN_POINT('',(3.0,18.866025403784430,0.0));
#51=TRIMMED_CURVE('',#49,(PARAMETER_VALUE(0.0),#46),(PARAMETER_VALUE(1.0),#50),.T.,.PARAMETER.);
#52=CARTESIAN_POINT('',(0.0,0.0,0.0));
#53=DIRECTION('',(1.0,0.0,0.0));
#54=VECTOR('',#53,2.500000000000000);
#55=LINE('',#52,#54);
#56=CARTESIAN_POINT('',(2.500000000000000,0.0,0.0));
#57=TRIMMED_CURVE('',#55,(PARAMETER_VALUE(0.0),#52),(PARAMETER_VALUE(1.0),#56),.T.,.PARAMETER.);
#58=CARTESIAN_POINT('',(2.500000000000000,0.0,0.0));
#59=DIRECTION('',(0.0,1.0,0.0));
#60=VECTOR('',#59,15.0);
#61=LINE('',#58,#60);
#62=CARTESIAN_POINT('',(2.500000000000001,15.0,0.0));
#63=TRIMMED_CURVE('',#61,(PARAMETER_VALUE(0.0),#58),(PARAMETER_VALUE(1.0),#62),.T.,.PARAMETER.);
#64=CARTESIAN_POINT('',(2.500000000000000,15.0,0.0));
#65=DIRECTION('',(0.0,1.0,0.0));
#66=VECTOR('',#65,2.0);
#67=LINE('',#64,#66);
#68=CARTESIAN_POINT('',(2.500000000000000,17.0,0.0));
#69=TRIMMED_CURVE('',#67,(PARAMETER_VALUE(0.0),#64),(PARAMETER_VALUE(1.0),#68),.T.,.PARAMETER.);
#70=CARTESIAN_POINT('',(2.500000000000000,17.0,0.0));
#71=DIRECTION('',(0.258819045102522,0.965925826289068,0.0));
#72=VECTOR('',#71,1.931851652578129);
#73=LINE('',#70,#72);
#74=CARTESIAN_POINT('',(3.0,18.866025403784430,0.0));
#75=TRIMMED_CURVE('',#73,(PARAMETER_VALUE(0.0),#70),(PARAMETER_VALUE(1.0),#74),.T.,.PARAMETER.);
#76=CARTESIAN_POINT('',(0.0,0.0,0.0));
#77=DIRECTION('',(0.0,1.0,0.0));
#78=VECTOR('',#77,50.0);
#79=LINE('',#76,#78);
#80=CARTESIAN_POINT('',(3.061617E-15,50.0,0.0));
#81=TRIMMED_CURVE('',#79,(PARAMETER_VALUE(0.0),#76),(PARAMETER_VALUE(1.0),#80),.T.,.PARAMETER.);
#82=CARTESIAN_POINT('',(5.624099E-33,50.0,0.0));
#83=DIRECTION('',(6.123234E-17,1.0,0.0));
#84=DIRECTION('',(-1.0,6.123234E-17,0.0));
#85=AXIS2_PLACEMENT_3D('',#82,#83,#84);
#86=PLANE('',#85);
#87=CARTESIAN_POINT('',(-2.999999999999994,50.0,0.0));
#88=VERTEX_POINT('',#87);
#89=CARTESIAN_POINT('',(6.123234E-15,50.0,0.0));
#90=DIRECTION('',(6.123234E-17,1.0,0.0));
#91=DIRECTION('',(-1.0,6.123234E-17,0.0));
#92=AXIS2_PLACEMENT_3D('',#89,#90,#91);
#93=CIRCLE('',#92,2.999999999999997);
#94=EDGE_CURVE('',#88,#88,#93,.T.);
#95=ORIENTED_EDGE('',*,*,#94,.T.);
#96=EDGE_LOOP('',(#95));
#97=FACE_OUTER_BOUND('',#96,.T.);
#98=ADVANCED_FACE('',(#97),#86,.T.);
#99=CARTESIAN_POINT('',(3.061617E-15,50.0,0.0));
#100=DIRECTION('',(6.123234E-17,1.0,0.0));
#101=DIRECTION('',(-1.0,6.123234E-17,0.0));
#102=AXIS2_PLACEMENT_3D('',#99,#100,#101);
#103=CYLINDRICAL_SURFACE('',#102,2.999999999999998);
#104=CARTESIAN_POINT('',(-2.999999999999997,18.866025403784430,0.0));
#105=VERTEX_POINT('',#104);
#106=CARTESIAN_POINT('',(2.310422E-15,18.866025403784430,0.0));
#107=DIRECTION('',(6.123234E-17,1.0,0.0));
#108=DIRECTION('',(-1.0,6.123234E-17,0.0));
#109=AXIS2_PLACEMENT_3D('',#106,#107,#108);
#110=CIRCLE('',#109,2.999999999999999);
#111=EDGE_CURVE('',#105,#105,#110,.T.);
#112=ORIENTED_EDGE('',*,*,#111,.T.);
#113=EDGE_LOOP('',(#112));
#114=FACE_BOUND('',#113,.T.);
#115=ORIENTED_EDGE('',*,*,#94,.F.);
#116=EDGE_LOOP('',(#115));
#117=FACE_BOUND('',#116,.T.);
#118=ADVANCED_FACE('',(#114,#117),#103,.T.);
#119=CARTESIAN_POINT('',(1.040950E-15,17.0,0.0));
#120=DIRECTION('',(6.123234E-17,1.0,0.0));
#121=DIRECTION('',(-1.0,6.123234E-17,0.0));
#122=AXIS2_PLACEMENT_3D('',#119,#120,#121);
#123=CONICAL_SURFACE('',#122,2.499999999999999,15.000000000000034);
#124=ORIENTED_EDGE('',*,*,#111,.F.);
#125=EDGE_LOOP('',(#124));
#126=FACE_OUTER_BOUND('',#125,.T.);
#127=CARTESIAN_POINT('',(-2.499999999999998,17.0,0.0));
#128=VERTEX_POINT('',#127);
#129=CARTESIAN_POINT('',(2.081900E-15,17.0,0.0));
#130=DIRECTION('',(6.123234E-17,1.0,0.0));
#131=DIRECTION('',(-1.0,6.123234E-17,0.0));
#132=AXIS2_PLACEMENT_3D('',#129,#130,#131);
#133=CIRCLE('',#132,2.499999999999999);
#134=EDGE_CURVE('',#128,#128,#133,.T.);
#135=ORIENTED_EDGE('',*,*,#134,.T.);
#136=EDGE_LOOP('',(#135));
#137=FACE_BOUND('',#136,.T.);
#138=ADVANCED_FACE('',(#126,#137),#123,.T.);
#139=CARTESIAN_POINT('',(3.061617E-15,50.0,0.0));
#140=DIRECTION('',(6.123234E-17,1.0,0.0));
#141=DIRECTION('',(-1.0,6.123234E-17,0.0));
#142=AXIS2_PLACEMENT_3D('',#139,#140,#141);
#143=CYLINDRICAL_SURFACE('',#142,2.500000000000000);
#144=ORIENTED_EDGE('',*,*,#134,.F.);
#145=EDGE_LOOP('',(#144));
#146=FACE_BOUND('',#145,.T.);
#147=CARTESIAN_POINT('',(-2.499999999999999,15.0,0.0));
#148=VERTEX_POINT('',#147);
#149=CARTESIAN_POINT('',(1.836970E-15,15.0,0.0));
#150=DIRECTION('',(6.123234E-17,1.0,0.0));
#151=DIRECTION('',(-1.0,6.123234E-17,0.0));
#152=AXIS2_PLACEMENT_3D('',#149,#150,#151);
#153=CIRCLE('',#152,2.500000000000000);
#154=EDGE_CURVE('',#148,#148,#153,.T.);
#155=ORIENTED_EDGE('',*,*,#154,.T.);
#156=EDGE_LOOP('',(#155));
#157=FACE_BOUND('',#156,.T.);
#158=ADVANCED_FACE('',(#146,#157),#143,.T.);
#159=CARTESIAN_POINT('',(3.061617E-15,50.0,0.0));
#160=DIRECTION('',(6.123234E-17,1.0,0.0));
#161=DIRECTION('',(-1.0,6.123234E-17,0.0));
#162=AXIS2_PLACEMENT_3D('',#159,#160,#161);
#163=CYLINDRICAL_SURFACE('',#162,2.500000000000000);
#164=ORIENTED_EDGE('',*,*,#154,.F.);
#165=EDGE_LOOP('',(#164));
#166=FACE_BOUND('',#165,.T.);
#167=CARTESIAN_POINT('',(-2.500000000000000,1.530808E-16,0.0));
#168=VERTEX_POINT('',#167);
#169=CARTESIAN_POINT('',(0.0,0.0,0.0));
#170=DIRECTION('',(6.123234E-17,1.0,0.0));
#171=DIRECTION('',(-1.0,6.123234E-17,0.0));
#172=AXIS2_PLACEMENT_3D('',#169,#170,#171);
#173=CIRCLE('',#172,2.500000000000000);
#174=EDGE_CURVE('',#168,#168,#173,.T.);
#175=ORIENTED_EDGE('',*,*,#174,.T.);
#176=EDGE_LOOP('',(#175));
#177=FACE_BOUND('',#176,.T.);
#178=ADVANCED_FACE('',(#166,#177),#163,.T.);
#179=CARTESIAN_POINT('',(4.686749E-33,7.654042E-17,0.0));
#180=DIRECTION('',(6.123234E-17,1.0,0.0));
#181=DIRECTION('',(-1.0,6.123234E-17,0.0));
#182=AXIS2_PLACEMENT_3D('',#179,#180,#181);
#183=PLANE('',#182);
#184=ORIENTED_EDGE('',*,*,#174,.F.);
#185=EDGE_LOOP('',(#184));
#186=FACE_OUTER_BOUND('',#185,.T.);
#187=ADVANCED_FACE('',(#186),#183,.F.);
#188=CLOSED_SHELL('',(#98,#118,#138,#158,#178,#187));
#189=MANIFOLD_SOLID_BREP('',#188);
#190=ADVANCED_BREP_SHAPE_REPRESENTATION('',(#189),#28);
#191=SHAPE_REPRESENTATION_RELATIONSHIP('','',#190,#38);
#192=GEOMETRIC_SET('',(#45,#51,#57,#63,#69,#75,#81));
#193=GEOMETRICALLY_BOUNDED_SURFACE_SHAPE_REPRESENTATION('',(#192),#28);
#194=SHAPE_REPRESENTATION_RELATIONSHIP('','',#193,#38);
#195=COLOUR_RGB('',0.0,0.0,0.501960784313725);
#196=DRAUGHTING_PRE_DEFINED_CURVE_FONT('continuous');
#197=CURVE_STYLE('',#196,POSITIVE_LENGTH_MEASURE(0.100000000000000),#195);
#198=PRESENTATION_STYLE_ASSIGNMENT((#197));
#199=STYLED_ITEM('',(#198),#45);
#200=STYLED_ITEM('',(#198),#51);
#201=STYLED_ITEM('',(#198),#57);
#202=STYLED_ITEM('',(#198),#63);
#203=STYLED_ITEM('',(#198),#69);
#204=STYLED_ITEM('',(#198),#75);
#205=STYLED_ITEM('',(#198),#81);
#206=COLOUR_RGB('',0.501960784313725,0.501960784313725,0.501960784313725);
#207=FILL_AREA_STYLE_COLOUR('',#206);
#208=FILL_AREA_STYLE('',(#207));
#209=SURFACE_STYLE_FILL_AREA(#208);
#210=SURFACE_SIDE_STYLE('',(#209));
#211=SURFACE_STYLE_USAGE(.BOTH.,#210);
#212=PRESENTATION_STYLE_ASSIGNMENT((#211));
#213=STYLED_ITEM('',(#212),#98);
#214=STYLED_ITEM('',(#212),#118);
#215=STYLED_ITEM('',(#212),#138);
#216=STYLED_ITEM('',(#212),#158);
#217=STYLED_ITEM('',(#212),#178);
#218=STYLED_ITEM('',(#212),#187);
#219=STYLED_ITEM('',(#212),#189);
#220=PRESENTATION_LAYER_ASSIGNMENT('Unnamed Level 1','',(#45,#51,#57,#63,#69,#75,#81,#189));
#221=MECHANICAL_DESIGN_GEOMETRIC_PRESENTATION_REPRESENTATION('',(#199,#200,#201,#202,#203,#204,#205,#213,#214,#215,#216,#217,#218,#219),#28);
#222=PRESENTATION_STYLE_ASSIGNMENT((NULL_STYLE(.NULL.)));
#223=DRAUGHTING_MODEL('',(#233,#234),#28);
#224=AXIS2_PLACEMENT_3D('',#225,#226,#227);
#225=CARTESIAN_POINT('',(0.0,0.0,0.0));
#226=DIRECTION('',(0.0,0.0,1.0));
#227=DIRECTION('',(1.0,0.0,0.0));
#228=REPRESENTATION_MAP(#224,#38);
#229=AXIS2_PLACEMENT_3D('',#230,#231,#232);
#230=CARTESIAN_POINT('',(0.0,0.0,0.0));
#231=DIRECTION('',(0.0,0.0,1.0));
#232=DIRECTION('',(1.0,0.0,0.0));
#233=MAPPED_ITEM('',#228,#229);
#234=STYLED_ITEM('',(#222),#233);
ENDSEC;
END-ISO-10303-21;
