  0
SECTION
  2
HEADER
  9
$ACADVER
  1
AC1009
  9
$DWGCODEPAGE
  3
ansi_1252
  9
$INSBASE
 10
0.0
 20
0.0
 30
0.0
  9
$EXTMIN
 10
1.000000000000000E+20
 20
1.000000000000000E+20
 30
1.000000000000000E+20
  9
$EXTMAX
 10
-1.000000000000000E+20
 20
-1.000000000000000E+20
 30
-1.000000000000000E+20
  9
$LIMMIN
 10
0.0
 20
0.0
  9
$LIMMAX
 10
420.0
 20
297.0
  9
$ORTHOMODE
 70
     0
  9
$REGENMODE
 70
     1
  9
$FILLMODE
 70
     1
  9
$QTEXTMODE
 70
     0
  9
$MIRRTEXT
 70
     1
  9
$DRAGMODE
 70
     2
  9
$LTSCALE
 40
1.0
  9
$OSMODE
 70
    37
  9
$ATTMODE
 70
     1
  9
$TEXTSIZE
 40
2.5
  9
$TRACEWID
 40
1.0
  9
$TEXTSTYLE
  7
STANDARD
  9
$CLAYER
  8
0
  9
$CELTYPE
  6
BYLAYER
  9
$CECOLOR
 62
   256
  9
$DIMSCALE
 40
1.0
  9
$DIMASZ
 40
2.5
  9
$DIMEXO
 40
0.625
  9
$DIMDLI
 40
3.75
  9
$DIMRND
 40
0.0
  9
$DIMDLE
 40
0.0
  9
$DIMEXE
 40
1.25
  9
$DIMTP
 40
0.0
  9
$DIMTM
 40
0.0
  9
$DIMTXT
 40
2.5
  9
$DIMCEN
 40
2.5
  9
$DIMTSZ
 40
0.0
  9
$DIMTOL
 70
     0
  9
$DIMLIM
 70
     0
  9
$DIMTIH
 70
     0
  9
$DIMTOH
 70
     0
  9
$DIMSE1
 70
     0
  9
$DIMSE2
 70
     0
  9
$DIMTAD
 70
     1
  9
$DIMZIN
 70
     8
  9
$DIMBLK
  1

  9
$DIMASO
 70
     1
  9
$DIMSHO
 70
     1
  9
$DIMPOST
  1

  9
$DIMAPOST
  1

  9
$DIMALT
 70
     0
  9
$DIMALTD
 70
     3
  9
$DIMALTF
 40
0.03937007874016
  9
$DIMLFAC
 40
1.0
  9
$DIMTOFL
 70
     1
  9
$DIMTVP
 40
0.0
  9
$DIMTIX
 70
     0
  9
$DIMSOXD
 70
     0
  9
$DIMSAH
 70
     0
  9
$DIMBLK1
  1

  9
$DIMBLK2
  1

  9
$DIMSTYLE
  2
ISO-25
  9
$DIMCLRD
 70
     0
  9
$DIMCLRE
 70
     0
  9
$DIMCLRT
 70
     0
  9
$DIMTFAC
 40
1.0
  9
$DIMGAP
 40
0.625
  9
$LUNITS
 70
     2
  9
$LUPREC
 70
     4
  9
$SKETCHINC
 40
1.0
  9
$FILLETRAD
 40
10.0
  9
$AUNITS
 70
     0
  9
$AUPREC
 70
     0
  9
$MENU
  1
.
  9
$ELEVATION
 40
0.0
  9
$PELEVATION
 40
0.0
  9
$THICKNESS
 40
0.0
  9
$LIMCHECK
 70
     0
  9
$CHAMFERA
 40
0.0
  9
$CHAMFERB
 40
0.0
  9
$SKPOLY
 70
     0
  9
$TDCREATE
 40
2459271.567356794
  9
$TDUPDATE
 40
2459271.567357083
  9
$TDINDWG
 40
0.0000000116
  9
$TDUSRTIMER
 40
0.0000000116
  9
$USRTIMER
 70
     1
  9
$ANGBASE
 50
0.0
  9
$ANGDIR
 70
     0
  9
$PDMODE
 70
     0
  9
$PDSIZE
 40
0.0
  9
$PLINEWID
 40
0.0
  9
$COORDS
 70
     1
  9
$SPLFRAME
 70
     0
  9
$SPLINETYPE
 70
     6
  9
$SPLINESEGS
 70
     8
  9
$ATTDIA
 70
     0
  9
$ATTREQ
 70
     1
  9
$HANDLING
 70
     1
  9
$HANDSEED
  5
7D7
  9
$SURFTAB1
 70
     6
  9
$SURFTAB2
 70
     6
  9
$SURFTYPE
 70
     6
  9
$SURFU
 70
     6
  9
$SURFV
 70
     6
  9
$UCSNAME
  2

  9
$UCSORG
 10
0.0
 20
0.0
 30
0.0
  9
$UCSXDIR
 10
1.0
 20
0.0
 30
0.0
  9
$UCSYDIR
 10
0.0
 20
1.0
 30
0.0
  9
$PUCSNAME
  2

  9
$PUCSORG
 10
0.0
 20
0.0
 30
0.0
  9
$PUCSXDIR
 10
1.0
 20
0.0
 30
0.0
  9
$PUCSYDIR
 10
0.0
 20
1.0
 30
0.0
  9
$USERI1
 70
     0
  9
$USERI2
 70
     0
  9
$USERI3
 70
     0
  9
$USERI4
 70
     0
  9
$USERI5
 70
     0
  9
$USERR1
 40
0.0
  9
$USERR2
 40
0.0
  9
$USERR3
 40
0.0
  9
$USERR4
 40
0.0
  9
$USERR5
 40
0.0
  9
$WORLDVIEW
 70
     1
  9
$SHADEDGE
 70
     3
  9
$SHADEDIF
 70
    70
  9
$TILEMODE
 70
     1
  9
$MAXACTVP
 70
    64
  9
$PLIMCHECK
 70
     0
  9
$PEXTMIN
 10
1.000000000000000E+20
 20
1.000000000000000E+20
 30
1.000000000000000E+20
  9
$PEXTMAX
 10
-1.000000000000000E+20
 20
-1.000000000000000E+20
 30
-1.000000000000000E+20
  9
$PLIMMIN
 10
0.0
 20
0.0
  9
$PLIMMAX
 10
420.0
 20
297.0
  9
$UNITMODE
 70
     0
  9
$VISRETAIN
 70
     1
  9
$PLINEGEN
 70
     0
  9
$PSLTSCALE
 70
     1
  0
ENDSEC
  0
SECTION
  2
TABLES
  0
TABLE
  2
VPORT
 70
     1
  0
VPORT
  2
*ACTIVE
 70
     0
 10
0.0
 20
0.0
 11
1.0
 21
1.0
 12
344.1869158878504
 22
148.5
 13
0.0
 23
0.0
 14
10.0
 24
10.0
 15
10.0
 25
10.0
 16
0.0
 26
0.0
 36
1.0
 17
0.0
 27
0.0
 37
0.0
 40
297.0
 41
1.972972972850329
 42
50.0
 43
0.0
 44
0.0
 50
0.0
 51
0.0
 71
     0
 72
   100
 73
     1
 74
     3
 75
     0
 76
     0
 77
     0
 78
     0
  0
ENDTAB
  0
TABLE
  2
LTYPE
 70
    17
  0
LTYPE
  2
CONTINUOUS
 70
     0
  3
Solid line
 72
    65
 73
     0
 40
0.0
  0
LTYPE
  2
HCS_00
 70
     0
  3
_______________
 72
    65
 73
     0
 40
0.0
  0
LTYPE
  2
HCS_01
 70
     0
  3
_______________
 72
    65
 73
     0
 40
0.0
  0
LTYPE
  2
HCS_02
 70
     0
  3
_ _ _ _ _ _ _ _ _ _ _ _ _ _ 
 72
    65
 73
     2
 40
10.0
 49
5.0
 49
-5.0
  0
LTYPE
  2
HCS_03
 70
     0
  3
_   _   _   _   _   _   _   
 72
    65
 73
     2
 40
3.3
 49
2.5
 49
-7.5
  0
LTYPE
  2
HCS_04
 70
     0
  3
_____ _ _____ _ _____ _ _____ _ 
 72
    65
 73
     4
 40
10.0
 49
6.25
 49
-1.25
 49
1.25
 49
-1.25
  0
LTYPE
  2
HCS_05
 70
     0
  3
___ _ _ ___ _ _ ___ _ _ ___ _ _ 
 72
    65
 73
     6
 40
10.0
 49
3.75
 49
-1.25
 49
1.25
 49
-1.25
 49
1.25
 49
-1.25
  0
LTYPE
  2
HCS_06
 70
     0
  3
___ . ___ . ___ . ___ . ___ . ___ . 
 72
    65
 73
     4
 40
10.0
 49
5.625
 49
-1.875
 49
0.625
 49
-1.875
  0
LTYPE
  2
HCS_07
 70
     0
  3
____ . . ____ . . ____ . . ____ . . 
 72
    65
 73
     6
 40
10.0
 49
5.0
 49
-1.25
 49
0.625
 49
-1.25
 49
0.625
 49
-1.25
  0
LTYPE
  2
HCS_08
 70
     0
  3
__ . _ . __ . _ . __ . _ . __ . _ . 
 72
    65
 73
     8
 40
10.0
 49
2.5
 49
-1.25
 49
0.625
 49
-1.25
 49
1.25
 49
-1.25
 49
0.625
 49
-1.25
  0
LTYPE
  2
HCS_09
 70
     0
  3
_____   _____   _____   _____    
 72
    65
 73
     2
 40
10.0
 49
6.25
 49
-3.75
  0
LTYPE
  2
HCS_10
 70
     0
  3
______   ______   ______   ______   
 72
    65
 73
     2
 40
10.0
 49
6.875
 49
-3.125
  0
LTYPE
  2
HCS_11
 70
     0
  3
___      ___      ___      ___      
 72
    65
 73
     2
 40
10.0
 49
3.125
 49
-6.875
  0
LTYPE
  2
HCS_12
 70
     0
  3
_____   _____   _____   _____   
 72
    65
 73
     2
 40
10.0
 49
5.625
 49
-4.375
  0
LTYPE
  2
HCS_13
 70
     0
  3
____    ____    ____    ____    
 72
    65
 73
     2
 40
10.0
 49
5.0
 49
-5.0
  0
LTYPE
  2
HCS_14
 70
     0
  3
__      __      __      __      
 72
    65
 73
     2
 40
10.0
 49
2.5
 49
-7.5
  0
LTYPE
  2
HCS_15
 70
     0
  3
_______________
 72
    65
 73
     0
 40
0.0
  0
ENDTAB
  0
TABLE
  2
LAYER
 70
     2
  0
LAYER
  2
0
 70
     0
 62
     7
  6
CONTINUOUS
  0
LAYER
  2
UNNAMED_LEVEL_1
 70
     0
 62
     7
  6
CONTINUOUS
  0
ENDTAB
  0
TABLE
  2
STYLE
 70
     1
  0
STYLE
  2
STANDARD
 70
     0
 40
0.0
 41
1.0
 50
0.0
 71
     0
 42
2.5
  3
txt
  4

  0
ENDTAB
  0
TABLE
  2
VIEW
 70
     0
  0
ENDTAB
  0
TABLE
  2
UCS
 70
     0
  0
ENDTAB
  0
TABLE
  2
APPID
 70
     2
  0
APPID
  2
ACAD
 70
     0
  0
APPID
  2
ACAECLAYERSTANDARD
 70
     0
  0
ENDTAB
  0
TABLE
  2
DIMSTYLE
 70
     1
  0
DIMSTYLE
  2
ISO-25
 70
     0
  3

  4

  5

  6

  7

 40
1.0
 41
2.5
 42
0.625
 43
3.75
 44
1.25
 45
0.0
 46
0.0
 47
0.0
 48
0.0
140
2.5
141
2.5
142
0.0
143
0.03937007874016
144
1.0
145
0.0
146
1.0
147
0.625
 71
     0
 72
     0
 73
     0
 74
     0
 75
     0
 76
     0
 77
     1
 78
     8
170
     0
171
     3
172
     1
173
     0
174
     0
175
     0
176
     0
177
     0
178
     0
  0
ENDTAB
  0
ENDSEC
  0
SECTION
  2
BLOCKS
  0
BLOCK
  8
0
  2
$MODEL_SPACE
 70
     0
 10
0.0
 20
0.0
 30
0.0
  3
$MODEL_SPACE
  1

  0
ENDBLK
  5
21
  8
0
  0
BLOCK
 67
     1
  8
0
  2
$PAPER_SPACE
 70
     0
 10
0.0
 20
0.0
 30
0.0
  3
$PAPER_SPACE
  1

  0
ENDBLK
  5
1D
 67
     1
  8
0
  0
BLOCK
  8
0
  2
GROUP_17
 70
     0
 10
0.0
 20
0.0
 30
0.0
  3
GROUP_17
  1

  0
LINE
  5
A4
  8
0
  6
HCS_01
 62
     7
 10
-3.0
 20
54.15464019775391
 30
0.0099999997764826
 11
-3.0
 21
52.0
 31
0.0099999997764826
  0
LINE
  5
A5
  8
0
  6
HCS_01
 62
     7
 10
3.0
 20
54.15464019775391
 30
0.0099999997764826
 11
3.0
 21
52.0
 31
0.0099999997764826
  0
LINE
  5
A6
  8
0
  6
HCS_01
 62
     7
 10
-10.5
 20
51.15464019775391
 30
0.0099999997764826
 11
13.55539989471436
 21
51.15464019775391
 31
0.0099999997764826
  0
POLYLINE
  5
A7
  8
0
  6
HCS_01
 62
     7
 66
     1
 10
0.0
 20
0.0
 30
0.0
 70
    64
 71
   315
 72
   105
  0
VERTEX
  5
A8
  8
0
  6
HCS_01
 62
     7
 10
15.90876865386963
 20
52.36818695068359
 30
0.0099999997764826
 70
   192
  0
VERTEX
  5
A9
  8
0
  6
HCS_01
 62
     7
 10
15.72155094146729
 20
52.38271331787109
 30
0.0099999997764826
 70
   192
  0
VERTEX
  5
AA
  8
0
  6
HCS_01
 62
     7
 10
15.72542476654053
 20
52.19807815551758
 30
0.0099999997764826
 70
   192
  0
VERTEX
  5
AB
  8
0
  6
HCS_01
 62
     7
 10
15.90876865386963
 20
52.36818695068359
 30
0.0099999997764826
 70
   192
  0
VERTEX
  5
AC
  8
0
  6
HCS_01
 62
     7
 10
15.72542476654053
 20
52.19807815551758
 30
0.0099999997764826
 70
   192
  0
VERTEX
  5
AD
  8
0
  6
HCS_01
 62
     7
 10
15.89166069030762
 20
52.17839050292969
 30
0.0099999997764826
 70
   192
  0
VERTEX
  5
AE
  8
0
  6
HCS_01
 62
     7
 10
15.90876865386963
 20
52.36818695068359
 30
0.0099999997764826
 70
   192
  0
VERTEX
  5
AF
  8
0
  6
HCS_01
 62
     7
 10
15.89166069030762
 20
52.17839050292969
 30
0.0099999997764826
 70
   192
  0
VERTEX
  5
B0
  8
0
  6
HCS_01
 62
     7
 10
16.05208778381348
 20
52.11931991577148
 30
0.0099999997764826
 70
   192
  0
VERTEX
  5
B1
  8
0
  6
HCS_01
 62
     7
 10
15.90876865386963
 20
52.36818695068359
 30
0.0099999997764826
 70
   192
  0
VERTEX
  5
B2
  8
0
  6
HCS_01
 62
     7
 10
16.05208778381348
 20
52.11931991577148
 30
0.0099999997764826
 70
   192
  0
VERTEX
  5
B3
  8
0
  6
HCS_01
 62
     7
 10
16.05208778381348
 20
52.32461166381836
 30
0.0099999997764826
 70
   192
  0
VERTEX
  5
B4
  8
0
  6
HCS_01
 62
     7
 10
15.17281055450439
 20
51.67532348632812
 30
0.0099999997764826
 70
   192
  0
VERTEX
  5
B5
  8
0
  6
HCS_01
 62
     7
 10
15.29159641265869
 20
51.95727920532227
 30
0.0099999997764826
 70
   192
  0
VERTEX
  5
B6
  8
0
  6
HCS_01
 62
     7
 10
15.37971782684326
 20
52.30169296264648
 30
0.0099999997764826
 70
   192
  0
VERTEX
  5
B7
  8
0
  6
HCS_01
 62
     7
 10
15.47945976257324
 20
52.13787841796875
 30
0.0099999997764826
 70
   192
  0
VERTEX
  5
B8
  8
0
  6
HCS_01
 62
     7
 10
15.37971782684326
 20
52.30169296264648
 30
0.0099999997764826
 70
   192
  0
VERTEX
  5
B9
  8
0
  6
HCS_01
 62
     7
 10
15.29159641265869
 20
51.95727920532227
 30
0.0099999997764826
 70
   192
  0
VERTEX
  5
BA
  8
0
  6
HCS_01
 62
     7
 10
15.37971782684326
 20
52.30169296264648
 30
0.0099999997764826
 70
   192
  0
VERTEX
  5
BB
  8
0
  6
HCS_01
 62
     7
 10
15.47945976257324
 20
52.13787841796875
 30
0.0099999997764826
 70
   192
  0
VERTEX
  5
BC
  8
0
  6
HCS_01
 62
     7
 10
15.72155094146729
 20
52.38271331787109
 30
0.0099999997764826
 70
   192
  0
VERTEX
  5
BD
  8
0
  6
HCS_01
 62
     7
 10
15.72542476654053
 20
52.19807815551758
 30
0.0099999997764826
 70
   192
  0
VERTEX
  5
BE
  8
0
  6
HCS_01
 62
     7
 10
15.72155094146729
 20
52.38271331787109
 30
0.0099999997764826
 70
   192
  0
VERTEX
  5
BF
  8
0
  6
HCS_01
 62
     7
 10
15.47945976257324
 20
52.13787841796875
 30
0.0099999997764826
 70
   192
  0
VERTEX
  5
C0
  8
0
  6
HCS_01
 62
     7
 10
15.17781352996826
 20
50.80831146240234
 30
0.0099999997764826
 70
   192
  0
VERTEX
  5
C1
  8
0
  6
HCS_01
 62
     7
 10
15.14956951141357
 20
51.00376129150391
 30
0.0099999997764826
 70
   192
  0
VERTEX
  5
C2
  8
0
  6
HCS_01
 62
     7
 10
15.07403659820557
 20
50.55960083007812
 30
0.0099999997764826
 70
   192
  0
VERTEX
  5
C3
  8
0
  6
HCS_01
 62
     7
 10
15.13407516479492
 20
51.31105422973633
 30
0.0099999997764826
 70
   192
  0
VERTEX
  5
C4
  8
0
  6
HCS_01
 62
     7
 10
15.07403659820557
 20
50.55960083007812
 30
0.0099999997764826
 70
   192
  0
VERTEX
  5
C5
  8
0
  6
HCS_01
 62
     7
 10
15.14956951141357
 20
51.00376129150391
 30
0.0099999997764826
 70
   192
  0
VERTEX
  5
C6
  8
0
  6
HCS_01
 62
     7
 10
15.07403659820557
 20
50.55960083007812
 30
0.0099999997764826
 70
   192
  0
VERTEX
  5
C7
  8
0
  6
HCS_01
 62
     7
 10
15.13407516479492
 20
51.31105422973633
 30
0.0099999997764826
 70
   192
  0
VERTEX
  5
C8
  8
0
  6
HCS_01
 62
     7
 10
15.12374591827393
 20
52.05863571166992
 30
0.0099999997764826
 70
   192
  0
VERTEX
  5
C9
  8
0
  6
HCS_01
 62
     7
 10
15.17281055450439
 20
51.67532348632812
 30
0.0099999997764826
 70
   192
  0
VERTEX
  5
CA
  8
0
  6
HCS_01
 62
     7
 10
15.12374591827393
 20
52.05863571166992
 30
0.0099999997764826
 70
   192
  0
VERTEX
  5
CB
  8
0
  6
HCS_01
 62
     7
 10
15.13407516479492
 20
51.31105422973633
 30
0.0099999997764826
 70
   192
  0
VERTEX
  5
CC
  8
0
  6
HCS_01
 62
     7
 10
15.12374591827393
 20
52.05863571166992
 30
0.0099999997764826
 70
   192
  0
VERTEX
  5
CD
  8
0
  6
HCS_01
 62
     7
 10
15.17281055450439
 20
51.67532348632812
 30
0.0099999997764826
 70
   192
  0
VERTEX
  5
CE
  8
0
  6
HCS_01
 62
     7
 10
15.37971782684326
 20
52.30169296264648
 30
0.0099999997764826
 70
   192
  0
VERTEX
  5
CF
  8
0
  6
HCS_01
 62
     7
 10
16.1734561920166
 20
50.97922897338867
 30
0.0099999997764826
 70
   192
  0
VERTEX
  5
D0
  8
0
  6
HCS_01
 62
     7
 10
16.13439750671387
 20
51.23003387451172
 30
0.0099999997764826
 70
   192
  0
VERTEX
  5
D1
  8
0
  6
HCS_01
 62
     7
 10
16.12955665588379
 20
50.71792984008789
 30
0.0099999997764826
 70
   192
  0
VERTEX
  5
D2
  8
0
  6
HCS_01
 62
     7
 10
16.01722526550293
 20
51.4272575378418
 30
0.0099999997764826
 70
   192
  0
VERTEX
  5
D3
  8
0
  6
HCS_01
 62
     7
 10
16.12955665588379
 20
50.71792984008789
 30
0.0099999997764826
 70
   192
  0
VERTEX
  5
D4
  8
0
  6
HCS_01
 62
     7
 10
16.13439750671387
 20
51.23003387451172
 30
0.0099999997764826
 70
   192
  0
VERTEX
  5
D5
  8
0
  6
HCS_01
 62
     7
 10
16.12955665588379
 20
50.71792984008789
 30
0.0099999997764826
 70
   192
  0
VERTEX
  5
D6
  8
0
  6
HCS_01
 62
     7
 10
16.01722526550293
 20
51.4272575378418
 30
0.0099999997764826
 70
   192
  0
VERTEX
  5
D7
  8
0
  6
HCS_01
 62
     7
 10
15.99785804748535
 20
50.50472640991211
 30
0.0099999997764826
 70
   192
  0
VERTEX
  5
D8
  8
0
  6
HCS_01
 62
     7
 10
15.95137691497803
 20
50.95211410522461
 30
0.0099999997764826
 70
   192
  0
VERTEX
  5
D9
  8
0
  6
HCS_01
 62
     7
 10
15.99785804748535
 20
50.50472640991211
 30
0.0099999997764826
 70
   192
  0
VERTEX
  5
DA
  8
0
  6
HCS_01
 62
     7
 10
16.01722526550293
 20
51.4272575378418
 30
0.0099999997764826
 70
   192
  0
VERTEX
  5
DB
  8
0
  6
HCS_01
 62
     7
 10
15.99785804748535
 20
50.50472640991211
 30
0.0099999997764826
 70
   192
  0
VERTEX
  5
DC
  8
0
  6
HCS_01
 62
     7
 10
15.95137691497803
 20
50.95211410522461
 30
0.0099999997764826
 70
   192
  0
VERTEX
  5
DD
  8
0
  6
HCS_01
 62
     7
 10
15.92426300048828
 20
50.77361297607422
 30
0.0099999997764826
 70
   192
  0
VERTEX
  5
DE
  8
0
  6
HCS_01
 62
     7
 10
15.39860057830811
 20
51.38335800170898
 30
0.0099999997764826
 70
   192
  0
VERTEX
  5
DF
  8
0
  6
HCS_01
 62
     7
 10
15.55499267578125
 20
51.41305541992188
 30
0.0099999997764826
 70
   192
  0
VERTEX
  5
E0
  8
0
  6
HCS_01
 62
     7
 10
15.59889125823975
 20
51.59769058227539
 30
0.0099999997764826
 70
   192
  0
VERTEX
  5
E1
  8
0
  6
HCS_01
 62
     7
 10
15.71993732452393
 20
51.38271331787109
 30
0.0099999997764826
 70
   192
  0
VERTEX
  5
E2
  8
0
  6
HCS_01
 62
     7
 10
15.59889125823975
 20
51.59769058227539
 30
0.0099999997764826
 70
   192
  0
VERTEX
  5
E3
  8
0
  6
HCS_01
 62
     7
 10
15.55499267578125
 20
51.41305541992188
 30
0.0099999997764826
 70
   192
  0
VERTEX
  5
E4
  8
0
  6
HCS_01
 62
     7
 10
15.59889125823975
 20
51.59769058227539
 30
0.0099999997764826
 70
   192
  0
VERTEX
  5
E5
  8
0
  6
HCS_01
 62
     7
 10
15.71993732452393
 20
51.38271331787109
 30
0.0099999997764826
 70
   192
  0
VERTEX
  5
E6
  8
0
  6
HCS_01
 62
     7
 10
15.83452701568604
 20
51.55508422851562
 30
0.0099999997764826
 70
   192
  0
VERTEX
  5
E7
  8
0
  6
HCS_01
 62
     7
 10
15.84550189971924
 20
51.29168701171875
 30
0.0099999997764826
 70
   192
  0
VERTEX
  5
E8
  8
0
  6
HCS_01
 62
     7
 10
15.83452701568604
 20
51.55508422851562
 30
0.0099999997764826
 70
   192
  0
VERTEX
  5
E9
  8
0
  6
HCS_01
 62
     7
 10
15.71993732452393
 20
51.38271331787109
 30
0.0099999997764826
 70
   192
  0
VERTEX
  5
EA
  8
0
  6
HCS_01
 62
     7
 10
15.83452701568604
 20
51.55508422851562
 30
0.0099999997764826
 70
   192
  0
VERTEX
  5
EB
  8
0
  6
HCS_01
 62
     7
 10
15.84550189971924
 20
51.29168701171875
 30
0.0099999997764826
 70
   192
  0
VERTEX
  5
EC
  8
0
  6
HCS_01
 62
     7
 10
16.01722526550293
 20
51.4272575378418
 30
0.0099999997764826
 70
   192
  0
VERTEX
  5
ED
  8
0
  6
HCS_01
 62
     7
 10
15.92490863800049
 20
51.14611053466797
 30
0.0099999997764826
 70
   192
  0
VERTEX
  5
EE
  8
0
  6
HCS_01
 62
     7
 10
16.01722526550293
 20
51.4272575378418
 30
0.0099999997764826
 70
   192
  0
VERTEX
  5
EF
  8
0
  6
HCS_01
 62
     7
 10
15.84550189971924
 20
51.29168701171875
 30
0.0099999997764826
 70
   192
  0
VERTEX
  5
F0
  8
0
  6
HCS_01
 62
     7
 10
16.01722526550293
 20
51.4272575378418
 30
0.0099999997764826
 70
   192
  0
VERTEX
  5
F1
  8
0
  6
HCS_01
 62
     7
 10
15.92490863800049
 20
51.14611053466797
 30
0.0099999997764826
 70
   192
  0
VERTEX
  5
F2
  8
0
  6
HCS_01
 62
     7
 10
15.95137691497803
 20
50.95211410522461
 30
0.0099999997764826
 70
   192
  0
VERTEX
  5
F3
  8
0
  6
HCS_01
 62
     7
 10
15.32419776916504
 20
51.52603149414062
 30
0.0099999997764826
 70
   192
  0
VERTEX
  5
F4
  8
0
  6
HCS_01
 62
     7
 10
15.14053153991699
 20
51.31105422973633
 30
0.0099999997764826
 70
   192
  0
VERTEX
  5
F5
  8
0
  6
HCS_01
 62
     7
 10
15.17910480499268
 20
51.16225051879883
 30
0.0099999997764826
 70
   192
  0
VERTEX
  5
F6
  8
0
  6
HCS_01
 62
     7
 10
15.32419776916504
 20
51.52603149414062
 30
0.0099999997764826
 70
   192
  0
VERTEX
  5
F7
  8
0
  6
HCS_01
 62
     7
 10
15.17910480499268
 20
51.16225051879883
 30
0.0099999997764826
 70
   192
  0
VERTEX
  5
F8
  8
0
  6
HCS_01
 62
     7
 10
15.26770973205566
 20
51.29426956176758
 30
0.0099999997764826
 70
   192
  0
VERTEX
  5
F9
  8
0
  6
HCS_01
 62
     7
 10
15.32419776916504
 20
51.52603149414062
 30
0.0099999997764826
 70
   192
  0
VERTEX
  5
FA
  8
0
  6
HCS_01
 62
     7
 10
15.26770973205566
 20
51.29426956176758
 30
0.0099999997764826
 70
   192
  0
VERTEX
  5
FB
  8
0
  6
HCS_01
 62
     7
 10
15.39860057830811
 20
51.38335800170898
 30
0.0099999997764826
 70
   192
  0
VERTEX
  5
FC
  8
0
  6
HCS_01
 62
     7
 10
15.32419776916504
 20
51.52603149414062
 30
0.0099999997764826
 70
   192
  0
VERTEX
  5
FD
  8
0
  6
HCS_01
 62
     7
 10
15.39860057830811
 20
51.38335800170898
 30
0.0099999997764826
 70
   192
  0
VERTEX
  5
FE
  8
0
  6
HCS_01
 62
     7
 10
15.59889125823975
 20
51.59769058227539
 30
0.0099999997764826
 70
   192
  0
VERTEX
  5
FF
  8
0
  6
HCS_01
 62
     7
 10
15.14053153991699
 20
51.31105422973633
 30
0.0099999997764826
 70
   192
  0
VERTEX
  5
100
  8
0
  6
HCS_01
 62
     7
 10
15.13407516479492
 20
51.31105422973633
 30
0.0099999997764826
 70
   192
  0
VERTEX
  5
101
  8
0
  6
HCS_01
 62
     7
 10
15.14956951141357
 20
51.00376129150391
 30
0.0099999997764826
 70
   192
  0
VERTEX
  5
102
  8
0
  6
HCS_01
 62
     7
 10
15.14053153991699
 20
51.31105422973633
 30
0.0099999997764826
 70
   192
  0
VERTEX
  5
103
  8
0
  6
HCS_01
 62
     7
 10
15.14956951141357
 20
51.00376129150391
 30
0.0099999997764826
 70
   192
  0
VERTEX
  5
104
  8
0
  6
HCS_01
 62
     7
 10
15.17910480499268
 20
51.16225051879883
 30
0.0099999997764826
 70
   192
  0
VERTEX
  5
105
  8
0
  6
HCS_01
 62
     7
 10
15.84292030334473
 20
50.62803268432617
 30
0.0099999997764826
 70
   192
  0
VERTEX
  5
106
  8
0
  6
HCS_01
 62
     7
 10
15.7173547744751
 20
50.53119659423828
 30
0.0099999997764826
 70
   192
  0
VERTEX
  5
107
  8
0
  6
HCS_01
 62
     7
 10
15.79805183410645
 20
50.36286163330078
 30
0.0099999997764826
 70
   192
  0
VERTEX
  5
108
  8
0
  6
HCS_01
 62
     7
 10
15.84292030334473
 20
50.62803268432617
 30
0.0099999997764826
 70
   192
  0
VERTEX
  5
109
  8
0
  6
HCS_01
 62
     7
 10
15.79805183410645
 20
50.36286163330078
 30
0.0099999997764826
 70
   192
  0
VERTEX
  5
10A
  8
0
  6
HCS_01
 62
     7
 10
15.99785804748535
 20
50.50472640991211
 30
0.0099999997764826
 70
   192
  0
VERTEX
  5
10B
  8
0
  6
HCS_01
 62
     7
 10
15.84292030334473
 20
50.62803268432617
 30
0.0099999997764826
 70
   192
  0
VERTEX
  5
10C
  8
0
  6
HCS_01
 62
     7
 10
15.99785804748535
 20
50.50472640991211
 30
0.0099999997764826
 70
   192
  0
VERTEX
  5
10D
  8
0
  6
HCS_01
 62
     7
 10
15.92426300048828
 20
50.77361297607422
 30
0.0099999997764826
 70
   192
  0
VERTEX
  5
10E
  8
0
  6
HCS_01
 62
     7
 10
15.26254558563232
 20
50.64546585083008
 30
0.0099999997764826
 70
   192
  0
VERTEX
  5
10F
  8
0
  6
HCS_01
 62
     7
 10
15.27464962005615
 20
50.37657928466797
 30
0.0099999997764826
 70
   192
  0
VERTEX
  5
110
  8
0
  6
HCS_01
 62
     7
 10
15.39279079437256
 20
50.53555297851562
 30
0.0099999997764826
 70
   192
  0
VERTEX
  5
111
  8
0
  6
HCS_01
 62
     7
 10
15.54982757568359
 20
50.31557464599609
 30
0.0099999997764826
 70
   192
  0
VERTEX
  5
112
  8
0
  6
HCS_01
 62
     7
 10
15.39279079437256
 20
50.53555297851562
 30
0.0099999997764826
 70
   192
  0
VERTEX
  5
113
  8
0
  6
HCS_01
 62
     7
 10
15.27464962005615
 20
50.37657928466797
 30
0.0099999997764826
 70
   192
  0
VERTEX
  5
114
  8
0
  6
HCS_01
 62
     7
 10
15.39279079437256
 20
50.53555297851562
 30
0.0099999997764826
 70
   192
  0
VERTEX
  5
115
  8
0
  6
HCS_01
 62
     7
 10
15.54982757568359
 20
50.31557464599609
 30
0.0099999997764826
 70
   192
  0
VERTEX
  5
116
  8
0
  6
HCS_01
 62
     7
 10
15.55757427215576
 20
50.49891662597656
 30
0.0099999997764826
 70
   192
  0
VERTEX
  5
117
  8
0
  6
HCS_01
 62
     7
 10
15.79805183410645
 20
50.36286163330078
 30
0.0099999997764826
 70
   192
  0
VERTEX
  5
118
  8
0
  6
HCS_01
 62
     7
 10
15.55757427215576
 20
50.49891662597656
 30
0.0099999997764826
 70
   192
  0
VERTEX
  5
119
  8
0
  6
HCS_01
 62
     7
 10
15.54982757568359
 20
50.31557464599609
 30
0.0099999997764826
 70
   192
  0
VERTEX
  5
11A
  8
0
  6
HCS_01
 62
     7
 10
15.55757427215576
 20
50.49891662597656
 30
0.0099999997764826
 70
   192
  0
VERTEX
  5
11B
  8
0
  6
HCS_01
 62
     7
 10
15.79805183410645
 20
50.36286163330078
 30
0.0099999997764826
 70
   192
  0
VERTEX
  5
11C
  8
0
  6
HCS_01
 62
     7
 10
15.7173547744751
 20
50.53119659423828
 30
0.0099999997764826
 70
   192
  0
VERTEX
  5
11D
  8
0
  6
HCS_01
 62
     7
 10
15.17781352996826
 20
50.80831146240234
 30
0.0099999997764826
 70
   192
  0
VERTEX
  5
11E
  8
0
  6
HCS_01
 62
     7
 10
15.07403659820557
 20
50.55960083007812
 30
0.0099999997764826
 70
   192
  0
VERTEX
  5
11F
  8
0
  6
HCS_01
 62
     7
 10
15.27464962005615
 20
50.37657928466797
 30
0.0099999997764826
 70
   192
  0
VERTEX
  5
120
  8
0
  6
HCS_01
 62
     7
 10
15.17781352996826
 20
50.80831146240234
 30
0.0099999997764826
 70
   192
  0
VERTEX
  5
121
  8
0
  6
HCS_01
 62
     7
 10
15.27464962005615
 20
50.37657928466797
 30
0.0099999997764826
 70
   192
  0
VERTEX
  5
122
  8
0
  6
HCS_01
 62
     7
 10
15.26254558563232
 20
50.64546585083008
 30
0.0099999997764826
 70
   192
  0
VERTEX
  5
123
  8
0
  6
HCS_01
 62
     7
 10
14.96396541595459
 20
51.68871688842773
 30
0.0099999997764826
 70
   192
  0
VERTEX
  5
124
  8
0
  6
HCS_01
 62
     7
 10
14.91070556640625
 20
51.22713088989258
 30
0.0099999997764826
 70
   192
  0
VERTEX
  5
125
  8
0
  6
HCS_01
 62
     7
 10
14.9515380859375
 20
50.8484992980957
 30
0.0099999997764826
 70
   192
  0
VERTEX
  5
126
  8
0
  6
HCS_01
 62
     7
 10
14.96396541595459
 20
51.68871688842773
 30
0.0099999997764826
 70
   192
  0
VERTEX
  5
127
  8
0
  6
HCS_01
 62
     7
 10
14.9515380859375
 20
50.8484992980957
 30
0.0099999997764826
 70
   192
  0
VERTEX
  5
128
  8
0
  6
HCS_01
 62
     7
 10
15.07403659820557
 20
50.55960083007812
 30
0.0099999997764826
 70
   192
  0
VERTEX
  5
129
  8
0
  6
HCS_01
 62
     7
 10
14.96396541595459
 20
51.68871688842773
 30
0.0099999997764826
 70
   192
  0
VERTEX
  5
12A
  8
0
  6
HCS_01
 62
     7
 10
15.07403659820557
 20
50.55960083007812
 30
0.0099999997764826
 70
   192
  0
VERTEX
  5
12B
  8
0
  6
HCS_01
 62
     7
 10
15.12374591827393
 20
52.05863571166992
 30
0.0099999997764826
 70
   192
  0
VERTEX
  5
12C
  8
0
  6
HCS_01
 62
     7
 10
16.45460510253906
 20
50.40998840332031
 30
0.0099999997764826
 70
   192
  0
VERTEX
  5
12D
  8
0
  6
HCS_01
 62
     7
 10
16.44330787658691
 20
50.46922302246094
 30
0.0099999997764826
 70
   192
  0
VERTEX
  5
12E
  8
0
  6
HCS_01
 62
     7
 10
16.44330787658691
 20
50.46922302246094
 30
0.0099999997764826
 70
   192
  0
VERTEX
  5
12F
  8
0
  6
HCS_01
 62
     7
 10
16.44330787658691
 20
50.46922302246094
 30
0.0099999997764826
 70
   192
  0
VERTEX
  5
130
  8
0
  6
HCS_01
 62
     7
 10
16.45460510253906
 20
50.40998840332031
 30
0.0099999997764826
 70
   192
  0
VERTEX
  5
131
  8
0
  6
HCS_01
 62
     7
 10
16.48849868774414
 20
50.36140823364258
 30
0.0099999997764826
 70
   192
  0
VERTEX
  5
132
  8
0
  6
HCS_01
 62
     7
 10
16.44330787658691
 20
50.46922302246094
 30
0.0099999997764826
 70
   192
  0
VERTEX
  5
133
  8
0
  6
HCS_01
 62
     7
 10
16.48849868774414
 20
50.36140823364258
 30
0.0099999997764826
 70
   192
  0
VERTEX
  5
134
  8
0
  6
HCS_01
 62
     7
 10
16.53723907470703
 20
50.3289680480957
 30
0.0099999997764826
 70
   192
  0
VERTEX
  5
135
  8
0
  6
HCS_01
 62
     7
 10
16.44330787658691
 20
50.46922302246094
 30
0.0099999997764826
 70
   192
  0
VERTEX
  5
136
  8
0
  6
HCS_01
 62
     7
 10
16.53723907470703
 20
50.3289680480957
 30
0.0099999997764826
 70
   192
  0
VERTEX
  5
137
  8
0
  6
HCS_01
 62
     7
 10
16.59308052062988
 20
50.31815719604492
 30
0.0099999997764826
 70
   192
  0
VERTEX
  5
138
  8
0
  6
HCS_01
 62
     7
 10
16.44330787658691
 20
50.46922302246094
 30
0.0099999997764826
 70
   192
  0
VERTEX
  5
139
  8
0
  6
HCS_01
 62
     7
 10
16.59308052062988
 20
50.31815719604492
 30
0.0099999997764826
 70
   192
  0
VERTEX
  5
13A
  8
0
  6
HCS_01
 62
     7
 10
16.64973068237305
 20
50.32929229736328
 30
0.0099999997764826
 70
   192
  0
VERTEX
  5
13B
  8
0
  6
HCS_01
 62
     7
 10
16.44330787658691
 20
50.46922302246094
 30
0.0099999997764826
 70
   192
  0
VERTEX
  5
13C
  8
0
  6
HCS_01
 62
     7
 10
16.64973068237305
 20
50.32929229736328
 30
0.0099999997764826
 70
   192
  0
VERTEX
  5
13D
  8
0
  6
HCS_01
 62
     7
 10
16.69831085205078
 20
50.36270141601562
 30
0.0099999997764826
 70
   192
  0
VERTEX
  5
13E
  8
0
  6
HCS_01
 62
     7
 10
16.44330787658691
 20
50.46922302246094
 30
0.0099999997764826
 70
   192
  0
VERTEX
  5
13F
  8
0
  6
HCS_01
 62
     7
 10
16.69831085205078
 20
50.36270141601562
 30
0.0099999997764826
 70
   192
  0
VERTEX
  5
140
  8
0
  6
HCS_01
 62
     7
 10
16.73171997070312
 20
50.41160202026367
 30
0.0099999997764826
 70
   192
  0
VERTEX
  5
141
  8
0
  6
HCS_01
 62
     7
 10
16.44330787658691
 20
50.46922302246094
 30
0.0099999997764826
 70
   192
  0
VERTEX
  5
142
  8
0
  6
HCS_01
 62
     7
 10
16.73171997070312
 20
50.41160202026367
 30
0.0099999997764826
 70
   192
  0
VERTEX
  5
143
  8
0
  6
HCS_01
 62
     7
 10
16.74285507202148
 20
50.46922302246094
 30
0.0099999997764826
 70
   192
  0
VERTEX
  5
144
  8
0
  6
HCS_01
 62
     7
 10
16.44330787658691
 20
50.46922302246094
 30
0.0099999997764826
 70
   192
  0
VERTEX
  5
145
  8
0
  6
HCS_01
 62
     7
 10
16.74285507202148
 20
50.46922302246094
 30
0.0099999997764826
 70
   192
  0
VERTEX
  5
146
  8
0
  6
HCS_01
 62
     7
 10
16.73188018798828
 20
50.52780914306641
 30
0.0099999997764826
 70
   192
  0
VERTEX
  5
147
  8
0
  6
HCS_01
 62
     7
 10
16.44330787658691
 20
50.46922302246094
 30
0.0099999997764826
 70
   192
  0
VERTEX
  5
148
  8
0
  6
HCS_01
 62
     7
 10
16.73188018798828
 20
50.52780914306641
 30
0.0099999997764826
 70
   192
  0
VERTEX
  5
149
  8
0
  6
HCS_01
 62
     7
 10
16.69895553588867
 20
50.57703399658203
 30
0.0099999997764826
 70
   192
  0
VERTEX
  5
14A
  8
0
  6
HCS_01
 62
     7
 10
16.44330787658691
 20
50.46922302246094
 30
0.0099999997764826
 70
   192
  0
VERTEX
  5
14B
  8
0
  6
HCS_01
 62
     7
 10
16.69895553588867
 20
50.57703399658203
 30
0.0099999997764826
 70
   192
  0
VERTEX
  5
14C
  8
0
  6
HCS_01
 62
     7
 10
16.65053749084473
 20
50.61044311523438
 30
0.0099999997764826
 70
   192
  0
VERTEX
  5
14D
  8
0
  6
HCS_01
 62
     7
 10
16.44330787658691
 20
50.46922302246094
 30
0.0099999997764826
 70
   192
  0
VERTEX
  5
14E
  8
0
  6
HCS_01
 62
     7
 10
16.65053749084473
 20
50.61044311523438
 30
0.0099999997764826
 70
   192
  0
VERTEX
  5
14F
  8
0
  6
HCS_01
 62
     7
 10
16.59308052062988
 20
50.62157821655273
 30
0.0099999997764826
 70
   192
  0
VERTEX
  5
150
  8
0
  6
HCS_01
 62
     7
 10
16.44330787658691
 20
50.46922302246094
 30
0.0099999997764826
 70
   192
  0
VERTEX
  5
151
  8
0
  6
HCS_01
 62
     7
 10
16.59308052062988
 20
50.62157821655273
 30
0.0099999997764826
 70
   192
  0
VERTEX
  5
152
  8
0
  6
HCS_01
 62
     7
 10
16.53723907470703
 20
50.61044311523438
 30
0.0099999997764826
 70
   192
  0
VERTEX
  5
153
  8
0
  6
HCS_01
 62
     7
 10
16.44330787658691
 20
50.46922302246094
 30
0.0099999997764826
 70
   192
  0
VERTEX
  5
154
  8
0
  6
HCS_01
 62
     7
 10
16.53723907470703
 20
50.61044311523438
 30
0.0099999997764826
 70
   192
  0
VERTEX
  5
155
  8
0
  6
HCS_01
 62
     7
 10
16.48849868774414
 20
50.57703399658203
 30
0.0099999997764826
 70
   192
  0
VERTEX
  5
156
  8
0
  6
HCS_01
 62
     7
 10
16.44330787658691
 20
50.46922302246094
 30
0.0099999997764826
 70
   192
  0
VERTEX
  5
157
  8
0
  6
HCS_01
 62
     7
 10
16.48849868774414
 20
50.57703399658203
 30
0.0099999997764826
 70
   192
  0
VERTEX
  5
158
  8
0
  6
HCS_01
 62
     7
 10
16.45460510253906
 20
50.52780914306641
 30
0.0099999997764826
 70
   192
  0
VERTEX
  5
159
  8
0
  6
HCS_01
 62
     7
 10
18.1569938659668
 20
52.12641906738281
 30
0.0099999997764826
 70
   192
  0
VERTEX
  5
15A
  8
0
  6
HCS_01
 62
     7
 10
17.68927192687988
 20
52.38271331787109
 30
0.0099999997764826
 70
   192
  0
VERTEX
  5
15B
  8
0
  6
HCS_01
 62
     7
 10
17.98849868774414
 20
51.98148727416992
 30
0.0099999997764826
 70
   192
  0
VERTEX
  5
15C
  8
0
  6
HCS_01
 62
     7
 10
18.1569938659668
 20
52.12641906738281
 30
0.0099999997764826
 70
   192
  0
VERTEX
  5
15D
  8
0
  6
HCS_01
 62
     7
 10
17.98849868774414
 20
51.98148727416992
 30
0.0099999997764826
 70
   192
  0
VERTEX
  5
15E
  8
0
  6
HCS_01
 62
     7
 10
18.09211349487305
 20
51.33171463012695
 30
0.0099999997764826
 70
   192
  0
VERTEX
  5
15F
  8
0
  6
HCS_01
 62
     7
 10
18.1569938659668
 20
52.12641906738281
 30
0.0099999997764826
 70
   192
  0
VERTEX
  5
160
  8
0
  6
HCS_01
 62
     7
 10
18.09211349487305
 20
51.33171463012695
 30
0.0099999997764826
 70
   192
  0
VERTEX
  5
161
  8
0
  6
HCS_01
 62
     7
 10
18.14182281494141
 20
50.58736038208008
 30
0.0099999997764826
 70
   192
  0
VERTEX
  5
162
  8
0
  6
HCS_01
 62
     7
 10
18.1569938659668
 20
52.12641906738281
 30
0.0099999997764826
 70
   192
  0
VERTEX
  5
163
  8
0
  6
HCS_01
 62
     7
 10
18.14182281494141
 20
50.58736038208008
 30
0.0099999997764826
 70
   192
  0
VERTEX
  5
164
  8
0
  6
HCS_01
 62
     7
 10
18.2701301574707
 20
50.91579818725586
 30
0.0099999997764826
 70
   192
  0
VERTEX
  5
165
  8
0
  6
HCS_01
 62
     7
 10
18.1569938659668
 20
52.12641906738281
 30
0.0099999997764826
 70
   192
  0
VERTEX
  5
166
  8
0
  6
HCS_01
 62
     7
 10
18.2701301574707
 20
50.91579818725586
 30
0.0099999997764826
 70
   192
  0
VERTEX
  5
167
  8
0
  6
HCS_01
 62
     7
 10
18.31290054321289
 20
51.35753631591797
 30
0.0099999997764826
 70
   192
  0
VERTEX
  5
168
  8
0
  6
HCS_01
 62
     7
 10
17.2386589050293
 20
51.32009124755859
 30
0.0099999997764826
 70
   192
  0
VERTEX
  5
169
  8
0
  6
HCS_01
 62
     7
 10
17.34840774536133
 20
51.97858428955078
 30
0.0099999997764826
 70
   192
  0
VERTEX
  5
16A
  8
0
  6
HCS_01
 62
     7
 10
17.40215110778809
 20
52.31460571289062
 30
0.0099999997764826
 70
   192
  0
VERTEX
  5
16B
  8
0
  6
HCS_01
 62
     7
 10
17.67765235900879
 20
52.19807815551758
 30
0.0099999997764826
 70
   192
  0
VERTEX
  5
16C
  8
0
  6
HCS_01
 62
     7
 10
17.40215110778809
 20
52.31460571289062
 30
0.0099999997764826
 70
   192
  0
VERTEX
  5
16D
  8
0
  6
HCS_01
 62
     7
 10
17.34840774536133
 20
51.97858428955078
 30
0.0099999997764826
 70
   192
  0
VERTEX
  5
16E
  8
0
  6
HCS_01
 62
     7
 10
17.40215110778809
 20
52.31460571289062
 30
0.0099999997764826
 70
   192
  0
VERTEX
  5
16F
  8
0
  6
HCS_01
 62
     7
 10
17.67765235900879
 20
52.19807815551758
 30
0.0099999997764826
 70
   192
  0
VERTEX
  5
170
  8
0
  6
HCS_01
 62
     7
 10
17.68927192687988
 20
52.38271331787109
 30
0.0099999997764826
 70
   192
  0
VERTEX
  5
171
  8
0
  6
HCS_01
 62
     7
 10
17.98849868774414
 20
51.98148727416992
 30
0.0099999997764826
 70
   192
  0
VERTEX
  5
172
  8
0
  6
HCS_01
 62
     7
 10
17.68927192687988
 20
52.38271331787109
 30
0.0099999997764826
 70
   192
  0
VERTEX
  5
173
  8
0
  6
HCS_01
 62
     7
 10
17.67765235900879
 20
52.19807815551758
 30
0.0099999997764826
 70
   192
  0
VERTEX
  5
174
  8
0
  6
HCS_01
 62
     7
 10
17.01916313171387
 20
51.3084716796875
 30
0.0099999997764826
 70
   192
  0
VERTEX
  5
175
  8
0
  6
HCS_01
 62
     7
 10
17.05918884277344
 20
50.88981628417969
 30
0.0099999997764826
 70
   192
  0
VERTEX
  5
176
  8
0
  6
HCS_01
 62
     7
 10
17.062255859375
 20
51.77361297607422
 30
0.0099999997764826
 70
   192
  0
VERTEX
  5
177
  8
0
  6
HCS_01
 62
     7
 10
17.17926597595215
 20
50.57638549804688
 30
0.0099999997764826
 70
   192
  0
VERTEX
  5
178
  8
0
  6
HCS_01
 62
     7
 10
17.062255859375
 20
51.77361297607422
 30
0.0099999997764826
 70
   192
  0
VERTEX
  5
179
  8
0
  6
HCS_01
 62
     7
 10
17.05918884277344
 20
50.88981628417969
 30
0.0099999997764826
 70
   192
  0
VERTEX
  5
17A
  8
0
  6
HCS_01
 62
     7
 10
17.062255859375
 20
51.77361297607422
 30
0.0099999997764826
 70
   192
  0
VERTEX
  5
17B
  8
0
  6
HCS_01
 62
     7
 10
17.17926597595215
 20
50.57638549804688
 30
0.0099999997764826
 70
   192
  0
VERTEX
  5
17C
  8
0
  6
HCS_01
 62
     7
 10
17.19153213500977
 20
52.11027908325195
 30
0.0099999997764826
 70
   192
  0
VERTEX
  5
17D
  8
0
  6
HCS_01
 62
     7
 10
17.2386589050293
 20
51.32009124755859
 30
0.0099999997764826
 70
   192
  0
VERTEX
  5
17E
  8
0
  6
HCS_01
 62
     7
 10
17.19153213500977
 20
52.11027908325195
 30
0.0099999997764826
 70
   192
  0
VERTEX
  5
17F
  8
0
  6
HCS_01
 62
     7
 10
17.17926597595215
 20
50.57638549804688
 30
0.0099999997764826
 70
   192
  0
VERTEX
  5
180
  8
0
  6
HCS_01
 62
     7
 10
17.19153213500977
 20
52.11027908325195
 30
0.0099999997764826
 70
   192
  0
VERTEX
  5
181
  8
0
  6
HCS_01
 62
     7
 10
17.2386589050293
 20
51.32009124755859
 30
0.0099999997764826
 70
   192
  0
VERTEX
  5
182
  8
0
  6
HCS_01
 62
     7
 10
17.40215110778809
 20
52.31460571289062
 30
0.0099999997764826
 70
   192
  0
VERTEX
  5
183
  8
0
  6
HCS_01
 62
     7
 10
17.37552261352539
 20
50.38077545166016
 30
0.0099999997764826
 70
   192
  0
VERTEX
  5
184
  8
0
  6
HCS_01
 62
     7
 10
17.64408111572266
 20
50.31557464599609
 30
0.0099999997764826
 70
   192
  0
VERTEX
  5
185
  8
0
  6
HCS_01
 62
     7
 10
17.66732215881348
 20
50.49891662597656
 30
0.0099999997764826
 70
   192
  0
VERTEX
  5
186
  8
0
  6
HCS_01
 62
     7
 10
17.93184852600098
 20
50.38352203369141
 30
0.0099999997764826
 70
   192
  0
VERTEX
  5
187
  8
0
  6
HCS_01
 62
     7
 10
17.66732215881348
 20
50.49891662597656
 30
0.0099999997764826
 70
   192
  0
VERTEX
  5
188
  8
0
  6
HCS_01
 62
     7
 10
17.64408111572266
 20
50.31557464599609
 30
0.0099999997764826
 70
   192
  0
VERTEX
  5
189
  8
0
  6
HCS_01
 62
     7
 10
17.66732215881348
 20
50.49891662597656
 30
0.0099999997764826
 70
   192
  0
VERTEX
  5
18A
  8
0
  6
HCS_01
 62
     7
 10
17.93184852600098
 20
50.38352203369141
 30
0.0099999997764826
 70
   192
  0
VERTEX
  5
18B
  8
0
  6
HCS_01
 62
     7
 10
17.98591613769531
 20
50.70711517333984
 30
0.0099999997764826
 70
   192
  0
VERTEX
  5
18C
  8
0
  6
HCS_01
 62
     7
 10
18.14182281494141
 20
50.58736038208008
 30
0.0099999997764826
 70
   192
  0
VERTEX
  5
18D
  8
0
  6
HCS_01
 62
     7
 10
17.98591613769531
 20
50.70711517333984
 30
0.0099999997764826
 70
   192
  0
VERTEX
  5
18E
  8
0
  6
HCS_01
 62
     7
 10
17.93184852600098
 20
50.38352203369141
 30
0.0099999997764826
 70
   192
  0
VERTEX
  5
18F
  8
0
  6
HCS_01
 62
     7
 10
17.98591613769531
 20
50.70711517333984
 30
0.0099999997764826
 70
   192
  0
VERTEX
  5
190
  8
0
  6
HCS_01
 62
     7
 10
18.14182281494141
 20
50.58736038208008
 30
0.0099999997764826
 70
   192
  0
VERTEX
  5
191
  8
0
  6
HCS_01
 62
     7
 10
18.09211349487305
 20
51.33171463012695
 30
0.0099999997764826
 70
   192
  0
VERTEX
  5
192
  8
0
  6
HCS_01
 62
     7
 10
17.37552261352539
 20
50.38077545166016
 30
0.0099999997764826
 70
   192
  0
VERTEX
  5
193
  8
0
  6
HCS_01
 62
     7
 10
17.66732215881348
 20
50.49891662597656
 30
0.0099999997764826
 70
   192
  0
VERTEX
  5
194
  8
0
  6
HCS_01
 62
     7
 10
17.3458251953125
 20
50.7042121887207
 30
0.0099999997764826
 70
   192
  0
VERTEX
  5
195
  8
0
  6
HCS_01
 62
     7
 10
17.37552261352539
 20
50.38077545166016
 30
0.0099999997764826
 70
   192
  0
VERTEX
  5
196
  8
0
  6
HCS_01
 62
     7
 10
17.3458251953125
 20
50.7042121887207
 30
0.0099999997764826
 70
   192
  0
VERTEX
  5
197
  8
0
  6
HCS_01
 62
     7
 10
17.2386589050293
 20
51.32009124755859
 30
0.0099999997764826
 70
   192
  0
VERTEX
  5
198
  8
0
  6
HCS_01
 62
     7
 10
17.37552261352539
 20
50.38077545166016
 30
0.0099999997764826
 70
   192
  0
VERTEX
  5
199
  8
0
  6
HCS_01
 62
     7
 10
17.2386589050293
 20
51.32009124755859
 30
0.0099999997764826
 70
   192
  0
VERTEX
  5
19A
  8
0
  6
HCS_01
 62
     7
 10
17.17926597595215
 20
50.57638549804688
 30
0.0099999997764826
 70
   192
  0
VERTEX
  5
19B
  8
0
  6
HCS_01
 62
     7
 10
19.68959426879883
 20
52.12641906738281
 30
0.0099999997764826
 70
   192
  0
VERTEX
  5
19C
  8
0
  6
HCS_01
 62
     7
 10
19.22187423706055
 20
52.38271331787109
 30
0.0099999997764826
 70
   192
  0
VERTEX
  5
19D
  8
0
  6
HCS_01
 62
     7
 10
19.52109909057617
 20
51.98148727416992
 30
0.0099999997764826
 70
   192
  0
VERTEX
  5
19E
  8
0
  6
HCS_01
 62
     7
 10
19.68959426879883
 20
52.12641906738281
 30
0.0099999997764826
 70
   192
  0
VERTEX
  5
19F
  8
0
  6
HCS_01
 62
     7
 10
19.52109909057617
 20
51.98148727416992
 30
0.0099999997764826
 70
   192
  0
VERTEX
  5
1A0
  8
0
  6
HCS_01
 62
     7
 10
19.62471389770508
 20
51.33171463012695
 30
0.0099999997764826
 70
   192
  0
VERTEX
  5
1A1
  8
0
  6
HCS_01
 62
     7
 10
19.68959426879883
 20
52.12641906738281
 30
0.0099999997764826
 70
   192
  0
VERTEX
  5
1A2
  8
0
  6
HCS_01
 62
     7
 10
19.62471389770508
 20
51.33171463012695
 30
0.0099999997764826
 70
   192
  0
VERTEX
  5
1A3
  8
0
  6
HCS_01
 62
     7
 10
19.67442321777344
 20
50.58736038208008
 30
0.0099999997764826
 70
   192
  0
VERTEX
  5
1A4
  8
0
  6
HCS_01
 62
     7
 10
19.68959426879883
 20
52.12641906738281
 30
0.0099999997764826
 70
   192
  0
VERTEX
  5
1A5
  8
0
  6
HCS_01
 62
     7
 10
19.67442321777344
 20
50.58736038208008
 30
0.0099999997764826
 70
   192
  0
VERTEX
  5
1A6
  8
0
  6
HCS_01
 62
     7
 10
19.80273246765137
 20
50.91579818725586
 30
0.0099999997764826
 70
   192
  0
VERTEX
  5
1A7
  8
0
  6
HCS_01
 62
     7
 10
19.68959426879883
 20
52.12641906738281
 30
0.0099999997764826
 70
   192
  0
VERTEX
  5
1A8
  8
0
  6
HCS_01
 62
     7
 10
19.80273246765137
 20
50.91579818725586
 30
0.0099999997764826
 70
   192
  0
VERTEX
  5
1A9
  8
0
  6
HCS_01
 62
     7
 10
19.84550094604492
 20
51.35753631591797
 30
0.0099999997764826
 70
   192
  0
VERTEX
  5
1AA
  8
0
  6
HCS_01
 62
     7
 10
18.77126121520996
 20
51.32009124755859
 30
0.0099999997764826
 70
   192
  0
VERTEX
  5
1AB
  8
0
  6
HCS_01
 62
     7
 10
18.88100814819336
 20
51.97858428955078
 30
0.0099999997764826
 70
   192
  0
VERTEX
  5
1AC
  8
0
  6
HCS_01
 62
     7
 10
18.93475341796875
 20
52.31460571289062
 30
0.0099999997764826
 70
   192
  0
VERTEX
  5
1AD
  8
0
  6
HCS_01
 62
     7
 10
19.21025466918945
 20
52.19807815551758
 30
0.0099999997764826
 70
   192
  0
VERTEX
  5
1AE
  8
0
  6
HCS_01
 62
     7
 10
18.93475341796875
 20
52.31460571289062
 30
0.0099999997764826
 70
   192
  0
VERTEX
  5
1AF
  8
0
  6
HCS_01
 62
     7
 10
18.88100814819336
 20
51.97858428955078
 30
0.0099999997764826
 70
   192
  0
VERTEX
  5
1B0
  8
0
  6
HCS_01
 62
     7
 10
18.93475341796875
 20
52.31460571289062
 30
0.0099999997764826
 70
   192
  0
VERTEX
  5
1B1
  8
0
  6
HCS_01
 62
     7
 10
19.21025466918945
 20
52.19807815551758
 30
0.0099999997764826
 70
   192
  0
VERTEX
  5
1B2
  8
0
  6
HCS_01
 62
     7
 10
19.22187423706055
 20
52.38271331787109
 30
0.0099999997764826
 70
   192
  0
VERTEX
  5
1B3
  8
0
  6
HCS_01
 62
     7
 10
19.52109909057617
 20
51.98148727416992
 30
0.0099999997764826
 70
   192
  0
VERTEX
  5
1B4
  8
0
  6
HCS_01
 62
     7
 10
19.22187423706055
 20
52.38271331787109
 30
0.0099999997764826
 70
   192
  0
VERTEX
  5
1B5
  8
0
  6
HCS_01
 62
     7
 10
19.21025466918945
 20
52.19807815551758
 30
0.0099999997764826
 70
   192
  0
VERTEX
  5
1B6
  8
0
  6
HCS_01
 62
     7
 10
18.5517635345459
 20
51.3084716796875
 30
0.0099999997764826
 70
   192
  0
VERTEX
  5
1B7
  8
0
  6
HCS_01
 62
     7
 10
18.59178924560547
 20
50.88981628417969
 30
0.0099999997764826
 70
   192
  0
VERTEX
  5
1B8
  8
0
  6
HCS_01
 62
     7
 10
18.59485626220703
 20
51.77361297607422
 30
0.0099999997764826
 70
   192
  0
VERTEX
  5
1B9
  8
0
  6
HCS_01
 62
     7
 10
18.71186828613281
 20
50.57638549804688
 30
0.0099999997764826
 70
   192
  0
VERTEX
  5
1BA
  8
0
  6
HCS_01
 62
     7
 10
18.59485626220703
 20
51.77361297607422
 30
0.0099999997764826
 70
   192
  0
VERTEX
  5
1BB
  8
0
  6
HCS_01
 62
     7
 10
18.59178924560547
 20
50.88981628417969
 30
0.0099999997764826
 70
   192
  0
VERTEX
  5
1BC
  8
0
  6
HCS_01
 62
     7
 10
18.59485626220703
 20
51.77361297607422
 30
0.0099999997764826
 70
   192
  0
VERTEX
  5
1BD
  8
0
  6
HCS_01
 62
     7
 10
18.71186828613281
 20
50.57638549804688
 30
0.0099999997764826
 70
   192
  0
VERTEX
  5
1BE
  8
0
  6
HCS_01
 62
     7
 10
18.7241325378418
 20
52.11027908325195
 30
0.0099999997764826
 70
   192
  0
VERTEX
  5
1BF
  8
0
  6
HCS_01
 62
     7
 10
18.77126121520996
 20
51.32009124755859
 30
0.0099999997764826
 70
   192
  0
VERTEX
  5
1C0
  8
0
  6
HCS_01
 62
     7
 10
18.7241325378418
 20
52.11027908325195
 30
0.0099999997764826
 70
   192
  0
VERTEX
  5
1C1
  8
0
  6
HCS_01
 62
     7
 10
18.71186828613281
 20
50.57638549804688
 30
0.0099999997764826
 70
   192
  0
VERTEX
  5
1C2
  8
0
  6
HCS_01
 62
     7
 10
18.7241325378418
 20
52.11027908325195
 30
0.0099999997764826
 70
   192
  0
VERTEX
  5
1C3
  8
0
  6
HCS_01
 62
     7
 10
18.77126121520996
 20
51.32009124755859
 30
0.0099999997764826
 70
   192
  0
VERTEX
  5
1C4
  8
0
  6
HCS_01
 62
     7
 10
18.93475341796875
 20
52.31460571289062
 30
0.0099999997764826
 70
   192
  0
VERTEX
  5
1C5
  8
0
  6
HCS_01
 62
     7
 10
18.90812301635742
 20
50.38077545166016
 30
0.0099999997764826
 70
   192
  0
VERTEX
  5
1C6
  8
0
  6
HCS_01
 62
     7
 10
19.17668342590332
 20
50.31557464599609
 30
0.0099999997764826
 70
   192
  0
VERTEX
  5
1C7
  8
0
  6
HCS_01
 62
     7
 10
19.19992446899414
 20
50.49891662597656
 30
0.0099999997764826
 70
   192
  0
VERTEX
  5
1C8
  8
0
  6
HCS_01
 62
     7
 10
19.46445083618164
 20
50.38352203369141
 30
0.0099999997764826
 70
   192
  0
VERTEX
  5
1C9
  8
0
  6
HCS_01
 62
     7
 10
19.19992446899414
 20
50.49891662597656
 30
0.0099999997764826
 70
   192
  0
VERTEX
  5
1CA
  8
0
  6
HCS_01
 62
     7
 10
19.17668342590332
 20
50.31557464599609
 30
0.0099999997764826
 70
   192
  0
VERTEX
  5
1CB
  8
0
  6
HCS_01
 62
     7
 10
19.19992446899414
 20
50.49891662597656
 30
0.0099999997764826
 70
   192
  0
VERTEX
  5
1CC
  8
0
  6
HCS_01
 62
     7
 10
19.46445083618164
 20
50.38352203369141
 30
0.0099999997764826
 70
   192
  0
VERTEX
  5
1CD
  8
0
  6
HCS_01
 62
     7
 10
19.51851654052734
 20
50.70711517333984
 30
0.0099999997764826
 70
   192
  0
VERTEX
  5
1CE
  8
0
  6
HCS_01
 62
     7
 10
19.67442321777344
 20
50.58736038208008
 30
0.0099999997764826
 70
   192
  0
VERTEX
  5
1CF
  8
0
  6
HCS_01
 62
     7
 10
19.51851654052734
 20
50.70711517333984
 30
0.0099999997764826
 70
   192
  0
VERTEX
  5
1D0
  8
0
  6
HCS_01
 62
     7
 10
19.46445083618164
 20
50.38352203369141
 30
0.0099999997764826
 70
   192
  0
VERTEX
  5
1D1
  8
0
  6
HCS_01
 62
     7
 10
19.51851654052734
 20
50.70711517333984
 30
0.0099999997764826
 70
   192
  0
VERTEX
  5
1D2
  8
0
  6
HCS_01
 62
     7
 10
19.67442321777344
 20
50.58736038208008
 30
0.0099999997764826
 70
   192
  0
VERTEX
  5
1D3
  8
0
  6
HCS_01
 62
     7
 10
19.62471389770508
 20
51.33171463012695
 30
0.0099999997764826
 70
   192
  0
VERTEX
  5
1D4
  8
0
  6
HCS_01
 62
     7
 10
18.90812301635742
 20
50.38077545166016
 30
0.0099999997764826
 70
   192
  0
VERTEX
  5
1D5
  8
0
  6
HCS_01
 62
     7
 10
19.19992446899414
 20
50.49891662597656
 30
0.0099999997764826
 70
   192
  0
VERTEX
  5
1D6
  8
0
  6
HCS_01
 62
     7
 10
18.87842559814453
 20
50.7042121887207
 30
0.0099999997764826
 70
   192
  0
VERTEX
  5
1D7
  8
0
  6
HCS_01
 62
     7
 10
18.90812301635742
 20
50.38077545166016
 30
0.0099999997764826
 70
   192
  0
VERTEX
  5
1D8
  8
0
  6
HCS_01
 62
     7
 10
18.87842559814453
 20
50.7042121887207
 30
0.0099999997764826
 70
   192
  0
VERTEX
  5
1D9
  8
0
  6
HCS_01
 62
     7
 10
18.77126121520996
 20
51.32009124755859
 30
0.0099999997764826
 70
   192
  0
VERTEX
  5
1DA
  8
0
  6
HCS_01
 62
     7
 10
18.90812301635742
 20
50.38077545166016
 30
0.0099999997764826
 70
   192
  0
VERTEX
  5
1DB
  8
0
  6
HCS_01
 62
     7
 10
18.77126121520996
 20
51.32009124755859
 30
0.0099999997764826
 70
   192
  0
VERTEX
  5
1DC
  8
0
  6
HCS_01
 62
     7
 10
18.71186828613281
 20
50.57638549804688
 30
0.0099999997764826
 70
   192
  0
VERTEX
  5
1DD
  8
0
  6
HCS_01
 62
     7
 10
-8.0
 20
50.15459823608398
 30
0.0099999997764826
 70
   192
  0
VERTEX
  5
1DE
  8
0
  6
HCS_01
 62
     7
 10
-8.0
 20
52.15459823608398
 30
0.0099999997764826
 70
   192
  0
VERTEX
  5
1DF
  8
0
  6
HCS_01
 62
     7
 10
-3.0
 20
51.15459823608398
 30
0.0099999997764826
 70
   192
  0
VERTEX
  5
1E0
  8
0
  6
HCS_01
 62
     7
 10
8.0
 20
52.15459823608398
 30
0.0099999997764826
 70
   192
  0
VERTEX
  5
1E1
  8
0
  6
HCS_01
 62
     7
 10
8.0
 20
50.15459823608398
 30
0.0099999997764826
 70
   192
  0
VERTEX
  5
1E2
  8
0
  6
HCS_01
 62
     7
 10
3.0
 20
51.15459823608398
 30
0.0099999997764826
 70
   192
  0
VERTEX
  5
1E3
  8
0
  6
HCS_01
 62
     7
 10
0.0
 20
0.0
 30
0.0
 70
   128
 71
     1
 72
     2
 73
     3
 74
     3
  0
VERTEX
  5
1E4
  8
0
  6
HCS_01
 62
     7
 10
0.0
 20
0.0
 30
0.0
 70
   128
 71
     4
 72
     5
 73
     6
 74
     6
  0
VERTEX
  5
1E5
  8
0
  6
HCS_01
 62
     7
 10
0.0
 20
0.0
 30
0.0
 70
   128
 71
     7
 72
     8
 73
     9
 74
     9
  0
VERTEX
  5
1E6
  8
0
  6
HCS_01
 62
     7
 10
0.0
 20
0.0
 30
0.0
 70
   128
 71
    10
 72
    11
 73
    12
 74
    12
  0
VERTEX
  5
1E7
  8
0
  6
HCS_01
 62
     7
 10
0.0
 20
0.0
 30
0.0
 70
   128
 71
    13
 72
    14
 73
    15
 74
    15
  0
VERTEX
  5
1E8
  8
0
  6
HCS_01
 62
     7
 10
0.0
 20
0.0
 30
0.0
 70
   128
 71
    16
 72
    17
 73
    18
 74
    18
  0
VERTEX
  5
1E9
  8
0
  6
HCS_01
 62
     7
 10
0.0
 20
0.0
 30
0.0
 70
   128
 71
    19
 72
    20
 73
    21
 74
    21
  0
VERTEX
  5
1EA
  8
0
  6
HCS_01
 62
     7
 10
0.0
 20
0.0
 30
0.0
 70
   128
 71
    22
 72
    23
 73
    24
 74
    24
  0
VERTEX
  5
1EB
  8
0
  6
HCS_01
 62
     7
 10
0.0
 20
0.0
 30
0.0
 70
   128
 71
    25
 72
    26
 73
    27
 74
    27
  0
VERTEX
  5
1EC
  8
0
  6
HCS_01
 62
     7
 10
0.0
 20
0.0
 30
0.0
 70
   128
 71
    28
 72
    29
 73
    30
 74
    30
  0
VERTEX
  5
1ED
  8
0
  6
HCS_01
 62
     7
 10
0.0
 20
0.0
 30
0.0
 70
   128
 71
    31
 72
    32
 73
    33
 74
    33
  0
VERTEX
  5
1EE
  8
0
  6
HCS_01
 62
     7
 10
0.0
 20
0.0
 30
0.0
 70
   128
 71
    34
 72
    35
 73
    36
 74
    36
  0
VERTEX
  5
1EF
  8
0
  6
HCS_01
 62
     7
 10
0.0
 20
0.0
 30
0.0
 70
   128
 71
    37
 72
    38
 73
    39
 74
    39
  0
VERTEX
  5
1F0
  8
0
  6
HCS_01
 62
     7
 10
0.0
 20
0.0
 30
0.0
 70
   128
 71
    40
 72
    41
 73
    42
 74
    42
  0
VERTEX
  5
1F1
  8
0
  6
HCS_01
 62
     7
 10
0.0
 20
0.0
 30
0.0
 70
   128
 71
    43
 72
    44
 73
    45
 74
    45
  0
VERTEX
  5
1F2
  8
0
  6
HCS_01
 62
     7
 10
0.0
 20
0.0
 30
0.0
 70
   128
 71
    46
 72
    47
 73
    48
 74
    48
  0
VERTEX
  5
1F3
  8
0
  6
HCS_01
 62
     7
 10
0.0
 20
0.0
 30
0.0
 70
   128
 71
    49
 72
    50
 73
    51
 74
    51
  0
VERTEX
  5
1F4
  8
0
  6
HCS_01
 62
     7
 10
0.0
 20
0.0
 30
0.0
 70
   128
 71
    52
 72
    53
 73
    54
 74
    54
  0
VERTEX
  5
1F5
  8
0
  6
HCS_01
 62
     7
 10
0.0
 20
0.0
 30
0.0
 70
   128
 71
    55
 72
    56
 73
    57
 74
    57
  0
VERTEX
  5
1F6
  8
0
  6
HCS_01
 62
     7
 10
0.0
 20
0.0
 30
0.0
 70
   128
 71
    58
 72
    59
 73
    60
 74
    60
  0
VERTEX
  5
1F7
  8
0
  6
HCS_01
 62
     7
 10
0.0
 20
0.0
 30
0.0
 70
   128
 71
    61
 72
    62
 73
    63
 74
    63
  0
VERTEX
  5
1F8
  8
0
  6
HCS_01
 62
     7
 10
0.0
 20
0.0
 30
0.0
 70
   128
 71
    64
 72
    65
 73
    66
 74
    66
  0
VERTEX
  5
1F9
  8
0
  6
HCS_01
 62
     7
 10
0.0
 20
0.0
 30
0.0
 70
   128
 71
    67
 72
    68
 73
    69
 74
    69
  0
VERTEX
  5
1FA
  8
0
  6
HCS_01
 62
     7
 10
0.0
 20
0.0
 30
0.0
 70
   128
 71
    70
 72
    71
 73
    72
 74
    72
  0
VERTEX
  5
1FB
  8
0
  6
HCS_01
 62
     7
 10
0.0
 20
0.0
 30
0.0
 70
   128
 71
    73
 72
    74
 73
    75
 74
    75
  0
VERTEX
  5
1FC
  8
0
  6
HCS_01
 62
     7
 10
0.0
 20
0.0
 30
0.0
 70
   128
 71
    76
 72
    77
 73
    78
 74
    78
  0
VERTEX
  5
1FD
  8
0
  6
HCS_01
 62
     7
 10
0.0
 20
0.0
 30
0.0
 70
   128
 71
    79
 72
    80
 73
    81
 74
    81
  0
VERTEX
  5
1FE
  8
0
  6
HCS_01
 62
     7
 10
0.0
 20
0.0
 30
0.0
 70
   128
 71
    82
 72
    83
 73
    84
 74
    84
  0
VERTEX
  5
1FF
  8
0
  6
HCS_01
 62
     7
 10
0.0
 20
0.0
 30
0.0
 70
   128
 71
    85
 72
    86
 73
    87
 74
    87
  0
VERTEX
  5
200
  8
0
  6
HCS_01
 62
     7
 10
0.0
 20
0.0
 30
0.0
 70
   128
 71
    88
 72
    89
 73
    90
 74
    90
  0
VERTEX
  5
201
  8
0
  6
HCS_01
 62
     7
 10
0.0
 20
0.0
 30
0.0
 70
   128
 71
    91
 72
    92
 73
    93
 74
    93
  0
VERTEX
  5
202
  8
0
  6
HCS_01
 62
     7
 10
0.0
 20
0.0
 30
0.0
 70
   128
 71
    94
 72
    95
 73
    96
 74
    96
  0
VERTEX
  5
203
  8
0
  6
HCS_01
 62
     7
 10
0.0
 20
0.0
 30
0.0
 70
   128
 71
    97
 72
    98
 73
    99
 74
    99
  0
VERTEX
  5
204
  8
0
  6
HCS_01
 62
     7
 10
0.0
 20
0.0
 30
0.0
 70
   128
 71
   100
 72
   101
 73
   102
 74
   102
  0
VERTEX
  5
205
  8
0
  6
HCS_01
 62
     7
 10
0.0
 20
0.0
 30
0.0
 70
   128
 71
   103
 72
   104
 73
   105
 74
   105
  0
VERTEX
  5
206
  8
0
  6
HCS_01
 62
     7
 10
0.0
 20
0.0
 30
0.0
 70
   128
 71
   106
 72
   107
 73
   108
 74
   108
  0
VERTEX
  5
207
  8
0
  6
HCS_01
 62
     7
 10
0.0
 20
0.0
 30
0.0
 70
   128
 71
   109
 72
   110
 73
   111
 74
   111
  0
VERTEX
  5
208
  8
0
  6
HCS_01
 62
     7
 10
0.0
 20
0.0
 30
0.0
 70
   128
 71
   112
 72
   113
 73
   114
 74
   114
  0
VERTEX
  5
209
  8
0
  6
HCS_01
 62
     7
 10
0.0
 20
0.0
 30
0.0
 70
   128
 71
   115
 72
   116
 73
   117
 74
   117
  0
VERTEX
  5
20A
  8
0
  6
HCS_01
 62
     7
 10
0.0
 20
0.0
 30
0.0
 70
   128
 71
   118
 72
   119
 73
   120
 74
   120
  0
VERTEX
  5
20B
  8
0
  6
HCS_01
 62
     7
 10
0.0
 20
0.0
 30
0.0
 70
   128
 71
   121
 72
   122
 73
   123
 74
   123
  0
VERTEX
  5
20C
  8
0
  6
HCS_01
 62
     7
 10
0.0
 20
0.0
 30
0.0
 70
   128
 71
   124
 72
   125
 73
   126
 74
   126
  0
VERTEX
  5
20D
  8
0
  6
HCS_01
 62
     7
 10
0.0
 20
0.0
 30
0.0
 70
   128
 71
   127
 72
   128
 73
   129
 74
   129
  0
VERTEX
  5
20E
  8
0
  6
HCS_01
 62
     7
 10
0.0
 20
0.0
 30
0.0
 70
   128
 71
   130
 72
   131
 73
   132
 74
   132
  0
VERTEX
  5
20F
  8
0
  6
HCS_01
 62
     7
 10
0.0
 20
0.0
 30
0.0
 70
   128
 71
   133
 72
   134
 73
   135
 74
   135
  0
VERTEX
  5
210
  8
0
  6
HCS_01
 62
     7
 10
0.0
 20
0.0
 30
0.0
 70
   128
 71
   136
 72
   137
 73
   138
 74
   138
  0
VERTEX
  5
211
  8
0
  6
HCS_01
 62
     7
 10
0.0
 20
0.0
 30
0.0
 70
   128
 71
   139
 72
   140
 73
   141
 74
   141
  0
VERTEX
  5
212
  8
0
  6
HCS_01
 62
     7
 10
0.0
 20
0.0
 30
0.0
 70
   128
 71
   142
 72
   143
 73
   144
 74
   144
  0
VERTEX
  5
213
  8
0
  6
HCS_01
 62
     7
 10
0.0
 20
0.0
 30
0.0
 70
   128
 71
   145
 72
   146
 73
   147
 74
   147
  0
VERTEX
  5
214
  8
0
  6
HCS_01
 62
     7
 10
0.0
 20
0.0
 30
0.0
 70
   128
 71
   148
 72
   149
 73
   150
 74
   150
  0
VERTEX
  5
215
  8
0
  6
HCS_01
 62
     7
 10
0.0
 20
0.0
 30
0.0
 70
   128
 71
   151
 72
   152
 73
   153
 74
   153
  0
VERTEX
  5
216
  8
0
  6
HCS_01
 62
     7
 10
0.0
 20
0.0
 30
0.0
 70
   128
 71
   154
 72
   155
 73
   156
 74
   156
  0
VERTEX
  5
217
  8
0
  6
HCS_01
 62
     7
 10
0.0
 20
0.0
 30
0.0
 70
   128
 71
   157
 72
   158
 73
   159
 74
   159
  0
VERTEX
  5
218
  8
0
  6
HCS_01
 62
     7
 10
0.0
 20
0.0
 30
0.0
 70
   128
 71
   160
 72
   161
 73
   162
 74
   162
  0
VERTEX
  5
219
  8
0
  6
HCS_01
 62
     7
 10
0.0
 20
0.0
 30
0.0
 70
   128
 71
   163
 72
   164
 73
   165
 74
   165
  0
VERTEX
  5
21A
  8
0
  6
HCS_01
 62
     7
 10
0.0
 20
0.0
 30
0.0
 70
   128
 71
   166
 72
   167
 73
   168
 74
   168
  0
VERTEX
  5
21B
  8
0
  6
HCS_01
 62
     7
 10
0.0
 20
0.0
 30
0.0
 70
   128
 71
   169
 72
   170
 73
   171
 74
   171
  0
VERTEX
  5
21C
  8
0
  6
HCS_01
 62
     7
 10
0.0
 20
0.0
 30
0.0
 70
   128
 71
   172
 72
   173
 73
   174
 74
   174
  0
VERTEX
  5
21D
  8
0
  6
HCS_01
 62
     7
 10
0.0
 20
0.0
 30
0.0
 70
   128
 71
   175
 72
   176
 73
   177
 74
   177
  0
VERTEX
  5
21E
  8
0
  6
HCS_01
 62
     7
 10
0.0
 20
0.0
 30
0.0
 70
   128
 71
   178
 72
   179
 73
   180
 74
   180
  0
VERTEX
  5
21F
  8
0
  6
HCS_01
 62
     7
 10
0.0
 20
0.0
 30
0.0
 70
   128
 71
   181
 72
   182
 73
   183
 74
   183
  0
VERTEX
  5
220
  8
0
  6
HCS_01
 62
     7
 10
0.0
 20
0.0
 30
0.0
 70
   128
 71
   184
 72
   185
 73
   186
 74
   186
  0
VERTEX
  5
221
  8
0
  6
HCS_01
 62
     7
 10
0.0
 20
0.0
 30
0.0
 70
   128
 71
   187
 72
   188
 73
   189
 74
   189
  0
VERTEX
  5
222
  8
0
  6
HCS_01
 62
     7
 10
0.0
 20
0.0
 30
0.0
 70
   128
 71
   190
 72
   191
 73
   192
 74
   192
  0
VERTEX
  5
223
  8
0
  6
HCS_01
 62
     7
 10
0.0
 20
0.0
 30
0.0
 70
   128
 71
   193
 72
   194
 73
   195
 74
   195
  0
VERTEX
  5
224
  8
0
  6
HCS_01
 62
     7
 10
0.0
 20
0.0
 30
0.0
 70
   128
 71
   196
 72
   197
 73
   198
 74
   198
  0
VERTEX
  5
225
  8
0
  6
HCS_01
 62
     7
 10
0.0
 20
0.0
 30
0.0
 70
   128
 71
   199
 72
   200
 73
   201
 74
   201
  0
VERTEX
  5
226
  8
0
  6
HCS_01
 62
     7
 10
0.0
 20
0.0
 30
0.0
 70
   128
 71
   202
 72
   203
 73
   204
 74
   204
  0
VERTEX
  5
227
  8
0
  6
HCS_01
 62
     7
 10
0.0
 20
0.0
 30
0.0
 70
   128
 71
   205
 72
   206
 73
   207
 74
   207
  0
VERTEX
  5
228
  8
0
  6
HCS_01
 62
     7
 10
0.0
 20
0.0
 30
0.0
 70
   128
 71
   208
 72
   209
 73
   210
 74
   210
  0
VERTEX
  5
229
  8
0
  6
HCS_01
 62
     7
 10
0.0
 20
0.0
 30
0.0
 70
   128
 71
   211
 72
   212
 73
   213
 74
   213
  0
VERTEX
  5
22A
  8
0
  6
HCS_01
 62
     7
 10
0.0
 20
0.0
 30
0.0
 70
   128
 71
   214
 72
   215
 73
   216
 74
   216
  0
VERTEX
  5
22B
  8
0
  6
HCS_01
 62
     7
 10
0.0
 20
0.0
 30
0.0
 70
   128
 71
   217
 72
   218
 73
   219
 74
   219
  0
VERTEX
  5
22C
  8
0
  6
HCS_01
 62
     7
 10
0.0
 20
0.0
 30
0.0
 70
   128
 71
   220
 72
   221
 73
   222
 74
   222
  0
VERTEX
  5
22D
  8
0
  6
HCS_01
 62
     7
 10
0.0
 20
0.0
 30
0.0
 70
   128
 71
   223
 72
   224
 73
   225
 74
   225
  0
VERTEX
  5
22E
  8
0
  6
HCS_01
 62
     7
 10
0.0
 20
0.0
 30
0.0
 70
   128
 71
   226
 72
   227
 73
   228
 74
   228
  0
VERTEX
  5
22F
  8
0
  6
HCS_01
 62
     7
 10
0.0
 20
0.0
 30
0.0
 70
   128
 71
   229
 72
   230
 73
   231
 74
   231
  0
VERTEX
  5
230
  8
0
  6
HCS_01
 62
     7
 10
0.0
 20
0.0
 30
0.0
 70
   128
 71
   232
 72
   233
 73
   234
 74
   234
  0
VERTEX
  5
231
  8
0
  6
HCS_01
 62
     7
 10
0.0
 20
0.0
 30
0.0
 70
   128
 71
   235
 72
   236
 73
   237
 74
   237
  0
VERTEX
  5
232
  8
0
  6
HCS_01
 62
     7
 10
0.0
 20
0.0
 30
0.0
 70
   128
 71
   238
 72
   239
 73
   240
 74
   240
  0
VERTEX
  5
233
  8
0
  6
HCS_01
 62
     7
 10
0.0
 20
0.0
 30
0.0
 70
   128
 71
   241
 72
   242
 73
   243
 74
   243
  0
VERTEX
  5
234
  8
0
  6
HCS_01
 62
     7
 10
0.0
 20
0.0
 30
0.0
 70
   128
 71
   244
 72
   245
 73
   246
 74
   246
  0
VERTEX
  5
235
  8
0
  6
HCS_01
 62
     7
 10
0.0
 20
0.0
 30
0.0
 70
   128
 71
   247
 72
   248
 73
   249
 74
   249
  0
VERTEX
  5
236
  8
0
  6
HCS_01
 62
     7
 10
0.0
 20
0.0
 30
0.0
 70
   128
 71
   250
 72
   251
 73
   252
 74
   252
  0
VERTEX
  5
237
  8
0
  6
HCS_01
 62
     7
 10
0.0
 20
0.0
 30
0.0
 70
   128
 71
   253
 72
   254
 73
   255
 74
   255
  0
VERTEX
  5
238
  8
0
  6
HCS_01
 62
     7
 10
0.0
 20
0.0
 30
0.0
 70
   128
 71
   256
 72
   257
 73
   258
 74
   258
  0
VERTEX
  5
239
  8
0
  6
HCS_01
 62
     7
 10
0.0
 20
0.0
 30
0.0
 70
   128
 71
   259
 72
   260
 73
   261
 74
   261
  0
VERTEX
  5
23A
  8
0
  6
HCS_01
 62
     7
 10
0.0
 20
0.0
 30
0.0
 70
   128
 71
   262
 72
   263
 73
   264
 74
   264
  0
VERTEX
  5
23B
  8
0
  6
HCS_01
 62
     7
 10
0.0
 20
0.0
 30
0.0
 70
   128
 71
   265
 72
   266
 73
   267
 74
   267
  0
VERTEX
  5
23C
  8
0
  6
HCS_01
 62
     7
 10
0.0
 20
0.0
 30
0.0
 70
   128
 71
   268
 72
   269
 73
   270
 74
   270
  0
VERTEX
  5
23D
  8
0
  6
HCS_01
 62
     7
 10
0.0
 20
0.0
 30
0.0
 70
   128
 71
   271
 72
   272
 73
   273
 74
   273
  0
VERTEX
  5
23E
  8
0
  6
HCS_01
 62
     7
 10
0.0
 20
0.0
 30
0.0
 70
   128
 71
   274
 72
   275
 73
   276
 74
   276
  0
VERTEX
  5
23F
  8
0
  6
HCS_01
 62
     7
 10
0.0
 20
0.0
 30
0.0
 70
   128
 71
   277
 72
   278
 73
   279
 74
   279
  0
VERTEX
  5
240
  8
0
  6
HCS_01
 62
     7
 10
0.0
 20
0.0
 30
0.0
 70
   128
 71
   280
 72
   281
 73
   282
 74
   282
  0
VERTEX
  5
241
  8
0
  6
HCS_01
 62
     7
 10
0.0
 20
0.0
 30
0.0
 70
   128
 71
   283
 72
   284
 73
   285
 74
   285
  0
VERTEX
  5
242
  8
0
  6
HCS_01
 62
     7
 10
0.0
 20
0.0
 30
0.0
 70
   128
 71
   286
 72
   287
 73
   288
 74
   288
  0
VERTEX
  5
243
  8
0
  6
HCS_01
 62
     7
 10
0.0
 20
0.0
 30
0.0
 70
   128
 71
   289
 72
   290
 73
   291
 74
   291
  0
VERTEX
  5
244
  8
0
  6
HCS_01
 62
     7
 10
0.0
 20
0.0
 30
0.0
 70
   128
 71
   292
 72
   293
 73
   294
 74
   294
  0
VERTEX
  5
245
  8
0
  6
HCS_01
 62
     7
 10
0.0
 20
0.0
 30
0.0
 70
   128
 71
   295
 72
   296
 73
   297
 74
   297
  0
VERTEX
  5
246
  8
0
  6
HCS_01
 62
     7
 10
0.0
 20
0.0
 30
0.0
 70
   128
 71
   298
 72
   299
 73
   300
 74
   300
  0
VERTEX
  5
247
  8
0
  6
HCS_01
 62
     7
 10
0.0
 20
0.0
 30
0.0
 70
   128
 71
   301
 72
   302
 73
   303
 74
   303
  0
VERTEX
  5
248
  8
0
  6
HCS_01
 62
     7
 10
0.0
 20
0.0
 30
0.0
 70
   128
 71
   304
 72
   305
 73
   306
 74
   306
  0
VERTEX
  5
249
  8
0
  6
HCS_01
 62
     7
 10
0.0
 20
0.0
 30
0.0
 70
   128
 71
   307
 72
   308
 73
   309
 74
   309
  0
VERTEX
  5
24A
  8
0
  6
HCS_01
 62
     7
 10
0.0
 20
0.0
 30
0.0
 70
   128
 71
   310
 72
   311
 73
   312
 74
   312
  0
VERTEX
  5
24B
  8
0
  6
HCS_01
 62
     7
 10
0.0
 20
0.0
 30
0.0
 70
   128
 71
   313
 72
   314
 73
   315
 74
   315
  0
SEQEND
  5
7C8
  8
0
  6
HCS_01
 62
     7
  0
ENDBLK
  5
24E
  8
0
  0
BLOCK
  8
0
  2
GROUP_22
 70
     0
 10
0.0
 20
0.0
 30
0.0
  3
GROUP_22
  1

  0
LINE
  5
250
  8
0
  6
HCS_01
 62
     7
 10
-1.5
 20
-3.592170000076294
 30
0.0099999997764826
 11
-1.5
 21
-2.0
 31
0.0099999997764826
  0
LINE
  5
251
  8
0
  6
HCS_01
 62
     7
 10
1.5
 20
-3.592170000076294
 30
0.0099999997764826
 11
1.5
 21
-2.0
 31
0.0099999997764826
  0
LINE
  5
252
  8
0
  6
HCS_01
 62
     7
 10
-9.0
 20
-0.5921670198440552
 30
0.0099999997764826
 11
13.78040027618408
 21
-0.5921670198440552
 31
0.0099999997764826
  0
POLYLINE
  5
253
  8
0
  6
HCS_01
 62
     7
 66
     1
 10
0.0
 20
0.0
 30
0.0
 70
    64
 71
   291
 72
    97
  0
VERTEX
  5
254
  8
0
  6
HCS_01
 62
     7
 10
16.11374855041504
 20
-1.268506169319153
 30
0.0099999997764826
 70
   192
  0
VERTEX
  5
255
  8
0
  6
HCS_01
 62
     7
 10
16.18088912963867
 20
-0.5041421055793762
 30
0.0099999997764826
 70
   192
  0
VERTEX
  5
256
  8
0
  6
HCS_01
 62
     7
 10
16.08986282348633
 20
-0.8553364276885986
 30
0.0099999997764826
 70
   192
  0
VERTEX
  5
257
  8
0
  6
HCS_01
 62
     7
 10
16.03030776977539
 20
-0.4008496403694153
 30
0.0099999997764826
 70
   192
  0
VERTEX
  5
258
  8
0
  6
HCS_01
 62
     7
 10
16.08986282348633
 20
-0.8553364276885986
 30
0.0099999997764826
 70
   192
  0
VERTEX
  5
259
  8
0
  6
HCS_01
 62
     7
 10
16.18088912963867
 20
-0.5041421055793762
 30
0.0099999997764826
 70
   192
  0
VERTEX
  5
25A
  8
0
  6
HCS_01
 62
     7
 10
16.08986282348633
 20
-0.8553364276885986
 30
0.0099999997764826
 70
   192
  0
VERTEX
  5
25B
  8
0
  6
HCS_01
 62
     7
 10
16.03030776977539
 20
-0.4008496403694153
 30
0.0099999997764826
 70
   192
  0
VERTEX
  5
25C
  8
0
  6
HCS_01
 62
     7
 10
15.94880390167236
 20
-0.5551427602767944
 30
0.0099999997764826
 70
   192
  0
VERTEX
  5
25D
  8
0
  6
HCS_01
 62
     7
 10
15.83808708190918
 20
-0.3543680906295776
 30
0.0099999997764826
 70
   192
  0
VERTEX
  5
25E
  8
0
  6
HCS_01
 62
     7
 10
15.94880390167236
 20
-0.5551427602767944
 30
0.0099999997764826
 70
   192
  0
VERTEX
  5
25F
  8
0
  6
HCS_01
 62
     7
 10
16.03030776977539
 20
-0.4008496403694153
 30
0.0099999997764826
 70
   192
  0
VERTEX
  5
260
  8
0
  6
HCS_01
 62
     7
 10
15.94880390167236
 20
-0.5551427602767944
 30
0.0099999997764826
 70
   192
  0
VERTEX
  5
261
  8
0
  6
HCS_01
 62
     7
 10
15.83808708190918
 20
-0.3543680906295776
 30
0.0099999997764826
 70
   192
  0
VERTEX
  5
262
  8
0
  6
HCS_01
 62
     7
 10
15.52562713623047
 20
-0.4550781846046448
 30
0.0099999997764826
 70
   192
  0
VERTEX
  5
263
  8
0
  6
HCS_01
 62
     7
 10
15.83808708190918
 20
-0.3492034673690796
 30
0.0099999997764826
 70
   192
  0
VERTEX
  5
264
  8
0
  6
HCS_01
 62
     7
 10
15.52562713623047
 20
-0.4550781846046448
 30
0.0099999997764826
 70
   192
  0
VERTEX
  5
265
  8
0
  6
HCS_01
 62
     7
 10
15.83808708190918
 20
-0.3543680906295776
 30
0.0099999997764826
 70
   192
  0
VERTEX
  5
266
  8
0
  6
HCS_01
 62
     7
 10
15.52562713623047
 20
-0.4550781846046448
 30
0.0099999997764826
 70
   192
  0
VERTEX
  5
267
  8
0
  6
HCS_01
 62
     7
 10
15.83808708190918
 20
-0.3492034673690796
 30
0.0099999997764826
 70
   192
  0
VERTEX
  5
268
  8
0
  6
HCS_01
 62
     7
 10
15.89360618591309
 20
-0.1768341064453125
 30
0.0099999997764826
 70
   192
  0
VERTEX
  5
269
  8
0
  6
HCS_01
 62
     7
 10
16.13924980163574
 20
-0.1639225482940674
 30
0.0099999997764826
 70
   192
  0
VERTEX
  5
26A
  8
0
  6
HCS_01
 62
     7
 10
15.89360618591309
 20
-0.1768341064453125
 30
0.0099999997764826
 70
   192
  0
VERTEX
  5
26B
  8
0
  6
HCS_01
 62
     7
 10
15.83808708190918
 20
-0.3492034673690796
 30
0.0099999997764826
 70
   192
  0
VERTEX
  5
26C
  8
0
  6
HCS_01
 62
     7
 10
15.89360618591309
 20
-0.1768341064453125
 30
0.0099999997764826
 70
   192
  0
VERTEX
  5
26D
  8
0
  6
HCS_01
 62
     7
 10
16.13924980163574
 20
-0.1639225482940674
 30
0.0099999997764826
 70
   192
  0
VERTEX
  5
26E
  8
0
  6
HCS_01
 62
     7
 10
16.01884841918945
 20
0.103992223739624
 30
0.0099999997764826
 70
   192
  0
VERTEX
  5
26F
  8
0
  6
HCS_01
 62
     7
 10
16.08405303955078
 20
0.5055415630340576
 30
0.0099999997764826
 70
   192
  0
VERTEX
  5
270
  8
0
  6
HCS_01
 62
     7
 10
16.01884841918945
 20
0.103992223739624
 30
0.0099999997764826
 70
   192
  0
VERTEX
  5
271
  8
0
  6
HCS_01
 62
     7
 10
16.13924980163574
 20
-0.1639225482940674
 30
0.0099999997764826
 70
   192
  0
VERTEX
  5
272
  8
0
  6
HCS_01
 62
     7
 10
16.01884841918945
 20
0.103992223739624
 30
0.0099999997764826
 70
   192
  0
VERTEX
  5
273
  8
0
  6
HCS_01
 62
     7
 10
16.08405303955078
 20
0.5055415630340576
 30
0.0099999997764826
 70
   192
  0
VERTEX
  5
274
  8
0
  6
HCS_01
 62
     7
 10
15.92330360412598
 20
0.3644828796386719
 30
0.0099999997764826
 70
   192
  0
VERTEX
  5
275
  8
0
  6
HCS_01
 62
     7
 10
15.9079704284668
 20
0.6033467054367065
 30
0.0099999997764826
 70
   192
  0
VERTEX
  5
276
  8
0
  6
HCS_01
 62
     7
 10
15.92330360412598
 20
0.3644828796386719
 30
0.0099999997764826
 70
   192
  0
VERTEX
  5
277
  8
0
  6
HCS_01
 62
     7
 10
16.08405303955078
 20
0.5055415630340576
 30
0.0099999997764826
 70
   192
  0
VERTEX
  5
278
  8
0
  6
HCS_01
 62
     7
 10
15.92330360412598
 20
0.3644828796386719
 30
0.0099999997764826
 70
   192
  0
VERTEX
  5
279
  8
0
  6
HCS_01
 62
     7
 10
15.9079704284668
 20
0.6033467054367065
 30
0.0099999997764826
 70
   192
  0
VERTEX
  5
27A
  8
0
  6
HCS_01
 62
     7
 10
15.69089508056641
 20
0.6359483003616333
 30
0.0099999997764826
 70
   192
  0
VERTEX
  5
27B
  8
0
  6
HCS_01
 62
     7
 10
15.92330360412598
 20
0.3644828796386719
 30
0.0099999997764826
 70
   192
  0
VERTEX
  5
27C
  8
0
  6
HCS_01
 62
     7
 10
15.69089508056641
 20
0.6359483003616333
 30
0.0099999997764826
 70
   192
  0
VERTEX
  5
27D
  8
0
  6
HCS_01
 62
     7
 10
15.6366662979126
 20
0.4513130187988281
 30
0.0099999997764826
 70
   192
  0
VERTEX
  5
27E
  8
0
  6
HCS_01
 62
     7
 10
15.44751262664795
 20
0.6072200536727905
 30
0.0099999997764826
 70
   192
  0
VERTEX
  5
27F
  8
0
  6
HCS_01
 62
     7
 10
15.6366662979126
 20
0.4513130187988281
 30
0.0099999997764826
 70
   192
  0
VERTEX
  5
280
  8
0
  6
HCS_01
 62
     7
 10
15.69089508056641
 20
0.6359483003616333
 30
0.0099999997764826
 70
   192
  0
VERTEX
  5
281
  8
0
  6
HCS_01
 62
     7
 10
15.6366662979126
 20
0.4513130187988281
 30
0.0099999997764826
 70
   192
  0
VERTEX
  5
282
  8
0
  6
HCS_01
 62
     7
 10
15.44751262664795
 20
0.6072200536727905
 30
0.0099999997764826
 70
   192
  0
VERTEX
  5
283
  8
0
  6
HCS_01
 62
     7
 10
15.43137264251709
 20
0.4148379564285278
 30
0.0099999997764826
 70
   192
  0
VERTEX
  5
284
  8
0
  6
HCS_01
 62
     7
 10
15.23899078369141
 20
0.5210354328155518
 30
0.0099999997764826
 70
   192
  0
VERTEX
  5
285
  8
0
  6
HCS_01
 62
     7
 10
15.43137264251709
 20
0.4148379564285278
 30
0.0099999997764826
 70
   192
  0
VERTEX
  5
286
  8
0
  6
HCS_01
 62
     7
 10
15.44751262664795
 20
0.6072200536727905
 30
0.0099999997764826
 70
   192
  0
VERTEX
  5
287
  8
0
  6
HCS_01
 62
     7
 10
15.43137264251709
 20
0.4148379564285278
 30
0.0099999997764826
 70
   192
  0
VERTEX
  5
288
  8
0
  6
HCS_01
 62
     7
 10
15.23899078369141
 20
0.5210354328155518
 30
0.0099999997764826
 70
   192
  0
VERTEX
  5
289
  8
0
  6
HCS_01
 62
     7
 10
15.23899078369141
 20
0.3054124116897583
 30
0.0099999997764826
 70
   192
  0
VERTEX
  5
28A
  8
0
  6
HCS_01
 62
     7
 10
16.20074081420898
 20
0.3538308143615723
 30
0.0099999997764826
 70
   192
  0
VERTEX
  5
28B
  8
0
  6
HCS_01
 62
     7
 10
16.08405303955078
 20
0.5055415630340576
 30
0.0099999997764826
 70
   192
  0
VERTEX
  5
28C
  8
0
  6
HCS_01
 62
     7
 10
16.13924980163574
 20
-0.1639225482940674
 30
0.0099999997764826
 70
   192
  0
VERTEX
  5
28D
  8
0
  6
HCS_01
 62
     7
 10
16.20074081420898
 20
0.3538308143615723
 30
0.0099999997764826
 70
   192
  0
VERTEX
  5
28E
  8
0
  6
HCS_01
 62
     7
 10
16.13924980163574
 20
-0.1639225482940674
 30
0.0099999997764826
 70
   192
  0
VERTEX
  5
28F
  8
0
  6
HCS_01
 62
     7
 10
16.2396354675293
 20
0.159511923789978
 30
0.0099999997764826
 70
   192
  0
VERTEX
  5
290
  8
0
  6
HCS_01
 62
     7
 10
15.52562713623047
 20
-0.4550781846046448
 30
0.0099999997764826
 70
   192
  0
VERTEX
  5
291
  8
0
  6
HCS_01
 62
     7
 10
15.89360618591309
 20
-0.1768341064453125
 30
0.0099999997764826
 70
   192
  0
VERTEX
  5
292
  8
0
  6
HCS_01
 62
     7
 10
15.5178804397583
 20
-0.2704429626464844
 30
0.0099999997764826
 70
   192
  0
VERTEX
  5
293
  8
0
  6
HCS_01
 62
     7
 10
15.52562713623047
 20
-0.4550781846046448
 30
0.0099999997764826
 70
   192
  0
VERTEX
  5
294
  8
0
  6
HCS_01
 62
     7
 10
15.5178804397583
 20
-0.2704429626464844
 30
0.0099999997764826
 70
   192
  0
VERTEX
  5
295
  8
0
  6
HCS_01
 62
     7
 10
15.36035919189453
 20
-0.2704429626464844
 30
0.0099999997764826
 70
   192
  0
VERTEX
  5
296
  8
0
  6
HCS_01
 62
     7
 10
15.52562713623047
 20
-0.4550781846046448
 30
0.0099999997764826
 70
   192
  0
VERTEX
  5
297
  8
0
  6
HCS_01
 62
     7
 10
15.36035919189453
 20
-0.2704429626464844
 30
0.0099999997764826
 70
   192
  0
VERTEX
  5
298
  8
0
  6
HCS_01
 62
     7
 10
15.36035919189453
 20
-0.4550781846046448
 30
0.0099999997764826
 70
   192
  0
VERTEX
  5
299
  8
0
  6
HCS_01
 62
     7
 10
16.26142501831055
 20
-1.078060746192932
 30
0.0099999997764826
 70
   192
  0
VERTEX
  5
29A
  8
0
  6
HCS_01
 62
     7
 10
16.31064987182617
 20
-0.8320956230163574
 30
0.0099999997764826
 70
   192
  0
VERTEX
  5
29B
  8
0
  6
HCS_01
 62
     7
 10
16.2782096862793
 20
-0.651979386806488
 30
0.0099999997764826
 70
   192
  0
VERTEX
  5
29C
  8
0
  6
HCS_01
 62
     7
 10
16.26142501831055
 20
-1.078060746192932
 30
0.0099999997764826
 70
   192
  0
VERTEX
  5
29D
  8
0
  6
HCS_01
 62
     7
 10
16.2782096862793
 20
-0.651979386806488
 30
0.0099999997764826
 70
   192
  0
VERTEX
  5
29E
  8
0
  6
HCS_01
 62
     7
 10
16.18088912963867
 20
-0.5041421055793762
 30
0.0099999997764826
 70
   192
  0
VERTEX
  5
29F
  8
0
  6
HCS_01
 62
     7
 10
16.26142501831055
 20
-1.078060746192932
 30
0.0099999997764826
 70
   192
  0
VERTEX
  5
2A0
  8
0
  6
HCS_01
 62
     7
 10
16.18088912963867
 20
-0.5041421055793762
 30
0.0099999997764826
 70
   192
  0
VERTEX
  5
2A1
  8
0
  6
HCS_01
 62
     7
 10
16.11374855041504
 20
-1.268506169319153
 30
0.0099999997764826
 70
   192
  0
VERTEX
  5
2A2
  8
0
  6
HCS_01
 62
     7
 10
16.08986282348633
 20
-0.8553364276885986
 30
0.0099999997764826
 70
   192
  0
VERTEX
  5
2A3
  8
0
  6
HCS_01
 62
     7
 10
16.05742263793945
 20
-1.018990397453308
 30
0.0099999997764826
 70
   192
  0
VERTEX
  5
2A4
  8
0
  6
HCS_01
 62
     7
 10
16.11374855041504
 20
-1.268506169319153
 30
0.0099999997764826
 70
   192
  0
VERTEX
  5
2A5
  8
0
  6
HCS_01
 62
     7
 10
15.96010112762451
 20
-1.143264055252075
 30
0.0099999997764826
 70
   192
  0
VERTEX
  5
2A6
  8
0
  6
HCS_01
 62
     7
 10
16.11374855041504
 20
-1.268506169319153
 30
0.0099999997764826
 70
   192
  0
VERTEX
  5
2A7
  8
0
  6
HCS_01
 62
     7
 10
16.05742263793945
 20
-1.018990397453308
 30
0.0099999997764826
 70
   192
  0
VERTEX
  5
2A8
  8
0
  6
HCS_01
 62
     7
 10
16.11374855041504
 20
-1.268506169319153
 30
0.0099999997764826
 70
   192
  0
VERTEX
  5
2A9
  8
0
  6
HCS_01
 62
     7
 10
15.96010112762451
 20
-1.143264055252075
 30
0.0099999997764826
 70
   192
  0
VERTEX
  5
2AA
  8
0
  6
HCS_01
 62
     7
 10
15.88957214355469
 20
-1.390520453453064
 30
0.0099999997764826
 70
   192
  0
VERTEX
  5
2AB
  8
0
  6
HCS_01
 62
     7
 10
15.81113433837891
 20
-1.221701860427856
 30
0.0099999997764826
 70
   192
  0
VERTEX
  5
2AC
  8
0
  6
HCS_01
 62
     7
 10
15.88957214355469
 20
-1.390520453453064
 30
0.0099999997764826
 70
   192
  0
VERTEX
  5
2AD
  8
0
  6
HCS_01
 62
     7
 10
15.96010112762451
 20
-1.143264055252075
 30
0.0099999997764826
 70
   192
  0
VERTEX
  5
2AE
  8
0
  6
HCS_01
 62
     7
 10
15.88957214355469
 20
-1.390520453453064
 30
0.0099999997764826
 70
   192
  0
VERTEX
  5
2AF
  8
0
  6
HCS_01
 62
     7
 10
15.81113433837891
 20
-1.221701860427856
 30
0.0099999997764826
 70
   192
  0
VERTEX
  5
2B0
  8
0
  6
HCS_01
 62
     7
 10
15.62375545501709
 20
-1.247847676277161
 30
0.0099999997764826
 70
   192
  0
VERTEX
  5
2B1
  8
0
  6
HCS_01
 62
     7
 10
15.88957214355469
 20
-1.390520453453064
 30
0.0099999997764826
 70
   192
  0
VERTEX
  5
2B2
  8
0
  6
HCS_01
 62
     7
 10
15.62375545501709
 20
-1.247847676277161
 30
0.0099999997764826
 70
   192
  0
VERTEX
  5
2B3
  8
0
  6
HCS_01
 62
     7
 10
15.61084365844727
 20
-1.431191802024841
 30
0.0099999997764826
 70
   192
  0
VERTEX
  5
2B4
  8
0
  6
HCS_01
 62
     7
 10
15.37972640991211
 20
-1.207176327705383
 30
0.0099999997764826
 70
   192
  0
VERTEX
  5
2B5
  8
0
  6
HCS_01
 62
     7
 10
15.61084365844727
 20
-1.431191802024841
 30
0.0099999997764826
 70
   192
  0
VERTEX
  5
2B6
  8
0
  6
HCS_01
 62
     7
 10
15.62375545501709
 20
-1.247847676277161
 30
0.0099999997764826
 70
   192
  0
VERTEX
  5
2B7
  8
0
  6
HCS_01
 62
     7
 10
15.61084365844727
 20
-1.431191802024841
 30
0.0099999997764826
 70
   192
  0
VERTEX
  5
2B8
  8
0
  6
HCS_01
 62
     7
 10
15.37972640991211
 20
-1.207176327705383
 30
0.0099999997764826
 70
   192
  0
VERTEX
  5
2B9
  8
0
  6
HCS_01
 62
     7
 10
15.3577766418457
 20
-1.40440034866333
 30
0.0099999997764826
 70
   192
  0
VERTEX
  5
2BA
  8
0
  6
HCS_01
 62
     7
 10
15.16152095794678
 20
-1.085162162780762
 30
0.0099999997764826
 70
   192
  0
VERTEX
  5
2BB
  8
0
  6
HCS_01
 62
     7
 10
15.3577766418457
 20
-1.40440034866333
 30
0.0099999997764826
 70
   192
  0
VERTEX
  5
2BC
  8
0
  6
HCS_01
 62
     7
 10
15.37972640991211
 20
-1.207176327705383
 30
0.0099999997764826
 70
   192
  0
VERTEX
  5
2BD
  8
0
  6
HCS_01
 62
     7
 10
15.3577766418457
 20
-1.40440034866333
 30
0.0099999997764826
 70
   192
  0
VERTEX
  5
2BE
  8
0
  6
HCS_01
 62
     7
 10
15.16152095794678
 20
-1.085162162780762
 30
0.0099999997764826
 70
   192
  0
VERTEX
  5
2BF
  8
0
  6
HCS_01
 62
     7
 10
15.16152095794678
 20
-1.324025869369507
 30
0.0099999997764826
 70
   192
  0
VERTEX
  5
2C0
  8
0
  6
HCS_01
 62
     7
 10
16.67959785461426
 20
-1.3367760181427
 30
0.0099999997764826
 70
   192
  0
VERTEX
  5
2C1
  8
0
  6
HCS_01
 62
     7
 10
16.66830062866211
 20
-1.277544260025024
 30
0.0099999997764826
 70
   192
  0
VERTEX
  5
2C2
  8
0
  6
HCS_01
 62
     7
 10
16.66830062866211
 20
-1.277544260025024
 30
0.0099999997764826
 70
   192
  0
VERTEX
  5
2C3
  8
0
  6
HCS_01
 62
     7
 10
16.66830062866211
 20
-1.277544260025024
 30
0.0099999997764826
 70
   192
  0
VERTEX
  5
2C4
  8
0
  6
HCS_01
 62
     7
 10
16.67959785461426
 20
-1.3367760181427
 30
0.0099999997764826
 70
   192
  0
VERTEX
  5
2C5
  8
0
  6
HCS_01
 62
     7
 10
16.7134895324707
 20
-1.385355830192566
 30
0.0099999997764826
 70
   192
  0
VERTEX
  5
2C6
  8
0
  6
HCS_01
 62
     7
 10
16.66830062866211
 20
-1.277544260025024
 30
0.0099999997764826
 70
   192
  0
VERTEX
  5
2C7
  8
0
  6
HCS_01
 62
     7
 10
16.7134895324707
 20
-1.385355830192566
 30
0.0099999997764826
 70
   192
  0
VERTEX
  5
2C8
  8
0
  6
HCS_01
 62
     7
 10
16.76223182678223
 20
-1.417796015739441
 30
0.0099999997764826
 70
   192
  0
VERTEX
  5
2C9
  8
0
  6
HCS_01
 62
     7
 10
16.66830062866211
 20
-1.277544260025024
 30
0.0099999997764826
 70
   192
  0
VERTEX
  5
2CA
  8
0
  6
HCS_01
 62
     7
 10
16.76223182678223
 20
-1.417796015739441
 30
0.0099999997764826
 70
   192
  0
VERTEX
  5
2CB
  8
0
  6
HCS_01
 62
     7
 10
16.81807327270508
 20
-1.428609490394592
 30
0.0099999997764826
 70
   192
  0
VERTEX
  5
2CC
  8
0
  6
HCS_01
 62
     7
 10
16.66830062866211
 20
-1.277544260025024
 30
0.0099999997764826
 70
   192
  0
VERTEX
  5
2CD
  8
0
  6
HCS_01
 62
     7
 10
16.81807327270508
 20
-1.428609490394592
 30
0.0099999997764826
 70
   192
  0
VERTEX
  5
2CE
  8
0
  6
HCS_01
 62
     7
 10
16.87472343444824
 20
-1.417473316192627
 30
0.0099999997764826
 70
   192
  0
VERTEX
  5
2CF
  8
0
  6
HCS_01
 62
     7
 10
16.66830062866211
 20
-1.277544260025024
 30
0.0099999997764826
 70
   192
  0
VERTEX
  5
2D0
  8
0
  6
HCS_01
 62
     7
 10
16.87472343444824
 20
-1.417473316192627
 30
0.0099999997764826
 70
   192
  0
VERTEX
  5
2D1
  8
0
  6
HCS_01
 62
     7
 10
16.92330360412598
 20
-1.384064674377441
 30
0.0099999997764826
 70
   192
  0
VERTEX
  5
2D2
  8
0
  6
HCS_01
 62
     7
 10
16.66830062866211
 20
-1.277544260025024
 30
0.0099999997764826
 70
   192
  0
VERTEX
  5
2D3
  8
0
  6
HCS_01
 62
     7
 10
16.92330360412598
 20
-1.384064674377441
 30
0.0099999997764826
 70
   192
  0
VERTEX
  5
2D4
  8
0
  6
HCS_01
 62
     7
 10
16.95671272277832
 20
-1.335162043571472
 30
0.0099999997764826
 70
   192
  0
VERTEX
  5
2D5
  8
0
  6
HCS_01
 62
     7
 10
16.66830062866211
 20
-1.277544260025024
 30
0.0099999997764826
 70
   192
  0
VERTEX
  5
2D6
  8
0
  6
HCS_01
 62
     7
 10
16.95671272277832
 20
-1.335162043571472
 30
0.0099999997764826
 70
   192
  0
VERTEX
  5
2D7
  8
0
  6
HCS_01
 62
     7
 10
16.96784782409668
 20
-1.277544260025024
 30
0.0099999997764826
 70
   192
  0
VERTEX
  5
2D8
  8
0
  6
HCS_01
 62
     7
 10
16.66830062866211
 20
-1.277544260025024
 30
0.0099999997764826
 70
   192
  0
VERTEX
  5
2D9
  8
0
  6
HCS_01
 62
     7
 10
16.96784782409668
 20
-1.277544260025024
 30
0.0099999997764826
 70
   192
  0
VERTEX
  5
2DA
  8
0
  6
HCS_01
 62
     7
 10
16.95687294006348
 20
-1.218958139419556
 30
0.0099999997764826
 70
   192
  0
VERTEX
  5
2DB
  8
0
  6
HCS_01
 62
     7
 10
16.66830062866211
 20
-1.277544260025024
 30
0.0099999997764826
 70
   192
  0
VERTEX
  5
2DC
  8
0
  6
HCS_01
 62
     7
 10
16.95687294006348
 20
-1.218958139419556
 30
0.0099999997764826
 70
   192
  0
VERTEX
  5
2DD
  8
0
  6
HCS_01
 62
     7
 10
16.92394828796387
 20
-1.169732809066772
 30
0.0099999997764826
 70
   192
  0
VERTEX
  5
2DE
  8
0
  6
HCS_01
 62
     7
 10
16.66830062866211
 20
-1.277544260025024
 30
0.0099999997764826
 70
   192
  0
VERTEX
  5
2DF
  8
0
  6
HCS_01
 62
     7
 10
16.92394828796387
 20
-1.169732809066772
 30
0.0099999997764826
 70
   192
  0
VERTEX
  5
2E0
  8
0
  6
HCS_01
 62
     7
 10
16.87553024291992
 20
-1.136324167251587
 30
0.0099999997764826
 70
   192
  0
VERTEX
  5
2E1
  8
0
  6
HCS_01
 62
     7
 10
16.66830062866211
 20
-1.277544260025024
 30
0.0099999997764826
 70
   192
  0
VERTEX
  5
2E2
  8
0
  6
HCS_01
 62
     7
 10
16.87553024291992
 20
-1.136324167251587
 30
0.0099999997764826
 70
   192
  0
VERTEX
  5
2E3
  8
0
  6
HCS_01
 62
     7
 10
16.81807327270508
 20
-1.125187873840332
 30
0.0099999997764826
 70
   192
  0
VERTEX
  5
2E4
  8
0
  6
HCS_01
 62
     7
 10
16.66830062866211
 20
-1.277544260025024
 30
0.0099999997764826
 70
   192
  0
VERTEX
  5
2E5
  8
0
  6
HCS_01
 62
     7
 10
16.81807327270508
 20
-1.125187873840332
 30
0.0099999997764826
 70
   192
  0
VERTEX
  5
2E6
  8
0
  6
HCS_01
 62
     7
 10
16.76223182678223
 20
-1.136324167251587
 30
0.0099999997764826
 70
   192
  0
VERTEX
  5
2E7
  8
0
  6
HCS_01
 62
     7
 10
16.66830062866211
 20
-1.277544260025024
 30
0.0099999997764826
 70
   192
  0
VERTEX
  5
2E8
  8
0
  6
HCS_01
 62
     7
 10
16.76223182678223
 20
-1.136324167251587
 30
0.0099999997764826
 70
   192
  0
VERTEX
  5
2E9
  8
0
  6
HCS_01
 62
     7
 10
16.7134895324707
 20
-1.169732809066772
 30
0.0099999997764826
 70
   192
  0
VERTEX
  5
2EA
  8
0
  6
HCS_01
 62
     7
 10
16.66830062866211
 20
-1.277544260025024
 30
0.0099999997764826
 70
   192
  0
VERTEX
  5
2EB
  8
0
  6
HCS_01
 62
     7
 10
16.7134895324707
 20
-1.169732809066772
 30
0.0099999997764826
 70
   192
  0
VERTEX
  5
2EC
  8
0
  6
HCS_01
 62
     7
 10
16.67959785461426
 20
-1.218958139419556
 30
0.0099999997764826
 70
   192
  0
VERTEX
  5
2ED
  8
0
  6
HCS_01
 62
     7
 10
18.38198661804199
 20
0.3796539306640625
 30
0.0099999997764826
 70
   192
  0
VERTEX
  5
2EE
  8
0
  6
HCS_01
 62
     7
 10
17.91426467895508
 20
0.6359483003616333
 30
0.0099999997764826
 70
   192
  0
VERTEX
  5
2EF
  8
0
  6
HCS_01
 62
     7
 10
18.2134895324707
 20
0.2347216606140137
 30
0.0099999997764826
 70
   192
  0
VERTEX
  5
2F0
  8
0
  6
HCS_01
 62
     7
 10
18.38198661804199
 20
0.3796539306640625
 30
0.0099999997764826
 70
   192
  0
VERTEX
  5
2F1
  8
0
  6
HCS_01
 62
     7
 10
18.2134895324707
 20
0.2347216606140137
 30
0.0099999997764826
 70
   192
  0
VERTEX
  5
2F2
  8
0
  6
HCS_01
 62
     7
 10
18.31710624694824
 20
-0.4150523543357849
 30
0.0099999997764826
 70
   192
  0
VERTEX
  5
2F3
  8
0
  6
HCS_01
 62
     7
 10
18.38198661804199
 20
0.3796539306640625
 30
0.0099999997764826
 70
   192
  0
VERTEX
  5
2F4
  8
0
  6
HCS_01
 62
     7
 10
18.31710624694824
 20
-0.4150523543357849
 30
0.0099999997764826
 70
   192
  0
VERTEX
  5
2F5
  8
0
  6
HCS_01
 62
     7
 10
18.3668155670166
 20
-1.159403562545776
 30
0.0099999997764826
 70
   192
  0
VERTEX
  5
2F6
  8
0
  6
HCS_01
 62
     7
 10
18.38198661804199
 20
0.3796539306640625
 30
0.0099999997764826
 70
   192
  0
VERTEX
  5
2F7
  8
0
  6
HCS_01
 62
     7
 10
18.3668155670166
 20
-1.159403562545776
 30
0.0099999997764826
 70
   192
  0
VERTEX
  5
2F8
  8
0
  6
HCS_01
 62
     7
 10
18.49512481689453
 20
-0.8309658169746399
 30
0.0099999997764826
 70
   192
  0
VERTEX
  5
2F9
  8
0
  6
HCS_01
 62
     7
 10
18.38198661804199
 20
0.3796539306640625
 30
0.0099999997764826
 70
   192
  0
VERTEX
  5
2FA
  8
0
  6
HCS_01
 62
     7
 10
18.49512481689453
 20
-0.8309658169746399
 30
0.0099999997764826
 70
   192
  0
VERTEX
  5
2FB
  8
0
  6
HCS_01
 62
     7
 10
18.53789329528809
 20
-0.3892292976379395
 30
0.0099999997764826
 70
   192
  0
VERTEX
  5
2FC
  8
0
  6
HCS_01
 62
     7
 10
17.46365165710449
 20
-0.4266727566719055
 30
0.0099999997764826
 70
   192
  0
VERTEX
  5
2FD
  8
0
  6
HCS_01
 62
     7
 10
17.57340049743652
 20
0.2318166494369507
 30
0.0099999997764826
 70
   192
  0
VERTEX
  5
2FE
  8
0
  6
HCS_01
 62
     7
 10
17.62714385986328
 20
0.5678398609161377
 30
0.0099999997764826
 70
   192
  0
VERTEX
  5
2FF
  8
0
  6
HCS_01
 62
     7
 10
17.90264511108398
 20
0.4513130187988281
 30
0.0099999997764826
 70
   192
  0
VERTEX
  5
300
  8
0
  6
HCS_01
 62
     7
 10
17.62714385986328
 20
0.5678398609161377
 30
0.0099999997764826
 70
   192
  0
VERTEX
  5
301
  8
0
  6
HCS_01
 62
     7
 10
17.57340049743652
 20
0.2318166494369507
 30
0.0099999997764826
 70
   192
  0
VERTEX
  5
302
  8
0
  6
HCS_01
 62
     7
 10
17.62714385986328
 20
0.5678398609161377
 30
0.0099999997764826
 70
   192
  0
VERTEX
  5
303
  8
0
  6
HCS_01
 62
     7
 10
17.90264511108398
 20
0.4513130187988281
 30
0.0099999997764826
 70
   192
  0
VERTEX
  5
304
  8
0
  6
HCS_01
 62
     7
 10
17.91426467895508
 20
0.6359483003616333
 30
0.0099999997764826
 70
   192
  0
VERTEX
  5
305
  8
0
  6
HCS_01
 62
     7
 10
18.2134895324707
 20
0.2347216606140137
 30
0.0099999997764826
 70
   192
  0
VERTEX
  5
306
  8
0
  6
HCS_01
 62
     7
 10
17.91426467895508
 20
0.6359483003616333
 30
0.0099999997764826
 70
   192
  0
VERTEX
  5
307
  8
0
  6
HCS_01
 62
     7
 10
17.90264511108398
 20
0.4513130187988281
 30
0.0099999997764826
 70
   192
  0
VERTEX
  5
308
  8
0
  6
HCS_01
 62
     7
 10
17.24415588378906
 20
-0.4382931590080261
 30
0.0099999997764826
 70
   192
  0
VERTEX
  5
309
  8
0
  6
HCS_01
 62
     7
 10
17.28418159484863
 20
-0.8569503426551819
 30
0.0099999997764826
 70
   192
  0
VERTEX
  5
30A
  8
0
  6
HCS_01
 62
     7
 10
17.28724670410156
 20
0.0268456935882568
 30
0.0099999997764826
 70
   192
  0
VERTEX
  5
30B
  8
0
  6
HCS_01
 62
     7
 10
17.40425872802734
 20
-1.17037832736969
 30
0.0099999997764826
 70
   192
  0
VERTEX
  5
30C
  8
0
  6
HCS_01
 62
     7
 10
17.28724670410156
 20
0.0268456935882568
 30
0.0099999997764826
 70
   192
  0
VERTEX
  5
30D
  8
0
  6
HCS_01
 62
     7
 10
17.28418159484863
 20
-0.8569503426551819
 30
0.0099999997764826
 70
   192
  0
VERTEX
  5
30E
  8
0
  6
HCS_01
 62
     7
 10
17.28724670410156
 20
0.0268456935882568
 30
0.0099999997764826
 70
   192
  0
VERTEX
  5
30F
  8
0
  6
HCS_01
 62
     7
 10
17.40425872802734
 20
-1.17037832736969
 30
0.0099999997764826
 70
   192
  0
VERTEX
  5
310
  8
0
  6
HCS_01
 62
     7
 10
17.41652488708496
 20
0.3635144233703613
 30
0.0099999997764826
 70
   192
  0
VERTEX
  5
311
  8
0
  6
HCS_01
 62
     7
 10
17.46365165710449
 20
-0.4266727566719055
 30
0.0099999997764826
 70
   192
  0
VERTEX
  5
312
  8
0
  6
HCS_01
 62
     7
 10
17.41652488708496
 20
0.3635144233703613
 30
0.0099999997764826
 70
   192
  0
VERTEX
  5
313
  8
0
  6
HCS_01
 62
     7
 10
17.40425872802734
 20
-1.17037832736969
 30
0.0099999997764826
 70
   192
  0
VERTEX
  5
314
  8
0
  6
HCS_01
 62
     7
 10
17.41652488708496
 20
0.3635144233703613
 30
0.0099999997764826
 70
   192
  0
VERTEX
  5
315
  8
0
  6
HCS_01
 62
     7
 10
17.46365165710449
 20
-0.4266727566719055
 30
0.0099999997764826
 70
   192
  0
VERTEX
  5
316
  8
0
  6
HCS_01
 62
     7
 10
17.62714385986328
 20
0.5678398609161377
 30
0.0099999997764826
 70
   192
  0
VERTEX
  5
317
  8
0
  6
HCS_01
 62
     7
 10
17.60051345825195
 20
-1.365988492965698
 30
0.0099999997764826
 70
   192
  0
VERTEX
  5
318
  8
0
  6
HCS_01
 62
     7
 10
17.86907386779785
 20
-1.431191802024841
 30
0.0099999997764826
 70
   192
  0
VERTEX
  5
319
  8
0
  6
HCS_01
 62
     7
 10
17.89231491088867
 20
-1.247847676277161
 30
0.0099999997764826
 70
   192
  0
VERTEX
  5
31A
  8
0
  6
HCS_01
 62
     7
 10
18.15684127807617
 20
-1.363244771957397
 30
0.0099999997764826
 70
   192
  0
VERTEX
  5
31B
  8
0
  6
HCS_01
 62
     7
 10
17.89231491088867
 20
-1.247847676277161
 30
0.0099999997764826
 70
   192
  0
VERTEX
  5
31C
  8
0
  6
HCS_01
 62
     7
 10
17.86907386779785
 20
-1.431191802024841
 30
0.0099999997764826
 70
   192
  0
VERTEX
  5
31D
  8
0
  6
HCS_01
 62
     7
 10
17.89231491088867
 20
-1.247847676277161
 30
0.0099999997764826
 70
   192
  0
VERTEX
  5
31E
  8
0
  6
HCS_01
 62
     7
 10
18.15684127807617
 20
-1.363244771957397
 30
0.0099999997764826
 70
   192
  0
VERTEX
  5
31F
  8
0
  6
HCS_01
 62
     7
 10
18.21090888977051
 20
-1.0396488904953
 30
0.0099999997764826
 70
   192
  0
VERTEX
  5
320
  8
0
  6
HCS_01
 62
     7
 10
18.3668155670166
 20
-1.159403562545776
 30
0.0099999997764826
 70
   192
  0
VERTEX
  5
321
  8
0
  6
HCS_01
 62
     7
 10
18.21090888977051
 20
-1.0396488904953
 30
0.0099999997764826
 70
   192
  0
VERTEX
  5
322
  8
0
  6
HCS_01
 62
     7
 10
18.15684127807617
 20
-1.363244771957397
 30
0.0099999997764826
 70
   192
  0
VERTEX
  5
323
  8
0
  6
HCS_01
 62
     7
 10
18.21090888977051
 20
-1.0396488904953
 30
0.0099999997764826
 70
   192
  0
VERTEX
  5
324
  8
0
  6
HCS_01
 62
     7
 10
18.3668155670166
 20
-1.159403562545776
 30
0.0099999997764826
 70
   192
  0
VERTEX
  5
325
  8
0
  6
HCS_01
 62
     7
 10
18.31710624694824
 20
-0.4150523543357849
 30
0.0099999997764826
 70
   192
  0
VERTEX
  5
326
  8
0
  6
HCS_01
 62
     7
 10
17.60051345825195
 20
-1.365988492965698
 30
0.0099999997764826
 70
   192
  0
VERTEX
  5
327
  8
0
  6
HCS_01
 62
     7
 10
17.89231491088867
 20
-1.247847676277161
 30
0.0099999997764826
 70
   192
  0
VERTEX
  5
328
  8
0
  6
HCS_01
 62
     7
 10
17.5708179473877
 20
-1.042553901672363
 30
0.0099999997764826
 70
   192
  0
VERTEX
  5
329
  8
0
  6
HCS_01
 62
     7
 10
17.60051345825195
 20
-1.365988492965698
 30
0.0099999997764826
 70
   192
  0
VERTEX
  5
32A
  8
0
  6
HCS_01
 62
     7
 10
17.5708179473877
 20
-1.042553901672363
 30
0.0099999997764826
 70
   192
  0
VERTEX
  5
32B
  8
0
  6
HCS_01
 62
     7
 10
17.46365165710449
 20
-0.4266727566719055
 30
0.0099999997764826
 70
   192
  0
VERTEX
  5
32C
  8
0
  6
HCS_01
 62
     7
 10
17.60051345825195
 20
-1.365988492965698
 30
0.0099999997764826
 70
   192
  0
VERTEX
  5
32D
  8
0
  6
HCS_01
 62
     7
 10
17.46365165710449
 20
-0.4266727566719055
 30
0.0099999997764826
 70
   192
  0
VERTEX
  5
32E
  8
0
  6
HCS_01
 62
     7
 10
17.40425872802734
 20
-1.17037832736969
 30
0.0099999997764826
 70
   192
  0
VERTEX
  5
32F
  8
0
  6
HCS_01
 62
     7
 10
19.91458892822266
 20
0.3796539306640625
 30
0.0099999997764826
 70
   192
  0
VERTEX
  5
330
  8
0
  6
HCS_01
 62
     7
 10
19.44686698913574
 20
0.6359483003616333
 30
0.0099999997764826
 70
   192
  0
VERTEX
  5
331
  8
0
  6
HCS_01
 62
     7
 10
19.74609184265137
 20
0.2347216606140137
 30
0.0099999997764826
 70
   192
  0
VERTEX
  5
332
  8
0
  6
HCS_01
 62
     7
 10
19.91458892822266
 20
0.3796539306640625
 30
0.0099999997764826
 70
   192
  0
VERTEX
  5
333
  8
0
  6
HCS_01
 62
     7
 10
19.74609184265137
 20
0.2347216606140137
 30
0.0099999997764826
 70
   192
  0
VERTEX
  5
334
  8
0
  6
HCS_01
 62
     7
 10
19.84970664978027
 20
-0.4150523543357849
 30
0.0099999997764826
 70
   192
  0
VERTEX
  5
335
  8
0
  6
HCS_01
 62
     7
 10
19.91458892822266
 20
0.3796539306640625
 30
0.0099999997764826
 70
   192
  0
VERTEX
  5
336
  8
0
  6
HCS_01
 62
     7
 10
19.84970664978027
 20
-0.4150523543357849
 30
0.0099999997764826
 70
   192
  0
VERTEX
  5
337
  8
0
  6
HCS_01
 62
     7
 10
19.89941787719727
 20
-1.159403562545776
 30
0.0099999997764826
 70
   192
  0
VERTEX
  5
338
  8
0
  6
HCS_01
 62
     7
 10
19.91458892822266
 20
0.3796539306640625
 30
0.0099999997764826
 70
   192
  0
VERTEX
  5
339
  8
0
  6
HCS_01
 62
     7
 10
19.89941787719727
 20
-1.159403562545776
 30
0.0099999997764826
 70
   192
  0
VERTEX
  5
33A
  8
0
  6
HCS_01
 62
     7
 10
20.02772521972656
 20
-0.8309658169746399
 30
0.0099999997764826
 70
   192
  0
VERTEX
  5
33B
  8
0
  6
HCS_01
 62
     7
 10
19.91458892822266
 20
0.3796539306640625
 30
0.0099999997764826
 70
   192
  0
VERTEX
  5
33C
  8
0
  6
HCS_01
 62
     7
 10
20.02772521972656
 20
-0.8309658169746399
 30
0.0099999997764826
 70
   192
  0
VERTEX
  5
33D
  8
0
  6
HCS_01
 62
     7
 10
20.07049560546875
 20
-0.3892292976379395
 30
0.0099999997764826
 70
   192
  0
VERTEX
  5
33E
  8
0
  6
HCS_01
 62
     7
 10
18.99625396728516
 20
-0.4266727566719055
 30
0.0099999997764826
 70
   192
  0
VERTEX
  5
33F
  8
0
  6
HCS_01
 62
     7
 10
19.10600280761719
 20
0.2318166494369507
 30
0.0099999997764826
 70
   192
  0
VERTEX
  5
340
  8
0
  6
HCS_01
 62
     7
 10
19.15974617004395
 20
0.5678398609161377
 30
0.0099999997764826
 70
   192
  0
VERTEX
  5
341
  8
0
  6
HCS_01
 62
     7
 10
19.43524551391602
 20
0.4513130187988281
 30
0.0099999997764826
 70
   192
  0
VERTEX
  5
342
  8
0
  6
HCS_01
 62
     7
 10
19.15974617004395
 20
0.5678398609161377
 30
0.0099999997764826
 70
   192
  0
VERTEX
  5
343
  8
0
  6
HCS_01
 62
     7
 10
19.10600280761719
 20
0.2318166494369507
 30
0.0099999997764826
 70
   192
  0
VERTEX
  5
344
  8
0
  6
HCS_01
 62
     7
 10
19.15974617004395
 20
0.5678398609161377
 30
0.0099999997764826
 70
   192
  0
VERTEX
  5
345
  8
0
  6
HCS_01
 62
     7
 10
19.43524551391602
 20
0.4513130187988281
 30
0.0099999997764826
 70
   192
  0
VERTEX
  5
346
  8
0
  6
HCS_01
 62
     7
 10
19.44686698913574
 20
0.6359483003616333
 30
0.0099999997764826
 70
   192
  0
VERTEX
  5
347
  8
0
  6
HCS_01
 62
     7
 10
19.74609184265137
 20
0.2347216606140137
 30
0.0099999997764826
 70
   192
  0
VERTEX
  5
348
  8
0
  6
HCS_01
 62
     7
 10
19.44686698913574
 20
0.6359483003616333
 30
0.0099999997764826
 70
   192
  0
VERTEX
  5
349
  8
0
  6
HCS_01
 62
     7
 10
19.43524551391602
 20
0.4513130187988281
 30
0.0099999997764826
 70
   192
  0
VERTEX
  5
34A
  8
0
  6
HCS_01
 62
     7
 10
18.77675628662109
 20
-0.4382931590080261
 30
0.0099999997764826
 70
   192
  0
VERTEX
  5
34B
  8
0
  6
HCS_01
 62
     7
 10
18.81678199768066
 20
-0.8569503426551819
 30
0.0099999997764826
 70
   192
  0
VERTEX
  5
34C
  8
0
  6
HCS_01
 62
     7
 10
18.81984901428223
 20
0.0268456935882568
 30
0.0099999997764826
 70
   192
  0
VERTEX
  5
34D
  8
0
  6
HCS_01
 62
     7
 10
18.93686103820801
 20
-1.17037832736969
 30
0.0099999997764826
 70
   192
  0
VERTEX
  5
34E
  8
0
  6
HCS_01
 62
     7
 10
18.81984901428223
 20
0.0268456935882568
 30
0.0099999997764826
 70
   192
  0
VERTEX
  5
34F
  8
0
  6
HCS_01
 62
     7
 10
18.81678199768066
 20
-0.8569503426551819
 30
0.0099999997764826
 70
   192
  0
VERTEX
  5
350
  8
0
  6
HCS_01
 62
     7
 10
18.81984901428223
 20
0.0268456935882568
 30
0.0099999997764826
 70
   192
  0
VERTEX
  5
351
  8
0
  6
HCS_01
 62
     7
 10
18.93686103820801
 20
-1.17037832736969
 30
0.0099999997764826
 70
   192
  0
VERTEX
  5
352
  8
0
  6
HCS_01
 62
     7
 10
18.94912719726562
 20
0.3635144233703613
 30
0.0099999997764826
 70
   192
  0
VERTEX
  5
353
  8
0
  6
HCS_01
 62
     7
 10
18.99625396728516
 20
-0.4266727566719055
 30
0.0099999997764826
 70
   192
  0
VERTEX
  5
354
  8
0
  6
HCS_01
 62
     7
 10
18.94912719726562
 20
0.3635144233703613
 30
0.0099999997764826
 70
   192
  0
VERTEX
  5
355
  8
0
  6
HCS_01
 62
     7
 10
18.93686103820801
 20
-1.17037832736969
 30
0.0099999997764826
 70
   192
  0
VERTEX
  5
356
  8
0
  6
HCS_01
 62
     7
 10
18.94912719726562
 20
0.3635144233703613
 30
0.0099999997764826
 70
   192
  0
VERTEX
  5
357
  8
0
  6
HCS_01
 62
     7
 10
18.99625396728516
 20
-0.4266727566719055
 30
0.0099999997764826
 70
   192
  0
VERTEX
  5
358
  8
0
  6
HCS_01
 62
     7
 10
19.15974617004395
 20
0.5678398609161377
 30
0.0099999997764826
 70
   192
  0
VERTEX
  5
359
  8
0
  6
HCS_01
 62
     7
 10
19.13311576843262
 20
-1.365988492965698
 30
0.0099999997764826
 70
   192
  0
VERTEX
  5
35A
  8
0
  6
HCS_01
 62
     7
 10
19.40167617797852
 20
-1.431191802024841
 30
0.0099999997764826
 70
   192
  0
VERTEX
  5
35B
  8
0
  6
HCS_01
 62
     7
 10
19.42491722106934
 20
-1.247847676277161
 30
0.0099999997764826
 70
   192
  0
VERTEX
  5
35C
  8
0
  6
HCS_01
 62
     7
 10
19.6894416809082
 20
-1.363244771957397
 30
0.0099999997764826
 70
   192
  0
VERTEX
  5
35D
  8
0
  6
HCS_01
 62
     7
 10
19.42491722106934
 20
-1.247847676277161
 30
0.0099999997764826
 70
   192
  0
VERTEX
  5
35E
  8
0
  6
HCS_01
 62
     7
 10
19.40167617797852
 20
-1.431191802024841
 30
0.0099999997764826
 70
   192
  0
VERTEX
  5
35F
  8
0
  6
HCS_01
 62
     7
 10
19.42491722106934
 20
-1.247847676277161
 30
0.0099999997764826
 70
   192
  0
VERTEX
  5
360
  8
0
  6
HCS_01
 62
     7
 10
19.6894416809082
 20
-1.363244771957397
 30
0.0099999997764826
 70
   192
  0
VERTEX
  5
361
  8
0
  6
HCS_01
 62
     7
 10
19.74350929260254
 20
-1.0396488904953
 30
0.0099999997764826
 70
   192
  0
VERTEX
  5
362
  8
0
  6
HCS_01
 62
     7
 10
19.89941787719727
 20
-1.159403562545776
 30
0.0099999997764826
 70
   192
  0
VERTEX
  5
363
  8
0
  6
HCS_01
 62
     7
 10
19.74350929260254
 20
-1.0396488904953
 30
0.0099999997764826
 70
   192
  0
VERTEX
  5
364
  8
0
  6
HCS_01
 62
     7
 10
19.6894416809082
 20
-1.363244771957397
 30
0.0099999997764826
 70
   192
  0
VERTEX
  5
365
  8
0
  6
HCS_01
 62
     7
 10
19.74350929260254
 20
-1.0396488904953
 30
0.0099999997764826
 70
   192
  0
VERTEX
  5
366
  8
0
  6
HCS_01
 62
     7
 10
19.89941787719727
 20
-1.159403562545776
 30
0.0099999997764826
 70
   192
  0
VERTEX
  5
367
  8
0
  6
HCS_01
 62
     7
 10
19.84970664978027
 20
-0.4150523543357849
 30
0.0099999997764826
 70
   192
  0
VERTEX
  5
368
  8
0
  6
HCS_01
 62
     7
 10
19.13311576843262
 20
-1.365988492965698
 30
0.0099999997764826
 70
   192
  0
VERTEX
  5
369
  8
0
  6
HCS_01
 62
     7
 10
19.42491722106934
 20
-1.247847676277161
 30
0.0099999997764826
 70
   192
  0
VERTEX
  5
36A
  8
0
  6
HCS_01
 62
     7
 10
19.10342025756836
 20
-1.042553901672363
 30
0.0099999997764826
 70
   192
  0
VERTEX
  5
36B
  8
0
  6
HCS_01
 62
     7
 10
19.13311576843262
 20
-1.365988492965698
 30
0.0099999997764826
 70
   192
  0
VERTEX
  5
36C
  8
0
  6
HCS_01
 62
     7
 10
19.10342025756836
 20
-1.042553901672363
 30
0.0099999997764826
 70
   192
  0
VERTEX
  5
36D
  8
0
  6
HCS_01
 62
     7
 10
18.99625396728516
 20
-0.4266727566719055
 30
0.0099999997764826
 70
   192
  0
VERTEX
  5
36E
  8
0
  6
HCS_01
 62
     7
 10
19.13311576843262
 20
-1.365988492965698
 30
0.0099999997764826
 70
   192
  0
VERTEX
  5
36F
  8
0
  6
HCS_01
 62
     7
 10
18.99625396728516
 20
-0.4266727566719055
 30
0.0099999997764826
 70
   192
  0
VERTEX
  5
370
  8
0
  6
HCS_01
 62
     7
 10
18.93686103820801
 20
-1.17037832736969
 30
0.0099999997764826
 70
   192
  0
VERTEX
  5
371
  8
0
  6
HCS_01
 62
     7
 10
-6.5
 20
-1.592167019844055
 30
0.0099999997764826
 70
   192
  0
VERTEX
  5
372
  8
0
  6
HCS_01
 62
     7
 10
-6.5
 20
0.4078330099582672
 30
0.0099999997764826
 70
   192
  0
VERTEX
  5
373
  8
0
  6
HCS_01
 62
     7
 10
-1.5
 20
-0.5921670198440552
 30
0.0099999997764826
 70
   192
  0
VERTEX
  5
374
  8
0
  6
HCS_01
 62
     7
 10
6.5
 20
0.4078330099582672
 30
0.0099999997764826
 70
   192
  0
VERTEX
  5
375
  8
0
  6
HCS_01
 62
     7
 10
6.5
 20
-1.592167019844055
 30
0.0099999997764826
 70
   192
  0
VERTEX
  5
376
  8
0
  6
HCS_01
 62
     7
 10
1.5
 20
-0.5921670198440552
 30
0.0099999997764826
 70
   192
  0
VERTEX
  5
377
  8
0
  6
HCS_01
 62
     7
 10
0.0
 20
0.0
 30
0.0
 70
   128
 71
     1
 72
     2
 73
     3
 74
     3
  0
VERTEX
  5
378
  8
0
  6
HCS_01
 62
     7
 10
0.0
 20
0.0
 30
0.0
 70
   128
 71
     4
 72
     5
 73
     6
 74
     6
  0
VERTEX
  5
379
  8
0
  6
HCS_01
 62
     7
 10
0.0
 20
0.0
 30
0.0
 70
   128
 71
     7
 72
     8
 73
     9
 74
     9
  0
VERTEX
  5
37A
  8
0
  6
HCS_01
 62
     7
 10
0.0
 20
0.0
 30
0.0
 70
   128
 71
    10
 72
    11
 73
    12
 74
    12
  0
VERTEX
  5
37B
  8
0
  6
HCS_01
 62
     7
 10
0.0
 20
0.0
 30
0.0
 70
   128
 71
    13
 72
    14
 73
    15
 74
    15
  0
VERTEX
  5
37C
  8
0
  6
HCS_01
 62
     7
 10
0.0
 20
0.0
 30
0.0
 70
   128
 71
    16
 72
    17
 73
    18
 74
    18
  0
VERTEX
  5
37D
  8
0
  6
HCS_01
 62
     7
 10
0.0
 20
0.0
 30
0.0
 70
   128
 71
    19
 72
    20
 73
    21
 74
    21
  0
VERTEX
  5
37E
  8
0
  6
HCS_01
 62
     7
 10
0.0
 20
0.0
 30
0.0
 70
   128
 71
    22
 72
    23
 73
    24
 74
    24
  0
VERTEX
  5
37F
  8
0
  6
HCS_01
 62
     7
 10
0.0
 20
0.0
 30
0.0
 70
   128
 71
    25
 72
    26
 73
    27
 74
    27
  0
VERTEX
  5
380
  8
0
  6
HCS_01
 62
     7
 10
0.0
 20
0.0
 30
0.0
 70
   128
 71
    28
 72
    29
 73
    30
 74
    30
  0
VERTEX
  5
381
  8
0
  6
HCS_01
 62
     7
 10
0.0
 20
0.0
 30
0.0
 70
   128
 71
    31
 72
    32
 73
    33
 74
    33
  0
VERTEX
  5
382
  8
0
  6
HCS_01
 62
     7
 10
0.0
 20
0.0
 30
0.0
 70
   128
 71
    34
 72
    35
 73
    36
 74
    36
  0
VERTEX
  5
383
  8
0
  6
HCS_01
 62
     7
 10
0.0
 20
0.0
 30
0.0
 70
   128
 71
    37
 72
    38
 73
    39
 74
    39
  0
VERTEX
  5
384
  8
0
  6
HCS_01
 62
     7
 10
0.0
 20
0.0
 30
0.0
 70
   128
 71
    40
 72
    41
 73
    42
 74
    42
  0
VERTEX
  5
385
  8
0
  6
HCS_01
 62
     7
 10
0.0
 20
0.0
 30
0.0
 70
   128
 71
    43
 72
    44
 73
    45
 74
    45
  0
VERTEX
  5
386
  8
0
  6
HCS_01
 62
     7
 10
0.0
 20
0.0
 30
0.0
 70
   128
 71
    46
 72
    47
 73
    48
 74
    48
  0
VERTEX
  5
387
  8
0
  6
HCS_01
 62
     7
 10
0.0
 20
0.0
 30
0.0
 70
   128
 71
    49
 72
    50
 73
    51
 74
    51
  0
VERTEX
  5
388
  8
0
  6
HCS_01
 62
     7
 10
0.0
 20
0.0
 30
0.0
 70
   128
 71
    52
 72
    53
 73
    54
 74
    54
  0
VERTEX
  5
389
  8
0
  6
HCS_01
 62
     7
 10
0.0
 20
0.0
 30
0.0
 70
   128
 71
    55
 72
    56
 73
    57
 74
    57
  0
VERTEX
  5
38A
  8
0
  6
HCS_01
 62
     7
 10
0.0
 20
0.0
 30
0.0
 70
   128
 71
    58
 72
    59
 73
    60
 74
    60
  0
VERTEX
  5
38B
  8
0
  6
HCS_01
 62
     7
 10
0.0
 20
0.0
 30
0.0
 70
   128
 71
    61
 72
    62
 73
    63
 74
    63
  0
VERTEX
  5
38C
  8
0
  6
HCS_01
 62
     7
 10
0.0
 20
0.0
 30
0.0
 70
   128
 71
    64
 72
    65
 73
    66
 74
    66
  0
VERTEX
  5
38D
  8
0
  6
HCS_01
 62
     7
 10
0.0
 20
0.0
 30
0.0
 70
   128
 71
    67
 72
    68
 73
    69
 74
    69
  0
VERTEX
  5
38E
  8
0
  6
HCS_01
 62
     7
 10
0.0
 20
0.0
 30
0.0
 70
   128
 71
    70
 72
    71
 73
    72
 74
    72
  0
VERTEX
  5
38F
  8
0
  6
HCS_01
 62
     7
 10
0.0
 20
0.0
 30
0.0
 70
   128
 71
    73
 72
    74
 73
    75
 74
    75
  0
VERTEX
  5
390
  8
0
  6
HCS_01
 62
     7
 10
0.0
 20
0.0
 30
0.0
 70
   128
 71
    76
 72
    77
 73
    78
 74
    78
  0
VERTEX
  5
391
  8
0
  6
HCS_01
 62
     7
 10
0.0
 20
0.0
 30
0.0
 70
   128
 71
    79
 72
    80
 73
    81
 74
    81
  0
VERTEX
  5
392
  8
0
  6
HCS_01
 62
     7
 10
0.0
 20
0.0
 30
0.0
 70
   128
 71
    82
 72
    83
 73
    84
 74
    84
  0
VERTEX
  5
393
  8
0
  6
HCS_01
 62
     7
 10
0.0
 20
0.0
 30
0.0
 70
   128
 71
    85
 72
    86
 73
    87
 74
    87
  0
VERTEX
  5
394
  8
0
  6
HCS_01
 62
     7
 10
0.0
 20
0.0
 30
0.0
 70
   128
 71
    88
 72
    89
 73
    90
 74
    90
  0
VERTEX
  5
395
  8
0
  6
HCS_01
 62
     7
 10
0.0
 20
0.0
 30
0.0
 70
   128
 71
    91
 72
    92
 73
    93
 74
    93
  0
VERTEX
  5
396
  8
0
  6
HCS_01
 62
     7
 10
0.0
 20
0.0
 30
0.0
 70
   128
 71
    94
 72
    95
 73
    96
 74
    96
  0
VERTEX
  5
397
  8
0
  6
HCS_01
 62
     7
 10
0.0
 20
0.0
 30
0.0
 70
   128
 71
    97
 72
    98
 73
    99
 74
    99
  0
VERTEX
  5
398
  8
0
  6
HCS_01
 62
     7
 10
0.0
 20
0.0
 30
0.0
 70
   128
 71
   100
 72
   101
 73
   102
 74
   102
  0
VERTEX
  5
399
  8
0
  6
HCS_01
 62
     7
 10
0.0
 20
0.0
 30
0.0
 70
   128
 71
   103
 72
   104
 73
   105
 74
   105
  0
VERTEX
  5
39A
  8
0
  6
HCS_01
 62
     7
 10
0.0
 20
0.0
 30
0.0
 70
   128
 71
   106
 72
   107
 73
   108
 74
   108
  0
VERTEX
  5
39B
  8
0
  6
HCS_01
 62
     7
 10
0.0
 20
0.0
 30
0.0
 70
   128
 71
   109
 72
   110
 73
   111
 74
   111
  0
VERTEX
  5
39C
  8
0
  6
HCS_01
 62
     7
 10
0.0
 20
0.0
 30
0.0
 70
   128
 71
   112
 72
   113
 73
   114
 74
   114
  0
VERTEX
  5
39D
  8
0
  6
HCS_01
 62
     7
 10
0.0
 20
0.0
 30
0.0
 70
   128
 71
   115
 72
   116
 73
   117
 74
   117
  0
VERTEX
  5
39E
  8
0
  6
HCS_01
 62
     7
 10
0.0
 20
0.0
 30
0.0
 70
   128
 71
   118
 72
   119
 73
   120
 74
   120
  0
VERTEX
  5
39F
  8
0
  6
HCS_01
 62
     7
 10
0.0
 20
0.0
 30
0.0
 70
   128
 71
   121
 72
   122
 73
   123
 74
   123
  0
VERTEX
  5
3A0
  8
0
  6
HCS_01
 62
     7
 10
0.0
 20
0.0
 30
0.0
 70
   128
 71
   124
 72
   125
 73
   126
 74
   126
  0
VERTEX
  5
3A1
  8
0
  6
HCS_01
 62
     7
 10
0.0
 20
0.0
 30
0.0
 70
   128
 71
   127
 72
   128
 73
   129
 74
   129
  0
VERTEX
  5
3A2
  8
0
  6
HCS_01
 62
     7
 10
0.0
 20
0.0
 30
0.0
 70
   128
 71
   130
 72
   131
 73
   132
 74
   132
  0
VERTEX
  5
3A3
  8
0
  6
HCS_01
 62
     7
 10
0.0
 20
0.0
 30
0.0
 70
   128
 71
   133
 72
   134
 73
   135
 74
   135
  0
VERTEX
  5
3A4
  8
0
  6
HCS_01
 62
     7
 10
0.0
 20
0.0
 30
0.0
 70
   128
 71
   136
 72
   137
 73
   138
 74
   138
  0
VERTEX
  5
3A5
  8
0
  6
HCS_01
 62
     7
 10
0.0
 20
0.0
 30
0.0
 70
   128
 71
   139
 72
   140
 73
   141
 74
   141
  0
VERTEX
  5
3A6
  8
0
  6
HCS_01
 62
     7
 10
0.0
 20
0.0
 30
0.0
 70
   128
 71
   142
 72
   143
 73
   144
 74
   144
  0
VERTEX
  5
3A7
  8
0
  6
HCS_01
 62
     7
 10
0.0
 20
0.0
 30
0.0
 70
   128
 71
   145
 72
   146
 73
   147
 74
   147
  0
VERTEX
  5
3A8
  8
0
  6
HCS_01
 62
     7
 10
0.0
 20
0.0
 30
0.0
 70
   128
 71
   148
 72
   149
 73
   150
 74
   150
  0
VERTEX
  5
3A9
  8
0
  6
HCS_01
 62
     7
 10
0.0
 20
0.0
 30
0.0
 70
   128
 71
   151
 72
   152
 73
   153
 74
   153
  0
VERTEX
  5
3AA
  8
0
  6
HCS_01
 62
     7
 10
0.0
 20
0.0
 30
0.0
 70
   128
 71
   154
 72
   155
 73
   156
 74
   156
  0
VERTEX
  5
3AB
  8
0
  6
HCS_01
 62
     7
 10
0.0
 20
0.0
 30
0.0
 70
   128
 71
   157
 72
   158
 73
   159
 74
   159
  0
VERTEX
  5
3AC
  8
0
  6
HCS_01
 62
     7
 10
0.0
 20
0.0
 30
0.0
 70
   128
 71
   160
 72
   161
 73
   162
 74
   162
  0
VERTEX
  5
3AD
  8
0
  6
HCS_01
 62
     7
 10
0.0
 20
0.0
 30
0.0
 70
   128
 71
   163
 72
   164
 73
   165
 74
   165
  0
VERTEX
  5
3AE
  8
0
  6
HCS_01
 62
     7
 10
0.0
 20
0.0
 30
0.0
 70
   128
 71
   166
 72
   167
 73
   168
 74
   168
  0
VERTEX
  5
3AF
  8
0
  6
HCS_01
 62
     7
 10
0.0
 20
0.0
 30
0.0
 70
   128
 71
   169
 72
   170
 73
   171
 74
   171
  0
VERTEX
  5
3B0
  8
0
  6
HCS_01
 62
     7
 10
0.0
 20
0.0
 30
0.0
 70
   128
 71
   172
 72
   173
 73
   174
 74
   174
  0
VERTEX
  5
3B1
  8
0
  6
HCS_01
 62
     7
 10
0.0
 20
0.0
 30
0.0
 70
   128
 71
   175
 72
   176
 73
   177
 74
   177
  0
VERTEX
  5
3B2
  8
0
  6
HCS_01
 62
     7
 10
0.0
 20
0.0
 30
0.0
 70
   128
 71
   178
 72
   179
 73
   180
 74
   180
  0
VERTEX
  5
3B3
  8
0
  6
HCS_01
 62
     7
 10
0.0
 20
0.0
 30
0.0
 70
   128
 71
   181
 72
   182
 73
   183
 74
   183
  0
VERTEX
  5
3B4
  8
0
  6
HCS_01
 62
     7
 10
0.0
 20
0.0
 30
0.0
 70
   128
 71
   184
 72
   185
 73
   186
 74
   186
  0
VERTEX
  5
3B5
  8
0
  6
HCS_01
 62
     7
 10
0.0
 20
0.0
 30
0.0
 70
   128
 71
   187
 72
   188
 73
   189
 74
   189
  0
VERTEX
  5
3B6
  8
0
  6
HCS_01
 62
     7
 10
0.0
 20
0.0
 30
0.0
 70
   128
 71
   190
 72
   191
 73
   192
 74
   192
  0
VERTEX
  5
3B7
  8
0
  6
HCS_01
 62
     7
 10
0.0
 20
0.0
 30
0.0
 70
   128
 71
   193
 72
   194
 73
   195
 74
   195
  0
VERTEX
  5
3B8
  8
0
  6
HCS_01
 62
     7
 10
0.0
 20
0.0
 30
0.0
 70
   128
 71
   196
 72
   197
 73
   198
 74
   198
  0
VERTEX
  5
3B9
  8
0
  6
HCS_01
 62
     7
 10
0.0
 20
0.0
 30
0.0
 70
   128
 71
   199
 72
   200
 73
   201
 74
   201
  0
VERTEX
  5
3BA
  8
0
  6
HCS_01
 62
     7
 10
0.0
 20
0.0
 30
0.0
 70
   128
 71
   202
 72
   203
 73
   204
 74
   204
  0
VERTEX
  5
3BB
  8
0
  6
HCS_01
 62
     7
 10
0.0
 20
0.0
 30
0.0
 70
   128
 71
   205
 72
   206
 73
   207
 74
   207
  0
VERTEX
  5
3BC
  8
0
  6
HCS_01
 62
     7
 10
0.0
 20
0.0
 30
0.0
 70
   128
 71
   208
 72
   209
 73
   210
 74
   210
  0
VERTEX
  5
3BD
  8
0
  6
HCS_01
 62
     7
 10
0.0
 20
0.0
 30
0.0
 70
   128
 71
   211
 72
   212
 73
   213
 74
   213
  0
VERTEX
  5
3BE
  8
0
  6
HCS_01
 62
     7
 10
0.0
 20
0.0
 30
0.0
 70
   128
 71
   214
 72
   215
 73
   216
 74
   216
  0
VERTEX
  5
3BF
  8
0
  6
HCS_01
 62
     7
 10
0.0
 20
0.0
 30
0.0
 70
   128
 71
   217
 72
   218
 73
   219
 74
   219
  0
VERTEX
  5
3C0
  8
0
  6
HCS_01
 62
     7
 10
0.0
 20
0.0
 30
0.0
 70
   128
 71
   220
 72
   221
 73
   222
 74
   222
  0
VERTEX
  5
3C1
  8
0
  6
HCS_01
 62
     7
 10
0.0
 20
0.0
 30
0.0
 70
   128
 71
   223
 72
   224
 73
   225
 74
   225
  0
VERTEX
  5
3C2
  8
0
  6
HCS_01
 62
     7
 10
0.0
 20
0.0
 30
0.0
 70
   128
 71
   226
 72
   227
 73
   228
 74
   228
  0
VERTEX
  5
3C3
  8
0
  6
HCS_01
 62
     7
 10
0.0
 20
0.0
 30
0.0
 70
   128
 71
   229
 72
   230
 73
   231
 74
   231
  0
VERTEX
  5
3C4
  8
0
  6
HCS_01
 62
     7
 10
0.0
 20
0.0
 30
0.0
 70
   128
 71
   232
 72
   233
 73
   234
 74
   234
  0
VERTEX
  5
3C5
  8
0
  6
HCS_01
 62
     7
 10
0.0
 20
0.0
 30
0.0
 70
   128
 71
   235
 72
   236
 73
   237
 74
   237
  0
VERTEX
  5
3C6
  8
0
  6
HCS_01
 62
     7
 10
0.0
 20
0.0
 30
0.0
 70
   128
 71
   238
 72
   239
 73
   240
 74
   240
  0
VERTEX
  5
3C7
  8
0
  6
HCS_01
 62
     7
 10
0.0
 20
0.0
 30
0.0
 70
   128
 71
   241
 72
   242
 73
   243
 74
   243
  0
VERTEX
  5
3C8
  8
0
  6
HCS_01
 62
     7
 10
0.0
 20
0.0
 30
0.0
 70
   128
 71
   244
 72
   245
 73
   246
 74
   246
  0
VERTEX
  5
3C9
  8
0
  6
HCS_01
 62
     7
 10
0.0
 20
0.0
 30
0.0
 70
   128
 71
   247
 72
   248
 73
   249
 74
   249
  0
VERTEX
  5
3CA
  8
0
  6
HCS_01
 62
     7
 10
0.0
 20
0.0
 30
0.0
 70
   128
 71
   250
 72
   251
 73
   252
 74
   252
  0
VERTEX
  5
3CB
  8
0
  6
HCS_01
 62
     7
 10
0.0
 20
0.0
 30
0.0
 70
   128
 71
   253
 72
   254
 73
   255
 74
   255
  0
VERTEX
  5
3CC
  8
0
  6
HCS_01
 62
     7
 10
0.0
 20
0.0
 30
0.0
 70
   128
 71
   256
 72
   257
 73
   258
 74
   258
  0
VERTEX
  5
3CD
  8
0
  6
HCS_01
 62
     7
 10
0.0
 20
0.0
 30
0.0
 70
   128
 71
   259
 72
   260
 73
   261
 74
   261
  0
VERTEX
  5
3CE
  8
0
  6
HCS_01
 62
     7
 10
0.0
 20
0.0
 30
0.0
 70
   128
 71
   262
 72
   263
 73
   264
 74
   264
  0
VERTEX
  5
3CF
  8
0
  6
HCS_01
 62
     7
 10
0.0
 20
0.0
 30
0.0
 70
   128
 71
   265
 72
   266
 73
   267
 74
   267
  0
VERTEX
  5
3D0
  8
0
  6
HCS_01
 62
     7
 10
0.0
 20
0.0
 30
0.0
 70
   128
 71
   268
 72
   269
 73
   270
 74
   270
  0
VERTEX
  5
3D1
  8
0
  6
HCS_01
 62
     7
 10
0.0
 20
0.0
 30
0.0
 70
   128
 71
   271
 72
   272
 73
   273
 74
   273
  0
VERTEX
  5
3D2
  8
0
  6
HCS_01
 62
     7
 10
0.0
 20
0.0
 30
0.0
 70
   128
 71
   274
 72
   275
 73
   276
 74
   276
  0
VERTEX
  5
3D3
  8
0
  6
HCS_01
 62
     7
 10
0.0
 20
0.0
 30
0.0
 70
   128
 71
   277
 72
   278
 73
   279
 74
   279
  0
VERTEX
  5
3D4
  8
0
  6
HCS_01
 62
     7
 10
0.0
 20
0.0
 30
0.0
 70
   128
 71
   280
 72
   281
 73
   282
 74
   282
  0
VERTEX
  5
3D5
  8
0
  6
HCS_01
 62
     7
 10
0.0
 20
0.0
 30
0.0
 70
   128
 71
   283
 72
   284
 73
   285
 74
   285
  0
VERTEX
  5
3D6
  8
0
  6
HCS_01
 62
     7
 10
0.0
 20
0.0
 30
0.0
 70
   128
 71
   286
 72
   287
 73
   288
 74
   288
  0
VERTEX
  5
3D7
  8
0
  6
HCS_01
 62
     7
 10
0.0
 20
0.0
 30
0.0
 70
   128
 71
   289
 72
   290
 73
   291
 74
   291
  0
SEQEND
  5
7C7
  8
0
  6
HCS_01
 62
     7
  0
ENDBLK
  5
3DA
  8
0
  0
BLOCK
  8
0
  2
GROUP_27
 70
     0
 10
0.0
 20
0.0
 30
0.0
  3
GROUP_27
  1

  0
LINE
  5
3DC
  8
0
  6
HCS_01
 62
     7
 10
18.58029937744141
 20
0.0
 30
0.0099999997764826
 11
3.5
 21
0.0
 31
0.0099999997764826
  0
ENDBLK
  5
3DF
  8
0
  0
BLOCK
  8
0
  2
GROUP_33
 70
     0
 10
0.0
 20
0.0
 30
0.0
  3
GROUP_33
  1

  0
LINE
  5
3E1
  8
0
  6
HCS_01
 62
     7
 10
31.40449905395508
 20
0.0
 30
0.0099999997764826
 11
3.5
 21
0.0
 31
0.0099999997764826
  0
LINE
  5
3E2
  8
0
  6
HCS_01
 62
     7
 10
31.40449905395508
 20
50.0
 30
0.0099999997764826
 11
5.0
 21
50.0
 31
0.0099999997764826
  0
LINE
  5
3E3
  8
0
  6
HCS_01
 62
     7
 10
28.40449905395508
 20
0.0
 30
0.0099999997764826
 11
28.40449905395508
 21
20.63883209228516
 31
0.0099999997764826
  0
LINE
  5
3E4
  8
0
  6
HCS_01
 62
     7
 10
28.40449905395508
 20
29.16116905212402
 30
0.0099999997764826
 11
28.40449905395508
 21
50.0
 31
0.0099999997764826
  0
POLYLINE
  5
3E5
  8
0
  6
HCS_01
 62
     7
 66
     1
 10
0.0
 20
0.0
 30
0.0
 70
    64
 71
   333
 72
   111
  0
VERTEX
  5
3E6
  8
0
  6
HCS_01
 62
     7
 10
27.40621185302734
 20
22.0859260559082
 30
0.0099999997764826
 70
   192
  0
VERTEX
  5
3E7
  8
0
  6
HCS_01
 62
     7
 10
27.40621185302734
 20
22.83866882324219
 30
0.0099999997764826
 70
   192
  0
VERTEX
  5
3E8
  8
0
  6
HCS_01
 62
     7
 10
27.2099552154541
 20
22.83866882324219
 30
0.0099999997764826
 70
   192
  0
VERTEX
  5
3E9
  8
0
  6
HCS_01
 62
     7
 10
27.40621185302734
 20
22.0859260559082
 30
0.0099999997764826
 70
   192
  0
VERTEX
  5
3EA
  8
0
  6
HCS_01
 62
     7
 10
27.2099552154541
 20
22.83866882324219
 30
0.0099999997764826
 70
   192
  0
VERTEX
  5
3EB
  8
0
  6
HCS_01
 62
     7
 10
27.2099552154541
 20
21.8806324005127
 30
0.0099999997764826
 70
   192
  0
VERTEX
  5
3EC
  8
0
  6
HCS_01
 62
     7
 10
27.40621185302734
 20
22.0859260559082
 30
0.0099999997764826
 70
   192
  0
VERTEX
  5
3ED
  8
0
  6
HCS_01
 62
     7
 10
27.2099552154541
 20
21.8806324005127
 30
0.0099999997764826
 70
   192
  0
VERTEX
  5
3EE
  8
0
  6
HCS_01
 62
     7
 10
28.19381523132324
 20
22.07656478881836
 30
0.0099999997764826
 70
   192
  0
VERTEX
  5
3EF
  8
0
  6
HCS_01
 62
     7
 10
27.40621185302734
 20
22.0859260559082
 30
0.0099999997764826
 70
   192
  0
VERTEX
  5
3F0
  8
0
  6
HCS_01
 62
     7
 10
28.19381523132324
 20
22.07656478881836
 30
0.0099999997764826
 70
   192
  0
VERTEX
  5
3F1
  8
0
  6
HCS_01
 62
     7
 10
28.00530624389648
 20
22.0859260559082
 30
0.0099999997764826
 70
   192
  0
VERTEX
  5
3F2
  8
0
  6
HCS_01
 62
     7
 10
28.60182189941406
 20
22.92905044555664
 30
0.0099999997764826
 70
   192
  0
VERTEX
  5
3F3
  8
0
  6
HCS_01
 62
     7
 10
28.3473014831543
 20
22.88434410095215
 30
0.0099999997764826
 70
   192
  0
VERTEX
  5
3F4
  8
0
  6
HCS_01
 62
     7
 10
28.86844444274902
 20
22.8806324005127
 30
0.0099999997764826
 70
   192
  0
VERTEX
  5
3F5
  8
0
  6
HCS_01
 62
     7
 10
28.15701866149902
 20
22.75022506713867
 30
0.0099999997764826
 70
   192
  0
VERTEX
  5
3F6
  8
0
  6
HCS_01
 62
     7
 10
28.86844444274902
 20
22.8806324005127
 30
0.0099999997764826
 70
   192
  0
VERTEX
  5
3F7
  8
0
  6
HCS_01
 62
     7
 10
28.3473014831543
 20
22.88434410095215
 30
0.0099999997764826
 70
   192
  0
VERTEX
  5
3F8
  8
0
  6
HCS_01
 62
     7
 10
28.86844444274902
 20
22.8806324005127
 30
0.0099999997764826
 70
   192
  0
VERTEX
  5
3F9
  8
0
  6
HCS_01
 62
     7
 10
28.15701866149902
 20
22.75022506713867
 30
0.0099999997764826
 70
   192
  0
VERTEX
  5
3FA
  8
0
  6
HCS_01
 62
     7
 10
29.07180213928223
 20
22.73537635803223
 30
0.0099999997764826
 70
   192
  0
VERTEX
  5
3FB
  8
0
  6
HCS_01
 62
     7
 10
28.61473274230957
 20
22.71084594726562
 30
0.0099999997764826
 70
   192
  0
VERTEX
  5
3FC
  8
0
  6
HCS_01
 62
     7
 10
29.07180213928223
 20
22.73537635803223
 30
0.0099999997764826
 70
   192
  0
VERTEX
  5
3FD
  8
0
  6
HCS_01
 62
     7
 10
28.15701866149902
 20
22.75022506713867
 30
0.0099999997764826
 70
   192
  0
VERTEX
  5
3FE
  8
0
  6
HCS_01
 62
     7
 10
29.07180213928223
 20
22.73537635803223
 30
0.0099999997764826
 70
   192
  0
VERTEX
  5
3FF
  8
0
  6
HCS_01
 62
     7
 10
28.61473274230957
 20
22.71084594726562
 30
0.0099999997764826
 70
   192
  0
VERTEX
  5
400
  8
0
  6
HCS_01
 62
     7
 10
28.79630088806152
 20
22.67759704589844
 30
0.0099999997764826
 70
   192
  0
VERTEX
  5
401
  8
0
  6
HCS_01
 62
     7
 10
28.00046539306641
 20
22.18470001220703
 30
0.0099999997764826
 70
   192
  0
VERTEX
  5
402
  8
0
  6
HCS_01
 62
     7
 10
28.18994140625
 20
22.19438362121582
 30
0.0099999997764826
 70
   192
  0
VERTEX
  5
403
  8
0
  6
HCS_01
 62
     7
 10
27.99885177612305
 20
22.2563591003418
 30
0.0099999997764826
 70
   192
  0
VERTEX
  5
404
  8
0
  6
HCS_01
 62
     7
 10
28.21770286560059
 20
22.41549301147461
 30
0.0099999997764826
 70
   192
  0
VERTEX
  5
405
  8
0
  6
HCS_01
 62
     7
 10
27.99885177612305
 20
22.2563591003418
 30
0.0099999997764826
 70
   192
  0
VERTEX
  5
406
  8
0
  6
HCS_01
 62
     7
 10
28.18994140625
 20
22.19438362121582
 30
0.0099999997764826
 70
   192
  0
VERTEX
  5
407
  8
0
  6
HCS_01
 62
     7
 10
27.99885177612305
 20
22.2563591003418
 30
0.0099999997764826
 70
   192
  0
VERTEX
  5
408
  8
0
  6
HCS_01
 62
     7
 10
28.21770286560059
 20
22.41549301147461
 30
0.0099999997764826
 70
   192
  0
VERTEX
  5
409
  8
0
  6
HCS_01
 62
     7
 10
28.03839302062988
 20
22.53734588623047
 30
0.0099999997764826
 70
   192
  0
VERTEX
  5
40A
  8
0
  6
HCS_01
 62
     7
 10
28.30098152160645
 20
22.57785606384277
 30
0.0099999997764826
 70
   192
  0
VERTEX
  5
40B
  8
0
  6
HCS_01
 62
     7
 10
28.03839302062988
 20
22.53734588623047
 30
0.0099999997764826
 70
   192
  0
VERTEX
  5
40C
  8
0
  6
HCS_01
 62
     7
 10
28.21770286560059
 20
22.41549301147461
 30
0.0099999997764826
 70
   192
  0
VERTEX
  5
40D
  8
0
  6
HCS_01
 62
     7
 10
28.03839302062988
 20
22.53734588623047
 30
0.0099999997764826
 70
   192
  0
VERTEX
  5
40E
  8
0
  6
HCS_01
 62
     7
 10
28.30098152160645
 20
22.57785606384277
 30
0.0099999997764826
 70
   192
  0
VERTEX
  5
40F
  8
0
  6
HCS_01
 62
     7
 10
28.15701866149902
 20
22.75022506713867
 30
0.0099999997764826
 70
   192
  0
VERTEX
  5
410
  8
0
  6
HCS_01
 62
     7
 10
28.43493843078613
 20
22.67759704589844
 30
0.0099999997764826
 70
   192
  0
VERTEX
  5
411
  8
0
  6
HCS_01
 62
     7
 10
28.15701866149902
 20
22.75022506713867
 30
0.0099999997764826
 70
   192
  0
VERTEX
  5
412
  8
0
  6
HCS_01
 62
     7
 10
28.30098152160645
 20
22.57785606384277
 30
0.0099999997764826
 70
   192
  0
VERTEX
  5
413
  8
0
  6
HCS_01
 62
     7
 10
28.15701866149902
 20
22.75022506713867
 30
0.0099999997764826
 70
   192
  0
VERTEX
  5
414
  8
0
  6
HCS_01
 62
     7
 10
28.43493843078613
 20
22.67759704589844
 30
0.0099999997764826
 70
   192
  0
VERTEX
  5
415
  8
0
  6
HCS_01
 62
     7
 10
28.61473274230957
 20
22.71084594726562
 30
0.0099999997764826
 70
   192
  0
VERTEX
  5
416
  8
0
  6
HCS_01
 62
     7
 10
28.00530624389648
 20
22.0859260559082
 30
0.0099999997764826
 70
   192
  0
VERTEX
  5
417
  8
0
  6
HCS_01
 62
     7
 10
28.19381523132324
 20
22.07656478881836
 30
0.0099999997764826
 70
   192
  0
VERTEX
  5
418
  8
0
  6
HCS_01
 62
     7
 10
28.18994140625
 20
22.19438362121582
 30
0.0099999997764826
 70
   192
  0
VERTEX
  5
419
  8
0
  6
HCS_01
 62
     7
 10
28.00530624389648
 20
22.0859260559082
 30
0.0099999997764826
 70
   192
  0
VERTEX
  5
41A
  8
0
  6
HCS_01
 62
     7
 10
28.18994140625
 20
22.19438362121582
 30
0.0099999997764826
 70
   192
  0
VERTEX
  5
41B
  8
0
  6
HCS_01
 62
     7
 10
28.00046539306641
 20
22.18470001220703
 30
0.0099999997764826
 70
   192
  0
VERTEX
  5
41C
  8
0
  6
HCS_01
 62
     7
 10
28.93816757202148
 20
22.57785606384277
 30
0.0099999997764826
 70
   192
  0
VERTEX
  5
41D
  8
0
  6
HCS_01
 62
     7
 10
29.02967834472656
 20
22.4251766204834
 30
0.0099999997764826
 70
   192
  0
VERTEX
  5
41E
  8
0
  6
HCS_01
 62
     7
 10
29.20059394836426
 20
22.51136207580566
 30
0.0099999997764826
 70
   192
  0
VERTEX
  5
41F
  8
0
  6
HCS_01
 62
     7
 10
28.93816757202148
 20
22.57785606384277
 30
0.0099999997764826
 70
   192
  0
VERTEX
  5
420
  8
0
  6
HCS_01
 62
     7
 10
29.20059394836426
 20
22.51136207580566
 30
0.0099999997764826
 70
   192
  0
VERTEX
  5
421
  8
0
  6
HCS_01
 62
     7
 10
29.07180213928223
 20
22.73537635803223
 30
0.0099999997764826
 70
   192
  0
VERTEX
  5
422
  8
0
  6
HCS_01
 62
     7
 10
28.93816757202148
 20
22.57785606384277
 30
0.0099999997764826
 70
   192
  0
VERTEX
  5
423
  8
0
  6
HCS_01
 62
     7
 10
29.07180213928223
 20
22.73537635803223
 30
0.0099999997764826
 70
   192
  0
VERTEX
  5
424
  8
0
  6
HCS_01
 62
     7
 10
28.79630088806152
 20
22.67759704589844
 30
0.0099999997764826
 70
   192
  0
VERTEX
  5
425
  8
0
  6
HCS_01
 62
     7
 10
28.92719268798828
 20
21.8173656463623
 30
0.0099999997764826
 70
   192
  0
VERTEX
  5
426
  8
0
  6
HCS_01
 62
     7
 10
29.22286605834961
 20
21.98618316650391
 30
0.0099999997764826
 70
   192
  0
VERTEX
  5
427
  8
0
  6
HCS_01
 62
     7
 10
29.02693367004395
 20
22.0233039855957
 30
0.0099999997764826
 70
   192
  0
VERTEX
  5
428
  8
0
  6
HCS_01
 62
     7
 10
29.2435245513916
 20
22.22666168212891
 30
0.0099999997764826
 70
   192
  0
VERTEX
  5
429
  8
0
  6
HCS_01
 62
     7
 10
29.02693367004395
 20
22.0233039855957
 30
0.0099999997764826
 70
   192
  0
VERTEX
  5
42A
  8
0
  6
HCS_01
 62
     7
 10
29.22286605834961
 20
21.98618316650391
 30
0.0099999997764826
 70
   192
  0
VERTEX
  5
42B
  8
0
  6
HCS_01
 62
     7
 10
29.02693367004395
 20
22.0233039855957
 30
0.0099999997764826
 70
   192
  0
VERTEX
  5
42C
  8
0
  6
HCS_01
 62
     7
 10
29.2435245513916
 20
22.22666168212891
 30
0.0099999997764826
 70
   192
  0
VERTEX
  5
42D
  8
0
  6
HCS_01
 62
     7
 10
29.0601806640625
 20
22.23311805725098
 30
0.0099999997764826
 70
   192
  0
VERTEX
  5
42E
  8
0
  6
HCS_01
 62
     7
 10
29.20059394836426
 20
22.51136207580566
 30
0.0099999997764826
 70
   192
  0
VERTEX
  5
42F
  8
0
  6
HCS_01
 62
     7
 10
29.0601806640625
 20
22.23311805725098
 30
0.0099999997764826
 70
   192
  0
VERTEX
  5
430
  8
0
  6
HCS_01
 62
     7
 10
29.2435245513916
 20
22.22666168212891
 30
0.0099999997764826
 70
   192
  0
VERTEX
  5
431
  8
0
  6
HCS_01
 62
     7
 10
29.0601806640625
 20
22.23311805725098
 30
0.0099999997764826
 70
   192
  0
VERTEX
  5
432
  8
0
  6
HCS_01
 62
     7
 10
29.20059394836426
 20
22.51136207580566
 30
0.0099999997764826
 70
   192
  0
VERTEX
  5
433
  8
0
  6
HCS_01
 62
     7
 10
29.02967834472656
 20
22.4251766204834
 30
0.0099999997764826
 70
   192
  0
VERTEX
  5
434
  8
0
  6
HCS_01
 62
     7
 10
29.22286605834961
 20
21.98618316650391
 30
0.0099999997764826
 70
   192
  0
VERTEX
  5
435
  8
0
  6
HCS_01
 62
     7
 10
28.92719268798828
 20
21.8173656463623
 30
0.0099999997764826
 70
   192
  0
VERTEX
  5
436
  8
0
  6
HCS_01
 62
     7
 10
29.16089057922363
 20
21.8173656463623
 30
0.0099999997764826
 70
   192
  0
VERTEX
  5
437
  8
0
  6
HCS_01
 62
     7
 10
28.19381523132324
 20
22.07656478881836
 30
0.0099999997764826
 70
   192
  0
VERTEX
  5
438
  8
0
  6
HCS_01
 62
     7
 10
27.2099552154541
 20
21.8806324005127
 30
0.0099999997764826
 70
   192
  0
VERTEX
  5
439
  8
0
  6
HCS_01
 62
     7
 10
28.20543670654297
 20
21.8806324005127
 30
0.0099999997764826
 70
   192
  0
VERTEX
  5
43A
  8
0
  6
HCS_01
 62
     7
 10
27.43268013000488
 20
24.3806324005127
 30
0.0099999997764826
 70
   192
  0
VERTEX
  5
43B
  8
0
  6
HCS_01
 62
     7
 10
27.1763858795166
 20
23.91291046142578
 30
0.0099999997764826
 70
   192
  0
VERTEX
  5
43C
  8
0
  6
HCS_01
 62
     7
 10
27.57761192321777
 20
24.21213531494141
 30
0.0099999997764826
 70
   192
  0
VERTEX
  5
43D
  8
0
  6
HCS_01
 62
     7
 10
27.43268013000488
 20
24.3806324005127
 30
0.0099999997764826
 70
   192
  0
VERTEX
  5
43E
  8
0
  6
HCS_01
 62
     7
 10
27.57761192321777
 20
24.21213531494141
 30
0.0099999997764826
 70
   192
  0
VERTEX
  5
43F
  8
0
  6
HCS_01
 62
     7
 10
28.22738647460938
 20
24.31575202941895
 30
0.0099999997764826
 70
   192
  0
VERTEX
  5
440
  8
0
  6
HCS_01
 62
     7
 10
27.43268013000488
 20
24.3806324005127
 30
0.0099999997764826
 70
   192
  0
VERTEX
  5
441
  8
0
  6
HCS_01
 62
     7
 10
28.22738647460938
 20
24.31575202941895
 30
0.0099999997764826
 70
   192
  0
VERTEX
  5
442
  8
0
  6
HCS_01
 62
     7
 10
28.97173690795898
 20
24.3654613494873
 30
0.0099999997764826
 70
   192
  0
VERTEX
  5
443
  8
0
  6
HCS_01
 62
     7
 10
27.43268013000488
 20
24.3806324005127
 30
0.0099999997764826
 70
   192
  0
VERTEX
  5
444
  8
0
  6
HCS_01
 62
     7
 10
28.97173690795898
 20
24.3654613494873
 30
0.0099999997764826
 70
   192
  0
VERTEX
  5
445
  8
0
  6
HCS_01
 62
     7
 10
28.6432991027832
 20
24.49377059936523
 30
0.0099999997764826
 70
   192
  0
VERTEX
  5
446
  8
0
  6
HCS_01
 62
     7
 10
27.43268013000488
 20
24.3806324005127
 30
0.0099999997764826
 70
   192
  0
VERTEX
  5
447
  8
0
  6
HCS_01
 62
     7
 10
28.6432991027832
 20
24.49377059936523
 30
0.0099999997764826
 70
   192
  0
VERTEX
  5
448
  8
0
  6
HCS_01
 62
     7
 10
28.20156288146973
 20
24.53653907775879
 30
0.0099999997764826
 70
   192
  0
VERTEX
  5
449
  8
0
  6
HCS_01
 62
     7
 10
28.23900604248047
 20
23.4622974395752
 30
0.0099999997764826
 70
   192
  0
VERTEX
  5
44A
  8
0
  6
HCS_01
 62
     7
 10
27.58051681518555
 20
23.57204627990723
 30
0.0099999997764826
 70
   192
  0
VERTEX
  5
44B
  8
0
  6
HCS_01
 62
     7
 10
27.24449348449707
 20
23.62578964233398
 30
0.0099999997764826
 70
   192
  0
VERTEX
  5
44C
  8
0
  6
HCS_01
 62
     7
 10
27.36102104187012
 20
23.90129089355469
 30
0.0099999997764826
 70
   192
  0
VERTEX
  5
44D
  8
0
  6
HCS_01
 62
     7
 10
27.24449348449707
 20
23.62578964233398
 30
0.0099999997764826
 70
   192
  0
VERTEX
  5
44E
  8
0
  6
HCS_01
 62
     7
 10
27.58051681518555
 20
23.57204627990723
 30
0.0099999997764826
 70
   192
  0
VERTEX
  5
44F
  8
0
  6
HCS_01
 62
     7
 10
27.24449348449707
 20
23.62578964233398
 30
0.0099999997764826
 70
   192
  0
VERTEX
  5
450
  8
0
  6
HCS_01
 62
     7
 10
27.36102104187012
 20
23.90129089355469
 30
0.0099999997764826
 70
   192
  0
VERTEX
  5
451
  8
0
  6
HCS_01
 62
     7
 10
27.1763858795166
 20
23.91291046142578
 30
0.0099999997764826
 70
   192
  0
VERTEX
  5
452
  8
0
  6
HCS_01
 62
     7
 10
27.57761192321777
 20
24.21213531494141
 30
0.0099999997764826
 70
   192
  0
VERTEX
  5
453
  8
0
  6
HCS_01
 62
     7
 10
27.1763858795166
 20
23.91291046142578
 30
0.0099999997764826
 70
   192
  0
VERTEX
  5
454
  8
0
  6
HCS_01
 62
     7
 10
27.36102104187012
 20
23.90129089355469
 30
0.0099999997764826
 70
   192
  0
VERTEX
  5
455
  8
0
  6
HCS_01
 62
     7
 10
28.2506275177002
 20
23.24280166625977
 30
0.0099999997764826
 70
   192
  0
VERTEX
  5
456
  8
0
  6
HCS_01
 62
     7
 10
28.66928291320801
 20
23.28282737731934
 30
0.0099999997764826
 70
   192
  0
VERTEX
  5
457
  8
0
  6
HCS_01
 62
     7
 10
27.78548812866211
 20
23.2858943939209
 30
0.0099999997764826
 70
   192
  0
VERTEX
  5
458
  8
0
  6
HCS_01
 62
     7
 10
28.98271179199219
 20
23.40290451049805
 30
0.0099999997764826
 70
   192
  0
VERTEX
  5
459
  8
0
  6
HCS_01
 62
     7
 10
27.78548812866211
 20
23.2858943939209
 30
0.0099999997764826
 70
   192
  0
VERTEX
  5
45A
  8
0
  6
HCS_01
 62
     7
 10
28.66928291320801
 20
23.28282737731934
 30
0.0099999997764826
 70
   192
  0
VERTEX
  5
45B
  8
0
  6
HCS_01
 62
     7
 10
27.78548812866211
 20
23.2858943939209
 30
0.0099999997764826
 70
   192
  0
VERTEX
  5
45C
  8
0
  6
HCS_01
 62
     7
 10
28.98271179199219
 20
23.40290451049805
 30
0.0099999997764826
 70
   192
  0
VERTEX
  5
45D
  8
0
  6
HCS_01
 62
     7
 10
27.44881820678711
 20
23.41517066955566
 30
0.0099999997764826
 70
   192
  0
VERTEX
  5
45E
  8
0
  6
HCS_01
 62
     7
 10
28.23900604248047
 20
23.4622974395752
 30
0.0099999997764826
 70
   192
  0
VERTEX
  5
45F
  8
0
  6
HCS_01
 62
     7
 10
27.44881820678711
 20
23.41517066955566
 30
0.0099999997764826
 70
   192
  0
VERTEX
  5
460
  8
0
  6
HCS_01
 62
     7
 10
28.98271179199219
 20
23.40290451049805
 30
0.0099999997764826
 70
   192
  0
VERTEX
  5
461
  8
0
  6
HCS_01
 62
     7
 10
27.44881820678711
 20
23.41517066955566
 30
0.0099999997764826
 70
   192
  0
VERTEX
  5
462
  8
0
  6
HCS_01
 62
     7
 10
28.23900604248047
 20
23.4622974395752
 30
0.0099999997764826
 70
   192
  0
VERTEX
  5
463
  8
0
  6
HCS_01
 62
     7
 10
27.24449348449707
 20
23.62578964233398
 30
0.0099999997764826
 70
   192
  0
VERTEX
  5
464
  8
0
  6
HCS_01
 62
     7
 10
29.17832183837891
 20
23.59915924072266
 30
0.0099999997764826
 70
   192
  0
VERTEX
  5
465
  8
0
  6
HCS_01
 62
     7
 10
29.2435245513916
 20
23.86772155761719
 30
0.0099999997764826
 70
   192
  0
VERTEX
  5
466
  8
0
  6
HCS_01
 62
     7
 10
29.0601806640625
 20
23.89096069335938
 30
0.0099999997764826
 70
   192
  0
VERTEX
  5
467
  8
0
  6
HCS_01
 62
     7
 10
29.17557907104492
 20
24.15548706054688
 30
0.0099999997764826
 70
   192
  0
VERTEX
  5
468
  8
0
  6
HCS_01
 62
     7
 10
29.0601806640625
 20
23.89096069335938
 30
0.0099999997764826
 70
   192
  0
VERTEX
  5
469
  8
0
  6
HCS_01
 62
     7
 10
29.2435245513916
 20
23.86772155761719
 30
0.0099999997764826
 70
   192
  0
VERTEX
  5
46A
  8
0
  6
HCS_01
 62
     7
 10
29.0601806640625
 20
23.89096069335938
 30
0.0099999997764826
 70
   192
  0
VERTEX
  5
46B
  8
0
  6
HCS_01
 62
     7
 10
29.17557907104492
 20
24.15548706054688
 30
0.0099999997764826
 70
   192
  0
VERTEX
  5
46C
  8
0
  6
HCS_01
 62
     7
 10
28.85198211669922
 20
24.20955467224121
 30
0.0099999997764826
 70
   192
  0
VERTEX
  5
46D
  8
0
  6
HCS_01
 62
     7
 10
28.97173690795898
 20
24.3654613494873
 30
0.0099999997764826
 70
   192
  0
VERTEX
  5
46E
  8
0
  6
HCS_01
 62
     7
 10
28.85198211669922
 20
24.20955467224121
 30
0.0099999997764826
 70
   192
  0
VERTEX
  5
46F
  8
0
  6
HCS_01
 62
     7
 10
29.17557907104492
 20
24.15548706054688
 30
0.0099999997764826
 70
   192
  0
VERTEX
  5
470
  8
0
  6
HCS_01
 62
     7
 10
28.85198211669922
 20
24.20955467224121
 30
0.0099999997764826
 70
   192
  0
VERTEX
  5
471
  8
0
  6
HCS_01
 62
     7
 10
28.97173690795898
 20
24.3654613494873
 30
0.0099999997764826
 70
   192
  0
VERTEX
  5
472
  8
0
  6
HCS_01
 62
     7
 10
28.22738647460938
 20
24.31575202941895
 30
0.0099999997764826
 70
   192
  0
VERTEX
  5
473
  8
0
  6
HCS_01
 62
     7
 10
29.17832183837891
 20
23.59915924072266
 30
0.0099999997764826
 70
   192
  0
VERTEX
  5
474
  8
0
  6
HCS_01
 62
     7
 10
29.0601806640625
 20
23.89096069335938
 30
0.0099999997764826
 70
   192
  0
VERTEX
  5
475
  8
0
  6
HCS_01
 62
     7
 10
28.85488700866699
 20
23.5694637298584
 30
0.0099999997764826
 70
   192
  0
VERTEX
  5
476
  8
0
  6
HCS_01
 62
     7
 10
29.17832183837891
 20
23.59915924072266
 30
0.0099999997764826
 70
   192
  0
VERTEX
  5
477
  8
0
  6
HCS_01
 62
     7
 10
28.85488700866699
 20
23.5694637298584
 30
0.0099999997764826
 70
   192
  0
VERTEX
  5
478
  8
0
  6
HCS_01
 62
     7
 10
28.23900604248047
 20
23.4622974395752
 30
0.0099999997764826
 70
   192
  0
VERTEX
  5
479
  8
0
  6
HCS_01
 62
     7
 10
29.17832183837891
 20
23.59915924072266
 30
0.0099999997764826
 70
   192
  0
VERTEX
  5
47A
  8
0
  6
HCS_01
 62
     7
 10
28.23900604248047
 20
23.4622974395752
 30
0.0099999997764826
 70
   192
  0
VERTEX
  5
47B
  8
0
  6
HCS_01
 62
     7
 10
28.98271179199219
 20
23.40290451049805
 30
0.0099999997764826
 70
   192
  0
VERTEX
  5
47C
  8
0
  6
HCS_01
 62
     7
 10
29.14910888671875
 20
24.82027053833008
 30
0.0099999997764826
 70
   192
  0
VERTEX
  5
47D
  8
0
  6
HCS_01
 62
     7
 10
29.08987808227539
 20
24.80897331237793
 30
0.0099999997764826
 70
   192
  0
VERTEX
  5
47E
  8
0
  6
HCS_01
 62
     7
 10
29.08987808227539
 20
24.80897331237793
 30
0.0099999997764826
 70
   192
  0
VERTEX
  5
47F
  8
0
  6
HCS_01
 62
     7
 10
29.08987808227539
 20
24.80897331237793
 30
0.0099999997764826
 70
   192
  0
VERTEX
  5
480
  8
0
  6
HCS_01
 62
     7
 10
29.14910888671875
 20
24.82027053833008
 30
0.0099999997764826
 70
   192
  0
VERTEX
  5
481
  8
0
  6
HCS_01
 62
     7
 10
29.19768905639648
 20
24.85416412353516
 30
0.0099999997764826
 70
   192
  0
VERTEX
  5
482
  8
0
  6
HCS_01
 62
     7
 10
29.08987808227539
 20
24.80897331237793
 30
0.0099999997764826
 70
   192
  0
VERTEX
  5
483
  8
0
  6
HCS_01
 62
     7
 10
29.19768905639648
 20
24.85416412353516
 30
0.0099999997764826
 70
   192
  0
VERTEX
  5
484
  8
0
  6
HCS_01
 62
     7
 10
29.23012924194336
 20
24.90290451049805
 30
0.0099999997764826
 70
   192
  0
VERTEX
  5
485
  8
0
  6
HCS_01
 62
     7
 10
29.08987808227539
 20
24.80897331237793
 30
0.0099999997764826
 70
   192
  0
VERTEX
  5
486
  8
0
  6
HCS_01
 62
     7
 10
29.23012924194336
 20
24.90290451049805
 30
0.0099999997764826
 70
   192
  0
VERTEX
  5
487
  8
0
  6
HCS_01
 62
     7
 10
29.24094200134277
 20
24.95874786376953
 30
0.0099999997764826
 70
   192
  0
VERTEX
  5
488
  8
0
  6
HCS_01
 62
     7
 10
29.08987808227539
 20
24.80897331237793
 30
0.0099999997764826
 70
   192
  0
VERTEX
  5
489
  8
0
  6
HCS_01
 62
     7
 10
29.24094200134277
 20
24.95874786376953
 30
0.0099999997764826
 70
   192
  0
VERTEX
  5
48A
  8
0
  6
HCS_01
 62
     7
 10
29.22980690002441
 20
25.01539611816406
 30
0.0099999997764826
 70
   192
  0
VERTEX
  5
48B
  8
0
  6
HCS_01
 62
     7
 10
29.08987808227539
 20
24.80897331237793
 30
0.0099999997764826
 70
   192
  0
VERTEX
  5
48C
  8
0
  6
HCS_01
 62
     7
 10
29.22980690002441
 20
25.01539611816406
 30
0.0099999997764826
 70
   192
  0
VERTEX
  5
48D
  8
0
  6
HCS_01
 62
     7
 10
29.19639778137207
 20
25.0639762878418
 30
0.0099999997764826
 70
   192
  0
VERTEX
  5
48E
  8
0
  6
HCS_01
 62
     7
 10
29.08987808227539
 20
24.80897331237793
 30
0.0099999997764826
 70
   192
  0
VERTEX
  5
48F
  8
0
  6
HCS_01
 62
     7
 10
29.19639778137207
 20
25.0639762878418
 30
0.0099999997764826
 70
   192
  0
VERTEX
  5
490
  8
0
  6
HCS_01
 62
     7
 10
29.14749526977539
 20
25.09738540649414
 30
0.0099999997764826
 70
   192
  0
VERTEX
  5
491
  8
0
  6
HCS_01
 62
     7
 10
29.08987808227539
 20
24.80897331237793
 30
0.0099999997764826
 70
   192
  0
VERTEX
  5
492
  8
0
  6
HCS_01
 62
     7
 10
29.14749526977539
 20
25.09738540649414
 30
0.0099999997764826
 70
   192
  0
VERTEX
  5
493
  8
0
  6
HCS_01
 62
     7
 10
29.08987808227539
 20
25.1085205078125
 30
0.0099999997764826
 70
   192
  0
VERTEX
  5
494
  8
0
  6
HCS_01
 62
     7
 10
29.08987808227539
 20
24.80897331237793
 30
0.0099999997764826
 70
   192
  0
VERTEX
  5
495
  8
0
  6
HCS_01
 62
     7
 10
29.08987808227539
 20
25.1085205078125
 30
0.0099999997764826
 70
   192
  0
VERTEX
  5
496
  8
0
  6
HCS_01
 62
     7
 10
29.03129196166992
 20
25.0975456237793
 30
0.0099999997764826
 70
   192
  0
VERTEX
  5
497
  8
0
  6
HCS_01
 62
     7
 10
29.08987808227539
 20
24.80897331237793
 30
0.0099999997764826
 70
   192
  0
VERTEX
  5
498
  8
0
  6
HCS_01
 62
     7
 10
29.03129196166992
 20
25.0975456237793
 30
0.0099999997764826
 70
   192
  0
VERTEX
  5
499
  8
0
  6
HCS_01
 62
     7
 10
28.9820671081543
 20
25.06462097167969
 30
0.0099999997764826
 70
   192
  0
VERTEX
  5
49A
  8
0
  6
HCS_01
 62
     7
 10
29.08987808227539
 20
24.80897331237793
 30
0.0099999997764826
 70
   192
  0
VERTEX
  5
49B
  8
0
  6
HCS_01
 62
     7
 10
28.9820671081543
 20
25.06462097167969
 30
0.0099999997764826
 70
   192
  0
VERTEX
  5
49C
  8
0
  6
HCS_01
 62
     7
 10
28.94865798950195
 20
25.01620292663574
 30
0.0099999997764826
 70
   192
  0
VERTEX
  5
49D
  8
0
  6
HCS_01
 62
     7
 10
29.08987808227539
 20
24.80897331237793
 30
0.0099999997764826
 70
   192
  0
VERTEX
  5
49E
  8
0
  6
HCS_01
 62
     7
 10
28.94865798950195
 20
25.01620292663574
 30
0.0099999997764826
 70
   192
  0
VERTEX
  5
49F
  8
0
  6
HCS_01
 62
     7
 10
28.93752098083496
 20
24.95874786376953
 30
0.0099999997764826
 70
   192
  0
VERTEX
  5
4A0
  8
0
  6
HCS_01
 62
     7
 10
29.08987808227539
 20
24.80897331237793
 30
0.0099999997764826
 70
   192
  0
VERTEX
  5
4A1
  8
0
  6
HCS_01
 62
     7
 10
28.93752098083496
 20
24.95874786376953
 30
0.0099999997764826
 70
   192
  0
VERTEX
  5
4A2
  8
0
  6
HCS_01
 62
     7
 10
28.94865798950195
 20
24.90290451049805
 30
0.0099999997764826
 70
   192
  0
VERTEX
  5
4A3
  8
0
  6
HCS_01
 62
     7
 10
29.08987808227539
 20
24.80897331237793
 30
0.0099999997764826
 70
   192
  0
VERTEX
  5
4A4
  8
0
  6
HCS_01
 62
     7
 10
28.94865798950195
 20
24.90290451049805
 30
0.0099999997764826
 70
   192
  0
VERTEX
  5
4A5
  8
0
  6
HCS_01
 62
     7
 10
28.9820671081543
 20
24.85416412353516
 30
0.0099999997764826
 70
   192
  0
VERTEX
  5
4A6
  8
0
  6
HCS_01
 62
     7
 10
29.08987808227539
 20
24.80897331237793
 30
0.0099999997764826
 70
   192
  0
VERTEX
  5
4A7
  8
0
  6
HCS_01
 62
     7
 10
28.9820671081543
 20
24.85416412353516
 30
0.0099999997764826
 70
   192
  0
VERTEX
  5
4A8
  8
0
  6
HCS_01
 62
     7
 10
29.03129196166992
 20
24.82027053833008
 30
0.0099999997764826
 70
   192
  0
VERTEX
  5
4A9
  8
0
  6
HCS_01
 62
     7
 10
27.43268013000488
 20
26.52265930175781
 30
0.0099999997764826
 70
   192
  0
VERTEX
  5
4AA
  8
0
  6
HCS_01
 62
     7
 10
27.1763858795166
 20
26.0549373626709
 30
0.0099999997764826
 70
   192
  0
VERTEX
  5
4AB
  8
0
  6
HCS_01
 62
     7
 10
27.57761192321777
 20
26.35416412353516
 30
0.0099999997764826
 70
   192
  0
VERTEX
  5
4AC
  8
0
  6
HCS_01
 62
     7
 10
27.43268013000488
 20
26.52265930175781
 30
0.0099999997764826
 70
   192
  0
VERTEX
  5
4AD
  8
0
  6
HCS_01
 62
     7
 10
27.57761192321777
 20
26.35416412353516
 30
0.0099999997764826
 70
   192
  0
VERTEX
  5
4AE
  8
0
  6
HCS_01
 62
     7
 10
28.22738647460938
 20
26.45777893066406
 30
0.0099999997764826
 70
   192
  0
VERTEX
  5
4AF
  8
0
  6
HCS_01
 62
     7
 10
27.43268013000488
 20
26.52265930175781
 30
0.0099999997764826
 70
   192
  0
VERTEX
  5
4B0
  8
0
  6
HCS_01
 62
     7
 10
28.22738647460938
 20
26.45777893066406
 30
0.0099999997764826
 70
   192
  0
VERTEX
  5
4B1
  8
0
  6
HCS_01
 62
     7
 10
28.97173690795898
 20
26.50748825073242
 30
0.0099999997764826
 70
   192
  0
VERTEX
  5
4B2
  8
0
  6
HCS_01
 62
     7
 10
27.43268013000488
 20
26.52265930175781
 30
0.0099999997764826
 70
   192
  0
VERTEX
  5
4B3
  8
0
  6
HCS_01
 62
     7
 10
28.97173690795898
 20
26.50748825073242
 30
0.0099999997764826
 70
   192
  0
VERTEX
  5
4B4
  8
0
  6
HCS_01
 62
     7
 10
28.6432991027832
 20
26.63579559326172
 30
0.0099999997764826
 70
   192
  0
VERTEX
  5
4B5
  8
0
  6
HCS_01
 62
     7
 10
27.43268013000488
 20
26.52265930175781
 30
0.0099999997764826
 70
   192
  0
VERTEX
  5
4B6
  8
0
  6
HCS_01
 62
     7
 10
28.6432991027832
 20
26.63579559326172
 30
0.0099999997764826
 70
   192
  0
VERTEX
  5
4B7
  8
0
  6
HCS_01
 62
     7
 10
28.20156288146973
 20
26.67856597900391
 30
0.0099999997764826
 70
   192
  0
VERTEX
  5
4B8
  8
0
  6
HCS_01
 62
     7
 10
28.23900604248047
 20
25.60432434082031
 30
0.0099999997764826
 70
   192
  0
VERTEX
  5
4B9
  8
0
  6
HCS_01
 62
     7
 10
27.58051681518555
 20
25.71407318115234
 30
0.0099999997764826
 70
   192
  0
VERTEX
  5
4BA
  8
0
  6
HCS_01
 62
     7
 10
27.24449348449707
 20
25.76781845092773
 30
0.0099999997764826
 70
   192
  0
VERTEX
  5
4BB
  8
0
  6
HCS_01
 62
     7
 10
27.36102104187012
 20
26.0433177947998
 30
0.0099999997764826
 70
   192
  0
VERTEX
  5
4BC
  8
0
  6
HCS_01
 62
     7
 10
27.24449348449707
 20
25.76781845092773
 30
0.0099999997764826
 70
   192
  0
VERTEX
  5
4BD
  8
0
  6
HCS_01
 62
     7
 10
27.58051681518555
 20
25.71407318115234
 30
0.0099999997764826
 70
   192
  0
VERTEX
  5
4BE
  8
0
  6
HCS_01
 62
     7
 10
27.24449348449707
 20
25.76781845092773
 30
0.0099999997764826
 70
   192
  0
VERTEX
  5
4BF
  8
0
  6
HCS_01
 62
     7
 10
27.36102104187012
 20
26.0433177947998
 30
0.0099999997764826
 70
   192
  0
VERTEX
  5
4C0
  8
0
  6
HCS_01
 62
     7
 10
27.1763858795166
 20
26.0549373626709
 30
0.0099999997764826
 70
   192
  0
VERTEX
  5
4C1
  8
0
  6
HCS_01
 62
     7
 10
27.57761192321777
 20
26.35416412353516
 30
0.0099999997764826
 70
   192
  0
VERTEX
  5
4C2
  8
0
  6
HCS_01
 62
     7
 10
27.1763858795166
 20
26.0549373626709
 30
0.0099999997764826
 70
   192
  0
VERTEX
  5
4C3
  8
0
  6
HCS_01
 62
     7
 10
27.36102104187012
 20
26.0433177947998
 30
0.0099999997764826
 70
   192
  0
VERTEX
  5
4C4
  8
0
  6
HCS_01
 62
     7
 10
28.2506275177002
 20
25.38482856750488
 30
0.0099999997764826
 70
   192
  0
VERTEX
  5
4C5
  8
0
  6
HCS_01
 62
     7
 10
28.66928291320801
 20
25.42485427856445
 30
0.0099999997764826
 70
   192
  0
VERTEX
  5
4C6
  8
0
  6
HCS_01
 62
     7
 10
27.78548812866211
 20
25.42792129516602
 30
0.0099999997764826
 70
   192
  0
VERTEX
  5
4C7
  8
0
  6
HCS_01
 62
     7
 10
28.98271179199219
 20
25.54493141174316
 30
0.0099999997764826
 70
   192
  0
VERTEX
  5
4C8
  8
0
  6
HCS_01
 62
     7
 10
27.78548812866211
 20
25.42792129516602
 30
0.0099999997764826
 70
   192
  0
VERTEX
  5
4C9
  8
0
  6
HCS_01
 62
     7
 10
28.66928291320801
 20
25.42485427856445
 30
0.0099999997764826
 70
   192
  0
VERTEX
  5
4CA
  8
0
  6
HCS_01
 62
     7
 10
27.78548812866211
 20
25.42792129516602
 30
0.0099999997764826
 70
   192
  0
VERTEX
  5
4CB
  8
0
  6
HCS_01
 62
     7
 10
28.98271179199219
 20
25.54493141174316
 30
0.0099999997764826
 70
   192
  0
VERTEX
  5
4CC
  8
0
  6
HCS_01
 62
     7
 10
27.44881820678711
 20
25.55719757080078
 30
0.0099999997764826
 70
   192
  0
VERTEX
  5
4CD
  8
0
  6
HCS_01
 62
     7
 10
28.23900604248047
 20
25.60432434082031
 30
0.0099999997764826
 70
   192
  0
VERTEX
  5
4CE
  8
0
  6
HCS_01
 62
     7
 10
27.44881820678711
 20
25.55719757080078
 30
0.0099999997764826
 70
   192
  0
VERTEX
  5
4CF
  8
0
  6
HCS_01
 62
     7
 10
28.98271179199219
 20
25.54493141174316
 30
0.0099999997764826
 70
   192
  0
VERTEX
  5
4D0
  8
0
  6
HCS_01
 62
     7
 10
27.44881820678711
 20
25.55719757080078
 30
0.0099999997764826
 70
   192
  0
VERTEX
  5
4D1
  8
0
  6
HCS_01
 62
     7
 10
28.23900604248047
 20
25.60432434082031
 30
0.0099999997764826
 70
   192
  0
VERTEX
  5
4D2
  8
0
  6
HCS_01
 62
     7
 10
27.24449348449707
 20
25.76781845092773
 30
0.0099999997764826
 70
   192
  0
VERTEX
  5
4D3
  8
0
  6
HCS_01
 62
     7
 10
29.17832183837891
 20
25.74118804931641
 30
0.0099999997764826
 70
   192
  0
VERTEX
  5
4D4
  8
0
  6
HCS_01
 62
     7
 10
29.2435245513916
 20
26.00974655151367
 30
0.0099999997764826
 70
   192
  0
VERTEX
  5
4D5
  8
0
  6
HCS_01
 62
     7
 10
29.0601806640625
 20
26.03298950195312
 30
0.0099999997764826
 70
   192
  0
VERTEX
  5
4D6
  8
0
  6
HCS_01
 62
     7
 10
29.17557907104492
 20
26.29751396179199
 30
0.0099999997764826
 70
   192
  0
VERTEX
  5
4D7
  8
0
  6
HCS_01
 62
     7
 10
29.0601806640625
 20
26.03298950195312
 30
0.0099999997764826
 70
   192
  0
VERTEX
  5
4D8
  8
0
  6
HCS_01
 62
     7
 10
29.2435245513916
 20
26.00974655151367
 30
0.0099999997764826
 70
   192
  0
VERTEX
  5
4D9
  8
0
  6
HCS_01
 62
     7
 10
29.0601806640625
 20
26.03298950195312
 30
0.0099999997764826
 70
   192
  0
VERTEX
  5
4DA
  8
0
  6
HCS_01
 62
     7
 10
29.17557907104492
 20
26.29751396179199
 30
0.0099999997764826
 70
   192
  0
VERTEX
  5
4DB
  8
0
  6
HCS_01
 62
     7
 10
28.85198211669922
 20
26.35158157348633
 30
0.0099999997764826
 70
   192
  0
VERTEX
  5
4DC
  8
0
  6
HCS_01
 62
     7
 10
28.97173690795898
 20
26.50748825073242
 30
0.0099999997764826
 70
   192
  0
VERTEX
  5
4DD
  8
0
  6
HCS_01
 62
     7
 10
28.85198211669922
 20
26.35158157348633
 30
0.0099999997764826
 70
   192
  0
VERTEX
  5
4DE
  8
0
  6
HCS_01
 62
     7
 10
29.17557907104492
 20
26.29751396179199
 30
0.0099999997764826
 70
   192
  0
VERTEX
  5
4DF
  8
0
  6
HCS_01
 62
     7
 10
28.85198211669922
 20
26.35158157348633
 30
0.0099999997764826
 70
   192
  0
VERTEX
  5
4E0
  8
0
  6
HCS_01
 62
     7
 10
28.97173690795898
 20
26.50748825073242
 30
0.0099999997764826
 70
   192
  0
VERTEX
  5
4E1
  8
0
  6
HCS_01
 62
     7
 10
28.22738647460938
 20
26.45777893066406
 30
0.0099999997764826
 70
   192
  0
VERTEX
  5
4E2
  8
0
  6
HCS_01
 62
     7
 10
29.17832183837891
 20
25.74118804931641
 30
0.0099999997764826
 70
   192
  0
VERTEX
  5
4E3
  8
0
  6
HCS_01
 62
     7
 10
29.0601806640625
 20
26.03298950195312
 30
0.0099999997764826
 70
   192
  0
VERTEX
  5
4E4
  8
0
  6
HCS_01
 62
     7
 10
28.85488700866699
 20
25.71149063110352
 30
0.0099999997764826
 70
   192
  0
VERTEX
  5
4E5
  8
0
  6
HCS_01
 62
     7
 10
29.17832183837891
 20
25.74118804931641
 30
0.0099999997764826
 70
   192
  0
VERTEX
  5
4E6
  8
0
  6
HCS_01
 62
     7
 10
28.85488700866699
 20
25.71149063110352
 30
0.0099999997764826
 70
   192
  0
VERTEX
  5
4E7
  8
0
  6
HCS_01
 62
     7
 10
28.23900604248047
 20
25.60432434082031
 30
0.0099999997764826
 70
   192
  0
VERTEX
  5
4E8
  8
0
  6
HCS_01
 62
     7
 10
29.17832183837891
 20
25.74118804931641
 30
0.0099999997764826
 70
   192
  0
VERTEX
  5
4E9
  8
0
  6
HCS_01
 62
     7
 10
28.23900604248047
 20
25.60432434082031
 30
0.0099999997764826
 70
   192
  0
VERTEX
  5
4EA
  8
0
  6
HCS_01
 62
     7
 10
28.98271179199219
 20
25.54493141174316
 30
0.0099999997764826
 70
   192
  0
VERTEX
  5
4EB
  8
0
  6
HCS_01
 62
     7
 10
27.43268013000488
 20
28.05526161193848
 30
0.0099999997764826
 70
   192
  0
VERTEX
  5
4EC
  8
0
  6
HCS_01
 62
     7
 10
27.1763858795166
 20
27.58753967285156
 30
0.0099999997764826
 70
   192
  0
VERTEX
  5
4ED
  8
0
  6
HCS_01
 62
     7
 10
27.57761192321777
 20
27.88676452636719
 30
0.0099999997764826
 70
   192
  0
VERTEX
  5
4EE
  8
0
  6
HCS_01
 62
     7
 10
27.43268013000488
 20
28.05526161193848
 30
0.0099999997764826
 70
   192
  0
VERTEX
  5
4EF
  8
0
  6
HCS_01
 62
     7
 10
27.57761192321777
 20
27.88676452636719
 30
0.0099999997764826
 70
   192
  0
VERTEX
  5
4F0
  8
0
  6
HCS_01
 62
     7
 10
28.22738647460938
 20
27.99037933349609
 30
0.0099999997764826
 70
   192
  0
VERTEX
  5
4F1
  8
0
  6
HCS_01
 62
     7
 10
27.43268013000488
 20
28.05526161193848
 30
0.0099999997764826
 70
   192
  0
VERTEX
  5
4F2
  8
0
  6
HCS_01
 62
     7
 10
28.22738647460938
 20
27.99037933349609
 30
0.0099999997764826
 70
   192
  0
VERTEX
  5
4F3
  8
0
  6
HCS_01
 62
     7
 10
28.97173690795898
 20
28.04009056091309
 30
0.0099999997764826
 70
   192
  0
VERTEX
  5
4F4
  8
0
  6
HCS_01
 62
     7
 10
27.43268013000488
 20
28.05526161193848
 30
0.0099999997764826
 70
   192
  0
VERTEX
  5
4F5
  8
0
  6
HCS_01
 62
     7
 10
28.97173690795898
 20
28.04009056091309
 30
0.0099999997764826
 70
   192
  0
VERTEX
  5
4F6
  8
0
  6
HCS_01
 62
     7
 10
28.6432991027832
 20
28.16839790344238
 30
0.0099999997764826
 70
   192
  0
VERTEX
  5
4F7
  8
0
  6
HCS_01
 62
     7
 10
27.43268013000488
 20
28.05526161193848
 30
0.0099999997764826
 70
   192
  0
VERTEX
  5
4F8
  8
0
  6
HCS_01
 62
     7
 10
28.6432991027832
 20
28.16839790344238
 30
0.0099999997764826
 70
   192
  0
VERTEX
  5
4F9
  8
0
  6
HCS_01
 62
     7
 10
28.20156288146973
 20
28.21116828918457
 30
0.0099999997764826
 70
   192
  0
VERTEX
  5
4FA
  8
0
  6
HCS_01
 62
     7
 10
28.23900604248047
 20
27.13692665100098
 30
0.0099999997764826
 70
   192
  0
VERTEX
  5
4FB
  8
0
  6
HCS_01
 62
     7
 10
27.58051681518555
 20
27.24667549133301
 30
0.0099999997764826
 70
   192
  0
VERTEX
  5
4FC
  8
0
  6
HCS_01
 62
     7
 10
27.24449348449707
 20
27.30041885375977
 30
0.0099999997764826
 70
   192
  0
VERTEX
  5
4FD
  8
0
  6
HCS_01
 62
     7
 10
27.36102104187012
 20
27.57592010498047
 30
0.0099999997764826
 70
   192
  0
VERTEX
  5
4FE
  8
0
  6
HCS_01
 62
     7
 10
27.24449348449707
 20
27.30041885375977
 30
0.0099999997764826
 70
   192
  0
VERTEX
  5
4FF
  8
0
  6
HCS_01
 62
     7
 10
27.58051681518555
 20
27.24667549133301
 30
0.0099999997764826
 70
   192
  0
VERTEX
  5
500
  8
0
  6
HCS_01
 62
     7
 10
27.24449348449707
 20
27.30041885375977
 30
0.0099999997764826
 70
   192
  0
VERTEX
  5
501
  8
0
  6
HCS_01
 62
     7
 10
27.36102104187012
 20
27.57592010498047
 30
0.0099999997764826
 70
   192
  0
VERTEX
  5
502
  8
0
  6
HCS_01
 62
     7
 10
27.1763858795166
 20
27.58753967285156
 30
0.0099999997764826
 70
   192
  0
VERTEX
  5
503
  8
0
  6
HCS_01
 62
     7
 10
27.57761192321777
 20
27.88676452636719
 30
0.0099999997764826
 70
   192
  0
VERTEX
  5
504
  8
0
  6
HCS_01
 62
     7
 10
27.1763858795166
 20
27.58753967285156
 30
0.0099999997764826
 70
   192
  0
VERTEX
  5
505
  8
0
  6
HCS_01
 62
     7
 10
27.36102104187012
 20
27.57592010498047
 30
0.0099999997764826
 70
   192
  0
VERTEX
  5
506
  8
0
  6
HCS_01
 62
     7
 10
28.2506275177002
 20
26.91743087768555
 30
0.0099999997764826
 70
   192
  0
VERTEX
  5
507
  8
0
  6
HCS_01
 62
     7
 10
28.66928291320801
 20
26.95745658874512
 30
0.0099999997764826
 70
   192
  0
VERTEX
  5
508
  8
0
  6
HCS_01
 62
     7
 10
27.78548812866211
 20
26.96052169799805
 30
0.0099999997764826
 70
   192
  0
VERTEX
  5
509
  8
0
  6
HCS_01
 62
     7
 10
28.98271179199219
 20
27.07753372192383
 30
0.0099999997764826
 70
   192
  0
VERTEX
  5
50A
  8
0
  6
HCS_01
 62
     7
 10
27.78548812866211
 20
26.96052169799805
 30
0.0099999997764826
 70
   192
  0
VERTEX
  5
50B
  8
0
  6
HCS_01
 62
     7
 10
28.66928291320801
 20
26.95745658874512
 30
0.0099999997764826
 70
   192
  0
VERTEX
  5
50C
  8
0
  6
HCS_01
 62
     7
 10
27.78548812866211
 20
26.96052169799805
 30
0.0099999997764826
 70
   192
  0
VERTEX
  5
50D
  8
0
  6
HCS_01
 62
     7
 10
28.98271179199219
 20
27.07753372192383
 30
0.0099999997764826
 70
   192
  0
VERTEX
  5
50E
  8
0
  6
HCS_01
 62
     7
 10
27.44881820678711
 20
27.08979988098145
 30
0.0099999997764826
 70
   192
  0
VERTEX
  5
50F
  8
0
  6
HCS_01
 62
     7
 10
28.23900604248047
 20
27.13692665100098
 30
0.0099999997764826
 70
   192
  0
VERTEX
  5
510
  8
0
  6
HCS_01
 62
     7
 10
27.44881820678711
 20
27.08979988098145
 30
0.0099999997764826
 70
   192
  0
VERTEX
  5
511
  8
0
  6
HCS_01
 62
     7
 10
28.98271179199219
 20
27.07753372192383
 30
0.0099999997764826
 70
   192
  0
VERTEX
  5
512
  8
0
  6
HCS_01
 62
     7
 10
27.44881820678711
 20
27.08979988098145
 30
0.0099999997764826
 70
   192
  0
VERTEX
  5
513
  8
0
  6
HCS_01
 62
     7
 10
28.23900604248047
 20
27.13692665100098
 30
0.0099999997764826
 70
   192
  0
VERTEX
  5
514
  8
0
  6
HCS_01
 62
     7
 10
27.24449348449707
 20
27.30041885375977
 30
0.0099999997764826
 70
   192
  0
VERTEX
  5
515
  8
0
  6
HCS_01
 62
     7
 10
29.17832183837891
 20
27.27378845214844
 30
0.0099999997764826
 70
   192
  0
VERTEX
  5
516
  8
0
  6
HCS_01
 62
     7
 10
29.2435245513916
 20
27.54234886169434
 30
0.0099999997764826
 70
   192
  0
VERTEX
  5
517
  8
0
  6
HCS_01
 62
     7
 10
29.0601806640625
 20
27.56558990478516
 30
0.0099999997764826
 70
   192
  0
VERTEX
  5
518
  8
0
  6
HCS_01
 62
     7
 10
29.17557907104492
 20
27.83011627197266
 30
0.0099999997764826
 70
   192
  0
VERTEX
  5
519
  8
0
  6
HCS_01
 62
     7
 10
29.0601806640625
 20
27.56558990478516
 30
0.0099999997764826
 70
   192
  0
VERTEX
  5
51A
  8
0
  6
HCS_01
 62
     7
 10
29.2435245513916
 20
27.54234886169434
 30
0.0099999997764826
 70
   192
  0
VERTEX
  5
51B
  8
0
  6
HCS_01
 62
     7
 10
29.0601806640625
 20
27.56558990478516
 30
0.0099999997764826
 70
   192
  0
VERTEX
  5
51C
  8
0
  6
HCS_01
 62
     7
 10
29.17557907104492
 20
27.83011627197266
 30
0.0099999997764826
 70
   192
  0
VERTEX
  5
51D
  8
0
  6
HCS_01
 62
     7
 10
28.85198211669922
 20
27.88418197631836
 30
0.0099999997764826
 70
   192
  0
VERTEX
  5
51E
  8
0
  6
HCS_01
 62
     7
 10
28.97173690795898
 20
28.04009056091309
 30
0.0099999997764826
 70
   192
  0
VERTEX
  5
51F
  8
0
  6
HCS_01
 62
     7
 10
28.85198211669922
 20
27.88418197631836
 30
0.0099999997764826
 70
   192
  0
VERTEX
  5
520
  8
0
  6
HCS_01
 62
     7
 10
29.17557907104492
 20
27.83011627197266
 30
0.0099999997764826
 70
   192
  0
VERTEX
  5
521
  8
0
  6
HCS_01
 62
     7
 10
28.85198211669922
 20
27.88418197631836
 30
0.0099999997764826
 70
   192
  0
VERTEX
  5
522
  8
0
  6
HCS_01
 62
     7
 10
28.97173690795898
 20
28.04009056091309
 30
0.0099999997764826
 70
   192
  0
VERTEX
  5
523
  8
0
  6
HCS_01
 62
     7
 10
28.22738647460938
 20
27.99037933349609
 30
0.0099999997764826
 70
   192
  0
VERTEX
  5
524
  8
0
  6
HCS_01
 62
     7
 10
29.17832183837891
 20
27.27378845214844
 30
0.0099999997764826
 70
   192
  0
VERTEX
  5
525
  8
0
  6
HCS_01
 62
     7
 10
29.0601806640625
 20
27.56558990478516
 30
0.0099999997764826
 70
   192
  0
VERTEX
  5
526
  8
0
  6
HCS_01
 62
     7
 10
28.85488700866699
 20
27.24409294128418
 30
0.0099999997764826
 70
   192
  0
VERTEX
  5
527
  8
0
  6
HCS_01
 62
     7
 10
29.17832183837891
 20
27.27378845214844
 30
0.0099999997764826
 70
   192
  0
VERTEX
  5
528
  8
0
  6
HCS_01
 62
     7
 10
28.85488700866699
 20
27.24409294128418
 30
0.0099999997764826
 70
   192
  0
VERTEX
  5
529
  8
0
  6
HCS_01
 62
     7
 10
28.23900604248047
 20
27.13692665100098
 30
0.0099999997764826
 70
   192
  0
VERTEX
  5
52A
  8
0
  6
HCS_01
 62
     7
 10
29.17832183837891
 20
27.27378845214844
 30
0.0099999997764826
 70
   192
  0
VERTEX
  5
52B
  8
0
  6
HCS_01
 62
     7
 10
28.23900604248047
 20
27.13692665100098
 30
0.0099999997764826
 70
   192
  0
VERTEX
  5
52C
  8
0
  6
HCS_01
 62
     7
 10
28.98271179199219
 20
27.07753372192383
 30
0.0099999997764826
 70
   192
  0
VERTEX
  5
52D
  8
0
  6
HCS_01
 62
     7
 10
27.40449905395508
 20
5.0
 30
0.0099999997764826
 70
   192
  0
VERTEX
  5
52E
  8
0
  6
HCS_01
 62
     7
 10
29.40449905395508
 20
5.0
 30
0.0099999997764826
 70
   192
  0
VERTEX
  5
52F
  8
0
  6
HCS_01
 62
     7
 10
28.40449905395508
 20
0.0
 30
0.0099999997764826
 70
   192
  0
VERTEX
  5
530
  8
0
  6
HCS_01
 62
     7
 10
29.40449905395508
 20
45.0
 30
0.0099999997764826
 70
   192
  0
VERTEX
  5
531
  8
0
  6
HCS_01
 62
     7
 10
27.40449905395508
 20
45.0
 30
0.0099999997764826
 70
   192
  0
VERTEX
  5
532
  8
0
  6
HCS_01
 62
     7
 10
28.40449905395508
 20
50.0
 30
0.0099999997764826
 70
   192
  0
VERTEX
  5
533
  8
0
  6
HCS_01
 62
     7
 10
0.0
 20
0.0
 30
0.0
 70
   128
 71
     1
 72
     2
 73
     3
 74
     3
  0
VERTEX
  5
534
  8
0
  6
HCS_01
 62
     7
 10
0.0
 20
0.0
 30
0.0
 70
   128
 71
     4
 72
     5
 73
     6
 74
     6
  0
VERTEX
  5
535
  8
0
  6
HCS_01
 62
     7
 10
0.0
 20
0.0
 30
0.0
 70
   128
 71
     7
 72
     8
 73
     9
 74
     9
  0
VERTEX
  5
536
  8
0
  6
HCS_01
 62
     7
 10
0.0
 20
0.0
 30
0.0
 70
   128
 71
    10
 72
    11
 73
    12
 74
    12
  0
VERTEX
  5
537
  8
0
  6
HCS_01
 62
     7
 10
0.0
 20
0.0
 30
0.0
 70
   128
 71
    13
 72
    14
 73
    15
 74
    15
  0
VERTEX
  5
538
  8
0
  6
HCS_01
 62
     7
 10
0.0
 20
0.0
 30
0.0
 70
   128
 71
    16
 72
    17
 73
    18
 74
    18
  0
VERTEX
  5
539
  8
0
  6
HCS_01
 62
     7
 10
0.0
 20
0.0
 30
0.0
 70
   128
 71
    19
 72
    20
 73
    21
 74
    21
  0
VERTEX
  5
53A
  8
0
  6
HCS_01
 62
     7
 10
0.0
 20
0.0
 30
0.0
 70
   128
 71
    22
 72
    23
 73
    24
 74
    24
  0
VERTEX
  5
53B
  8
0
  6
HCS_01
 62
     7
 10
0.0
 20
0.0
 30
0.0
 70
   128
 71
    25
 72
    26
 73
    27
 74
    27
  0
VERTEX
  5
53C
  8
0
  6
HCS_01
 62
     7
 10
0.0
 20
0.0
 30
0.0
 70
   128
 71
    28
 72
    29
 73
    30
 74
    30
  0
VERTEX
  5
53D
  8
0
  6
HCS_01
 62
     7
 10
0.0
 20
0.0
 30
0.0
 70
   128
 71
    31
 72
    32
 73
    33
 74
    33
  0
VERTEX
  5
53E
  8
0
  6
HCS_01
 62
     7
 10
0.0
 20
0.0
 30
0.0
 70
   128
 71
    34
 72
    35
 73
    36
 74
    36
  0
VERTEX
  5
53F
  8
0
  6
HCS_01
 62
     7
 10
0.0
 20
0.0
 30
0.0
 70
   128
 71
    37
 72
    38
 73
    39
 74
    39
  0
VERTEX
  5
540
  8
0
  6
HCS_01
 62
     7
 10
0.0
 20
0.0
 30
0.0
 70
   128
 71
    40
 72
    41
 73
    42
 74
    42
  0
VERTEX
  5
541
  8
0
  6
HCS_01
 62
     7
 10
0.0
 20
0.0
 30
0.0
 70
   128
 71
    43
 72
    44
 73
    45
 74
    45
  0
VERTEX
  5
542
  8
0
  6
HCS_01
 62
     7
 10
0.0
 20
0.0
 30
0.0
 70
   128
 71
    46
 72
    47
 73
    48
 74
    48
  0
VERTEX
  5
543
  8
0
  6
HCS_01
 62
     7
 10
0.0
 20
0.0
 30
0.0
 70
   128
 71
    49
 72
    50
 73
    51
 74
    51
  0
VERTEX
  5
544
  8
0
  6
HCS_01
 62
     7
 10
0.0
 20
0.0
 30
0.0
 70
   128
 71
    52
 72
    53
 73
    54
 74
    54
  0
VERTEX
  5
545
  8
0
  6
HCS_01
 62
     7
 10
0.0
 20
0.0
 30
0.0
 70
   128
 71
    55
 72
    56
 73
    57
 74
    57
  0
VERTEX
  5
546
  8
0
  6
HCS_01
 62
     7
 10
0.0
 20
0.0
 30
0.0
 70
   128
 71
    58
 72
    59
 73
    60
 74
    60
  0
VERTEX
  5
547
  8
0
  6
HCS_01
 62
     7
 10
0.0
 20
0.0
 30
0.0
 70
   128
 71
    61
 72
    62
 73
    63
 74
    63
  0
VERTEX
  5
548
  8
0
  6
HCS_01
 62
     7
 10
0.0
 20
0.0
 30
0.0
 70
   128
 71
    64
 72
    65
 73
    66
 74
    66
  0
VERTEX
  5
549
  8
0
  6
HCS_01
 62
     7
 10
0.0
 20
0.0
 30
0.0
 70
   128
 71
    67
 72
    68
 73
    69
 74
    69
  0
VERTEX
  5
54A
  8
0
  6
HCS_01
 62
     7
 10
0.0
 20
0.0
 30
0.0
 70
   128
 71
    70
 72
    71
 73
    72
 74
    72
  0
VERTEX
  5
54B
  8
0
  6
HCS_01
 62
     7
 10
0.0
 20
0.0
 30
0.0
 70
   128
 71
    73
 72
    74
 73
    75
 74
    75
  0
VERTEX
  5
54C
  8
0
  6
HCS_01
 62
     7
 10
0.0
 20
0.0
 30
0.0
 70
   128
 71
    76
 72
    77
 73
    78
 74
    78
  0
VERTEX
  5
54D
  8
0
  6
HCS_01
 62
     7
 10
0.0
 20
0.0
 30
0.0
 70
   128
 71
    79
 72
    80
 73
    81
 74
    81
  0
VERTEX
  5
54E
  8
0
  6
HCS_01
 62
     7
 10
0.0
 20
0.0
 30
0.0
 70
   128
 71
    82
 72
    83
 73
    84
 74
    84
  0
VERTEX
  5
54F
  8
0
  6
HCS_01
 62
     7
 10
0.0
 20
0.0
 30
0.0
 70
   128
 71
    85
 72
    86
 73
    87
 74
    87
  0
VERTEX
  5
550
  8
0
  6
HCS_01
 62
     7
 10
0.0
 20
0.0
 30
0.0
 70
   128
 71
    88
 72
    89
 73
    90
 74
    90
  0
VERTEX
  5
551
  8
0
  6
HCS_01
 62
     7
 10
0.0
 20
0.0
 30
0.0
 70
   128
 71
    91
 72
    92
 73
    93
 74
    93
  0
VERTEX
  5
552
  8
0
  6
HCS_01
 62
     7
 10
0.0
 20
0.0
 30
0.0
 70
   128
 71
    94
 72
    95
 73
    96
 74
    96
  0
VERTEX
  5
553
  8
0
  6
HCS_01
 62
     7
 10
0.0
 20
0.0
 30
0.0
 70
   128
 71
    97
 72
    98
 73
    99
 74
    99
  0
VERTEX
  5
554
  8
0
  6
HCS_01
 62
     7
 10
0.0
 20
0.0
 30
0.0
 70
   128
 71
   100
 72
   101
 73
   102
 74
   102
  0
VERTEX
  5
555
  8
0
  6
HCS_01
 62
     7
 10
0.0
 20
0.0
 30
0.0
 70
   128
 71
   103
 72
   104
 73
   105
 74
   105
  0
VERTEX
  5
556
  8
0
  6
HCS_01
 62
     7
 10
0.0
 20
0.0
 30
0.0
 70
   128
 71
   106
 72
   107
 73
   108
 74
   108
  0
VERTEX
  5
557
  8
0
  6
HCS_01
 62
     7
 10
0.0
 20
0.0
 30
0.0
 70
   128
 71
   109
 72
   110
 73
   111
 74
   111
  0
VERTEX
  5
558
  8
0
  6
HCS_01
 62
     7
 10
0.0
 20
0.0
 30
0.0
 70
   128
 71
   112
 72
   113
 73
   114
 74
   114
  0
VERTEX
  5
559
  8
0
  6
HCS_01
 62
     7
 10
0.0
 20
0.0
 30
0.0
 70
   128
 71
   115
 72
   116
 73
   117
 74
   117
  0
VERTEX
  5
55A
  8
0
  6
HCS_01
 62
     7
 10
0.0
 20
0.0
 30
0.0
 70
   128
 71
   118
 72
   119
 73
   120
 74
   120
  0
VERTEX
  5
55B
  8
0
  6
HCS_01
 62
     7
 10
0.0
 20
0.0
 30
0.0
 70
   128
 71
   121
 72
   122
 73
   123
 74
   123
  0
VERTEX
  5
55C
  8
0
  6
HCS_01
 62
     7
 10
0.0
 20
0.0
 30
0.0
 70
   128
 71
   124
 72
   125
 73
   126
 74
   126
  0
VERTEX
  5
55D
  8
0
  6
HCS_01
 62
     7
 10
0.0
 20
0.0
 30
0.0
 70
   128
 71
   127
 72
   128
 73
   129
 74
   129
  0
VERTEX
  5
55E
  8
0
  6
HCS_01
 62
     7
 10
0.0
 20
0.0
 30
0.0
 70
   128
 71
   130
 72
   131
 73
   132
 74
   132
  0
VERTEX
  5
55F
  8
0
  6
HCS_01
 62
     7
 10
0.0
 20
0.0
 30
0.0
 70
   128
 71
   133
 72
   134
 73
   135
 74
   135
  0
VERTEX
  5
560
  8
0
  6
HCS_01
 62
     7
 10
0.0
 20
0.0
 30
0.0
 70
   128
 71
   136
 72
   137
 73
   138
 74
   138
  0
VERTEX
  5
561
  8
0
  6
HCS_01
 62
     7
 10
0.0
 20
0.0
 30
0.0
 70
   128
 71
   139
 72
   140
 73
   141
 74
   141
  0
VERTEX
  5
562
  8
0
  6
HCS_01
 62
     7
 10
0.0
 20
0.0
 30
0.0
 70
   128
 71
   142
 72
   143
 73
   144
 74
   144
  0
VERTEX
  5
563
  8
0
  6
HCS_01
 62
     7
 10
0.0
 20
0.0
 30
0.0
 70
   128
 71
   145
 72
   146
 73
   147
 74
   147
  0
VERTEX
  5
564
  8
0
  6
HCS_01
 62
     7
 10
0.0
 20
0.0
 30
0.0
 70
   128
 71
   148
 72
   149
 73
   150
 74
   150
  0
VERTEX
  5
565
  8
0
  6
HCS_01
 62
     7
 10
0.0
 20
0.0
 30
0.0
 70
   128
 71
   151
 72
   152
 73
   153
 74
   153
  0
VERTEX
  5
566
  8
0
  6
HCS_01
 62
     7
 10
0.0
 20
0.0
 30
0.0
 70
   128
 71
   154
 72
   155
 73
   156
 74
   156
  0
VERTEX
  5
567
  8
0
  6
HCS_01
 62
     7
 10
0.0
 20
0.0
 30
0.0
 70
   128
 71
   157
 72
   158
 73
   159
 74
   159
  0
VERTEX
  5
568
  8
0
  6
HCS_01
 62
     7
 10
0.0
 20
0.0
 30
0.0
 70
   128
 71
   160
 72
   161
 73
   162
 74
   162
  0
VERTEX
  5
569
  8
0
  6
HCS_01
 62
     7
 10
0.0
 20
0.0
 30
0.0
 70
   128
 71
   163
 72
   164
 73
   165
 74
   165
  0
VERTEX
  5
56A
  8
0
  6
HCS_01
 62
     7
 10
0.0
 20
0.0
 30
0.0
 70
   128
 71
   166
 72
   167
 73
   168
 74
   168
  0
VERTEX
  5
56B
  8
0
  6
HCS_01
 62
     7
 10
0.0
 20
0.0
 30
0.0
 70
   128
 71
   169
 72
   170
 73
   171
 74
   171
  0
VERTEX
  5
56C
  8
0
  6
HCS_01
 62
     7
 10
0.0
 20
0.0
 30
0.0
 70
   128
 71
   172
 72
   173
 73
   174
 74
   174
  0
VERTEX
  5
56D
  8
0
  6
HCS_01
 62
     7
 10
0.0
 20
0.0
 30
0.0
 70
   128
 71
   175
 72
   176
 73
   177
 74
   177
  0
VERTEX
  5
56E
  8
0
  6
HCS_01
 62
     7
 10
0.0
 20
0.0
 30
0.0
 70
   128
 71
   178
 72
   179
 73
   180
 74
   180
  0
VERTEX
  5
56F
  8
0
  6
HCS_01
 62
     7
 10
0.0
 20
0.0
 30
0.0
 70
   128
 71
   181
 72
   182
 73
   183
 74
   183
  0
VERTEX
  5
570
  8
0
  6
HCS_01
 62
     7
 10
0.0
 20
0.0
 30
0.0
 70
   128
 71
   184
 72
   185
 73
   186
 74
   186
  0
VERTEX
  5
571
  8
0
  6
HCS_01
 62
     7
 10
0.0
 20
0.0
 30
0.0
 70
   128
 71
   187
 72
   188
 73
   189
 74
   189
  0
VERTEX
  5
572
  8
0
  6
HCS_01
 62
     7
 10
0.0
 20
0.0
 30
0.0
 70
   128
 71
   190
 72
   191
 73
   192
 74
   192
  0
VERTEX
  5
573
  8
0
  6
HCS_01
 62
     7
 10
0.0
 20
0.0
 30
0.0
 70
   128
 71
   193
 72
   194
 73
   195
 74
   195
  0
VERTEX
  5
574
  8
0
  6
HCS_01
 62
     7
 10
0.0
 20
0.0
 30
0.0
 70
   128
 71
   196
 72
   197
 73
   198
 74
   198
  0
VERTEX
  5
575
  8
0
  6
HCS_01
 62
     7
 10
0.0
 20
0.0
 30
0.0
 70
   128
 71
   199
 72
   200
 73
   201
 74
   201
  0
VERTEX
  5
576
  8
0
  6
HCS_01
 62
     7
 10
0.0
 20
0.0
 30
0.0
 70
   128
 71
   202
 72
   203
 73
   204
 74
   204
  0
VERTEX
  5
577
  8
0
  6
HCS_01
 62
     7
 10
0.0
 20
0.0
 30
0.0
 70
   128
 71
   205
 72
   206
 73
   207
 74
   207
  0
VERTEX
  5
578
  8
0
  6
HCS_01
 62
     7
 10
0.0
 20
0.0
 30
0.0
 70
   128
 71
   208
 72
   209
 73
   210
 74
   210
  0
VERTEX
  5
579
  8
0
  6
HCS_01
 62
     7
 10
0.0
 20
0.0
 30
0.0
 70
   128
 71
   211
 72
   212
 73
   213
 74
   213
  0
VERTEX
  5
57A
  8
0
  6
HCS_01
 62
     7
 10
0.0
 20
0.0
 30
0.0
 70
   128
 71
   214
 72
   215
 73
   216
 74
   216
  0
VERTEX
  5
57B
  8
0
  6
HCS_01
 62
     7
 10
0.0
 20
0.0
 30
0.0
 70
   128
 71
   217
 72
   218
 73
   219
 74
   219
  0
VERTEX
  5
57C
  8
0
  6
HCS_01
 62
     7
 10
0.0
 20
0.0
 30
0.0
 70
   128
 71
   220
 72
   221
 73
   222
 74
   222
  0
VERTEX
  5
57D
  8
0
  6
HCS_01
 62
     7
 10
0.0
 20
0.0
 30
0.0
 70
   128
 71
   223
 72
   224
 73
   225
 74
   225
  0
VERTEX
  5
57E
  8
0
  6
HCS_01
 62
     7
 10
0.0
 20
0.0
 30
0.0
 70
   128
 71
   226
 72
   227
 73
   228
 74
   228
  0
VERTEX
  5
57F
  8
0
  6
HCS_01
 62
     7
 10
0.0
 20
0.0
 30
0.0
 70
   128
 71
   229
 72
   230
 73
   231
 74
   231
  0
VERTEX
  5
580
  8
0
  6
HCS_01
 62
     7
 10
0.0
 20
0.0
 30
0.0
 70
   128
 71
   232
 72
   233
 73
   234
 74
   234
  0
VERTEX
  5
581
  8
0
  6
HCS_01
 62
     7
 10
0.0
 20
0.0
 30
0.0
 70
   128
 71
   235
 72
   236
 73
   237
 74
   237
  0
VERTEX
  5
582
  8
0
  6
HCS_01
 62
     7
 10
0.0
 20
0.0
 30
0.0
 70
   128
 71
   238
 72
   239
 73
   240
 74
   240
  0
VERTEX
  5
583
  8
0
  6
HCS_01
 62
     7
 10
0.0
 20
0.0
 30
0.0
 70
   128
 71
   241
 72
   242
 73
   243
 74
   243
  0
VERTEX
  5
584
  8
0
  6
HCS_01
 62
     7
 10
0.0
 20
0.0
 30
0.0
 70
   128
 71
   244
 72
   245
 73
   246
 74
   246
  0
VERTEX
  5
585
  8
0
  6
HCS_01
 62
     7
 10
0.0
 20
0.0
 30
0.0
 70
   128
 71
   247
 72
   248
 73
   249
 74
   249
  0
VERTEX
  5
586
  8
0
  6
HCS_01
 62
     7
 10
0.0
 20
0.0
 30
0.0
 70
   128
 71
   250
 72
   251
 73
   252
 74
   252
  0
VERTEX
  5
587
  8
0
  6
HCS_01
 62
     7
 10
0.0
 20
0.0
 30
0.0
 70
   128
 71
   253
 72
   254
 73
   255
 74
   255
  0
VERTEX
  5
588
  8
0
  6
HCS_01
 62
     7
 10
0.0
 20
0.0
 30
0.0
 70
   128
 71
   256
 72
   257
 73
   258
 74
   258
  0
VERTEX
  5
589
  8
0
  6
HCS_01
 62
     7
 10
0.0
 20
0.0
 30
0.0
 70
   128
 71
   259
 72
   260
 73
   261
 74
   261
  0
VERTEX
  5
58A
  8
0
  6
HCS_01
 62
     7
 10
0.0
 20
0.0
 30
0.0
 70
   128
 71
   262
 72
   263
 73
   264
 74
   264
  0
VERTEX
  5
58B
  8
0
  6
HCS_01
 62
     7
 10
0.0
 20
0.0
 30
0.0
 70
   128
 71
   265
 72
   266
 73
   267
 74
   267
  0
VERTEX
  5
58C
  8
0
  6
HCS_01
 62
     7
 10
0.0
 20
0.0
 30
0.0
 70
   128
 71
   268
 72
   269
 73
   270
 74
   270
  0
VERTEX
  5
58D
  8
0
  6
HCS_01
 62
     7
 10
0.0
 20
0.0
 30
0.0
 70
   128
 71
   271
 72
   272
 73
   273
 74
   273
  0
VERTEX
  5
58E
  8
0
  6
HCS_01
 62
     7
 10
0.0
 20
0.0
 30
0.0
 70
   128
 71
   274
 72
   275
 73
   276
 74
   276
  0
VERTEX
  5
58F
  8
0
  6
HCS_01
 62
     7
 10
0.0
 20
0.0
 30
0.0
 70
   128
 71
   277
 72
   278
 73
   279
 74
   279
  0
VERTEX
  5
590
  8
0
  6
HCS_01
 62
     7
 10
0.0
 20
0.0
 30
0.0
 70
   128
 71
   280
 72
   281
 73
   282
 74
   282
  0
VERTEX
  5
591
  8
0
  6
HCS_01
 62
     7
 10
0.0
 20
0.0
 30
0.0
 70
   128
 71
   283
 72
   284
 73
   285
 74
   285
  0
VERTEX
  5
592
  8
0
  6
HCS_01
 62
     7
 10
0.0
 20
0.0
 30
0.0
 70
   128
 71
   286
 72
   287
 73
   288
 74
   288
  0
VERTEX
  5
593
  8
0
  6
HCS_01
 62
     7
 10
0.0
 20
0.0
 30
0.0
 70
   128
 71
   289
 72
   290
 73
   291
 74
   291
  0
VERTEX
  5
594
  8
0
  6
HCS_01
 62
     7
 10
0.0
 20
0.0
 30
0.0
 70
   128
 71
   292
 72
   293
 73
   294
 74
   294
  0
VERTEX
  5
595
  8
0
  6
HCS_01
 62
     7
 10
0.0
 20
0.0
 30
0.0
 70
   128
 71
   295
 72
   296
 73
   297
 74
   297
  0
VERTEX
  5
596
  8
0
  6
HCS_01
 62
     7
 10
0.0
 20
0.0
 30
0.0
 70
   128
 71
   298
 72
   299
 73
   300
 74
   300
  0
VERTEX
  5
597
  8
0
  6
HCS_01
 62
     7
 10
0.0
 20
0.0
 30
0.0
 70
   128
 71
   301
 72
   302
 73
   303
 74
   303
  0
VERTEX
  5
598
  8
0
  6
HCS_01
 62
     7
 10
0.0
 20
0.0
 30
0.0
 70
   128
 71
   304
 72
   305
 73
   306
 74
   306
  0
VERTEX
  5
599
  8
0
  6
HCS_01
 62
     7
 10
0.0
 20
0.0
 30
0.0
 70
   128
 71
   307
 72
   308
 73
   309
 74
   309
  0
VERTEX
  5
59A
  8
0
  6
HCS_01
 62
     7
 10
0.0
 20
0.0
 30
0.0
 70
   128
 71
   310
 72
   311
 73
   312
 74
   312
  0
VERTEX
  5
59B
  8
0
  6
HCS_01
 62
     7
 10
0.0
 20
0.0
 30
0.0
 70
   128
 71
   313
 72
   314
 73
   315
 74
   315
  0
VERTEX
  5
59C
  8
0
  6
HCS_01
 62
     7
 10
0.0
 20
0.0
 30
0.0
 70
   128
 71
   316
 72
   317
 73
   318
 74
   318
  0
VERTEX
  5
59D
  8
0
  6
HCS_01
 62
     7
 10
0.0
 20
0.0
 30
0.0
 70
   128
 71
   319
 72
   320
 73
   321
 74
   321
  0
VERTEX
  5
59E
  8
0
  6
HCS_01
 62
     7
 10
0.0
 20
0.0
 30
0.0
 70
   128
 71
   322
 72
   323
 73
   324
 74
   324
  0
VERTEX
  5
59F
  8
0
  6
HCS_01
 62
     7
 10
0.0
 20
0.0
 30
0.0
 70
   128
 71
   325
 72
   326
 73
   327
 74
   327
  0
VERTEX
  5
5A0
  8
0
  6
HCS_01
 62
     7
 10
0.0
 20
0.0
 30
0.0
 70
   128
 71
   328
 72
   329
 73
   330
 74
   330
  0
VERTEX
  5
5A1
  8
0
  6
HCS_01
 62
     7
 10
0.0
 20
0.0
 30
0.0
 70
   128
 71
   331
 72
   332
 73
   333
 74
   333
  0
SEQEND
  5
7C6
  8
0
  6
HCS_01
 62
     7
  0
ENDBLK
  5
5A4
  8
0
  0
BLOCK
  8
0
  2
GNODE_34
 70
     0
 10
0.0
 20
0.0
 30
0.0
  3
GNODE_34
  1

  0
LINE
  5
5A6
  8
0
  6
HCS_01
 62
     7
 10
13.87788009643555
 20
9.0
 30
0.0
 11
3.5
 21
9.0
 31
0.0
  0
LINE
  5
5A7
  8
0
  6
HCS_01
 62
     7
 10
13.87788009643555
 20
0.0
 30
0.0
 11
3.5
 21
0.0
 31
0.0
  0
LINE
  5
5A8
  8
0
  6
HCS_01
 62
     7
 10
10.87788009643555
 20
20.61045837402344
 30
0.0
 11
10.87788009643555
 21
-7.5
 31
0.0
  0
POLYLINE
  5
5A9
  8
0
  6
HCS_01
 62
     7
 66
     1
 10
0.0
 20
0.0
 30
0.0
 70
    64
 71
   402
 72
   134
  0
VERTEX
  5
5AA
  8
0
  6
HCS_01
 62
     7
 10
6.208662033081055
 20
22.51836776733398
 30
0.0099999997764826
 70
   192
  0
VERTEX
  5
5AB
  8
0
  6
HCS_01
 62
     7
 10
6.334711074829102
 20
22.16297721862793
 30
0.0099999997764826
 70
   192
  0
VERTEX
  5
5AC
  8
0
  6
HCS_01
 62
     7
 10
6.44139289855957
 20
22.34890365600586
 30
0.0099999997764826
 70
   192
  0
VERTEX
  5
5AD
  8
0
  6
HCS_01
 62
     7
 10
6.714795112609863
 20
22.09357833862305
 30
0.0099999997764826
 70
   192
  0
VERTEX
  5
5AE
  8
0
  6
HCS_01
 62
     7
 10
6.44139289855957
 20
22.34890365600586
 30
0.0099999997764826
 70
   192
  0
VERTEX
  5
5AF
  8
0
  6
HCS_01
 62
     7
 10
6.334711074829102
 20
22.16297721862793
 30
0.0099999997764826
 70
   192
  0
VERTEX
  5
5B0
  8
0
  6
HCS_01
 62
     7
 10
6.44139289855957
 20
22.34890365600586
 30
0.0099999997764826
 70
   192
  0
VERTEX
  5
5B1
  8
0
  6
HCS_01
 62
     7
 10
6.714795112609863
 20
22.09357833862305
 30
0.0099999997764826
 70
   192
  0
VERTEX
  5
5B2
  8
0
  6
HCS_01
 62
     7
 10
6.741909027099609
 20
22.29241561889648
 30
0.0099999997764826
 70
   192
  0
VERTEX
  5
5B3
  8
0
  6
HCS_01
 62
     7
 10
7.01789379119873
 20
22.1232738494873
 30
0.0099999997764826
 70
   192
  0
VERTEX
  5
5B4
  8
0
  6
HCS_01
 62
     7
 10
6.741909027099609
 20
22.29241561889648
 30
0.0099999997764826
 70
   192
  0
VERTEX
  5
5B5
  8
0
  6
HCS_01
 62
     7
 10
6.714795112609863
 20
22.09357833862305
 30
0.0099999997764826
 70
   192
  0
VERTEX
  5
5B6
  8
0
  6
HCS_01
 62
     7
 10
6.741909027099609
 20
22.29241561889648
 30
0.0099999997764826
 70
   192
  0
VERTEX
  5
5B7
  8
0
  6
HCS_01
 62
     7
 10
7.01789379119873
 20
22.1232738494873
 30
0.0099999997764826
 70
   192
  0
VERTEX
  5
5B8
  8
0
  6
HCS_01
 62
     7
 10
7.024026870727539
 20
22.32598495483398
 30
0.0099999997764826
 70
   192
  0
VERTEX
  5
5B9
  8
0
  6
HCS_01
 62
     7
 10
7.26611852645874
 20
22.21236419677734
 30
0.0099999997764826
 70
   192
  0
VERTEX
  5
5BA
  8
0
  6
HCS_01
 62
     7
 10
7.024026870727539
 20
22.32598495483398
 30
0.0099999997764826
 70
   192
  0
VERTEX
  5
5BB
  8
0
  6
HCS_01
 62
     7
 10
7.01789379119873
 20
22.1232738494873
 30
0.0099999997764826
 70
   192
  0
VERTEX
  5
5BC
  8
0
  6
HCS_01
 62
     7
 10
7.024026870727539
 20
22.32598495483398
 30
0.0099999997764826
 70
   192
  0
VERTEX
  5
5BD
  8
0
  6
HCS_01
 62
     7
 10
7.26611852645874
 20
22.21236419677734
 30
0.0099999997764826
 70
   192
  0
VERTEX
  5
5BE
  8
0
  6
HCS_01
 62
     7
 10
7.26611852645874
 20
22.42669486999512
 30
0.0099999997764826
 70
   192
  0
VERTEX
  5
5BF
  8
0
  6
HCS_01
 62
     7
 10
6.061470031738281
 20
23.85600471496582
 30
0.0099999997764826
 70
   192
  0
VERTEX
  5
5C0
  8
0
  6
HCS_01
 62
     7
 10
5.849397659301758
 20
23.51191139221191
 30
0.0099999997764826
 70
   192
  0
VERTEX
  5
5C1
  8
0
  6
HCS_01
 62
     7
 10
6.009823799133301
 20
23.10197067260742
 30
0.0099999997764826
 70
   192
  0
VERTEX
  5
5C2
  8
0
  6
HCS_01
 62
     7
 10
6.036292552947998
 20
22.37117576599121
 30
0.0099999997764826
 70
   192
  0
VERTEX
  5
5C3
  8
0
  6
HCS_01
 62
     7
 10
6.009823799133301
 20
23.10197067260742
 30
0.0099999997764826
 70
   192
  0
VERTEX
  5
5C4
  8
0
  6
HCS_01
 62
     7
 10
5.849397659301758
 20
23.51191139221191
 30
0.0099999997764826
 70
   192
  0
VERTEX
  5
5C5
  8
0
  6
HCS_01
 62
     7
 10
6.009823799133301
 20
23.10197067260742
 30
0.0099999997764826
 70
   192
  0
VERTEX
  5
5C6
  8
0
  6
HCS_01
 62
     7
 10
6.036292552947998
 20
22.37117576599121
 30
0.0099999997764826
 70
   192
  0
VERTEX
  5
5C7
  8
0
  6
HCS_01
 62
     7
 10
6.059533596038818
 20
22.77724456787109
 30
0.0099999997764826
 70
   192
  0
VERTEX
  5
5C8
  8
0
  6
HCS_01
 62
     7
 10
6.334711074829102
 20
22.16297721862793
 30
0.0099999997764826
 70
   192
  0
VERTEX
  5
5C9
  8
0
  6
HCS_01
 62
     7
 10
6.059533596038818
 20
22.77724456787109
 30
0.0099999997764826
 70
   192
  0
VERTEX
  5
5CA
  8
0
  6
HCS_01
 62
     7
 10
6.036292552947998
 20
22.37117576599121
 30
0.0099999997764826
 70
   192
  0
VERTEX
  5
5CB
  8
0
  6
HCS_01
 62
     7
 10
6.059533596038818
 20
22.77724456787109
 30
0.0099999997764826
 70
   192
  0
VERTEX
  5
5CC
  8
0
  6
HCS_01
 62
     7
 10
6.334711074829102
 20
22.16297721862793
 30
0.0099999997764826
 70
   192
  0
VERTEX
  5
5CD
  8
0
  6
HCS_01
 62
     7
 10
6.208662033081055
 20
22.51836776733398
 30
0.0099999997764826
 70
   192
  0
VERTEX
  5
5CE
  8
0
  6
HCS_01
 62
     7
 10
5.849397659301758
 20
23.51191139221191
 30
0.0099999997764826
 70
   192
  0
VERTEX
  5
5CF
  8
0
  6
HCS_01
 62
     7
 10
5.778707027435303
 20
23.08905792236328
 30
0.0099999997764826
 70
   192
  0
VERTEX
  5
5D0
  8
0
  6
HCS_01
 62
     7
 10
5.843103408813477
 20
22.68944549560547
 30
0.0099999997764826
 70
   192
  0
VERTEX
  5
5D1
  8
0
  6
HCS_01
 62
     7
 10
5.849397659301758
 20
23.51191139221191
 30
0.0099999997764826
 70
   192
  0
VERTEX
  5
5D2
  8
0
  6
HCS_01
 62
     7
 10
5.843103408813477
 20
22.68944549560547
 30
0.0099999997764826
 70
   192
  0
VERTEX
  5
5D3
  8
0
  6
HCS_01
 62
     7
 10
6.036292552947998
 20
22.37117576599121
 30
0.0099999997764826
 70
   192
  0
VERTEX
  5
5D4
  8
0
  6
HCS_01
 62
     7
 10
6.47060489654541
 20
23.89925956726074
 30
0.0099999997764826
 70
   192
  0
VERTEX
  5
5D5
  8
0
  6
HCS_01
 62
     7
 10
6.79097318649292
 20
23.95929718017578
 30
0.0099999997764826
 70
   192
  0
VERTEX
  5
5D6
  8
0
  6
HCS_01
 62
     7
 10
6.796137809753418
 20
24.16071701049805
 30
0.0099999997764826
 70
   192
  0
VERTEX
  5
5D7
  8
0
  6
HCS_01
 62
     7
 10
7.039520263671875
 20
23.92960166931152
 30
0.0099999997764826
 70
   192
  0
VERTEX
  5
5D8
  8
0
  6
HCS_01
 62
     7
 10
6.796137809753418
 20
24.16071701049805
 30
0.0099999997764826
 70
   192
  0
VERTEX
  5
5D9
  8
0
  6
HCS_01
 62
     7
 10
6.79097318649292
 20
23.95929718017578
 30
0.0099999997764826
 70
   192
  0
VERTEX
  5
5DA
  8
0
  6
HCS_01
 62
     7
 10
6.796137809753418
 20
24.16071701049805
 30
0.0099999997764826
 70
   192
  0
VERTEX
  5
5DB
  8
0
  6
HCS_01
 62
     7
 10
7.039520263671875
 20
23.92960166931152
 30
0.0099999997764826
 70
   192
  0
VERTEX
  5
5DC
  8
0
  6
HCS_01
 62
     7
 10
7.055660247802734
 20
24.14005851745605
 30
0.0099999997764826
 70
   192
  0
VERTEX
  5
5DD
  8
0
  6
HCS_01
 62
     7
 10
7.26611852645874
 20
23.84051132202148
 30
0.0099999997764826
 70
   192
  0
VERTEX
  5
5DE
  8
0
  6
HCS_01
 62
     7
 10
7.055660247802734
 20
24.14005851745605
 30
0.0099999997764826
 70
   192
  0
VERTEX
  5
5DF
  8
0
  6
HCS_01
 62
     7
 10
7.039520263671875
 20
23.92960166931152
 30
0.0099999997764826
 70
   192
  0
VERTEX
  5
5E0
  8
0
  6
HCS_01
 62
     7
 10
7.055660247802734
 20
24.14005851745605
 30
0.0099999997764826
 70
   192
  0
VERTEX
  5
5E1
  8
0
  6
HCS_01
 62
     7
 10
7.26611852645874
 20
23.84051132202148
 30
0.0099999997764826
 70
   192
  0
VERTEX
  5
5E2
  8
0
  6
HCS_01
 62
     7
 10
7.26611852645874
 20
24.07808303833008
 30
0.0099999997764826
 70
   192
  0
VERTEX
  5
5E3
  8
0
  6
HCS_01
 62
     7
 10
6.386518478393555
 20
24.08453941345215
 30
0.0099999997764826
 70
   192
  0
VERTEX
  5
5E4
  8
0
  6
HCS_01
 62
     7
 10
6.061470031738281
 20
23.85600471496582
 30
0.0099999997764826
 70
   192
  0
VERTEX
  5
5E5
  8
0
  6
HCS_01
 62
     7
 10
6.062922954559326
 20
23.44477272033691
 30
0.0099999997764826
 70
   192
  0
VERTEX
  5
5E6
  8
0
  6
HCS_01
 62
     7
 10
6.386518478393555
 20
24.08453941345215
 30
0.0099999997764826
 70
   192
  0
VERTEX
  5
5E7
  8
0
  6
HCS_01
 62
     7
 10
6.062922954559326
 20
23.44477272033691
 30
0.0099999997764826
 70
   192
  0
VERTEX
  5
5E8
  8
0
  6
HCS_01
 62
     7
 10
6.222218990325928
 20
23.71914291381836
 30
0.0099999997764826
 70
   192
  0
VERTEX
  5
5E9
  8
0
  6
HCS_01
 62
     7
 10
6.386518478393555
 20
24.08453941345215
 30
0.0099999997764826
 70
   192
  0
VERTEX
  5
5EA
  8
0
  6
HCS_01
 62
     7
 10
6.222218990325928
 20
23.71914291381836
 30
0.0099999997764826
 70
   192
  0
VERTEX
  5
5EB
  8
0
  6
HCS_01
 62
     7
 10
6.47060489654541
 20
23.89925956726074
 30
0.0099999997764826
 70
   192
  0
VERTEX
  5
5EC
  8
0
  6
HCS_01
 62
     7
 10
6.386518478393555
 20
24.08453941345215
 30
0.0099999997764826
 70
   192
  0
VERTEX
  5
5ED
  8
0
  6
HCS_01
 62
     7
 10
6.47060489654541
 20
23.89925956726074
 30
0.0099999997764826
 70
   192
  0
VERTEX
  5
5EE
  8
0
  6
HCS_01
 62
     7
 10
6.796137809753418
 20
24.16071701049805
 30
0.0099999997764826
 70
   192
  0
VERTEX
  5
5EF
  8
0
  6
HCS_01
 62
     7
 10
6.061470031738281
 20
23.85600471496582
 30
0.0099999997764826
 70
   192
  0
VERTEX
  5
5F0
  8
0
  6
HCS_01
 62
     7
 10
6.009823799133301
 20
23.10197067260742
 30
0.0099999997764826
 70
   192
  0
VERTEX
  5
5F1
  8
0
  6
HCS_01
 62
     7
 10
6.062922954559326
 20
23.44477272033691
 30
0.0099999997764826
 70
   192
  0
VERTEX
  5
5F2
  8
0
  6
HCS_01
 62
     7
 10
7.896202087402344
 20
22.32856750488281
 30
0.0099999997764826
 70
   192
  0
VERTEX
  5
5F3
  8
0
  6
HCS_01
 62
     7
 10
7.896202087402344
 20
24.12714767456055
 30
0.0099999997764826
 70
   192
  0
VERTEX
  5
5F4
  8
0
  6
HCS_01
 62
     7
 10
7.676705837249756
 20
24.12714767456055
 30
0.0099999997764826
 70
   192
  0
VERTEX
  5
5F5
  8
0
  6
HCS_01
 62
     7
 10
7.896202087402344
 20
22.32856750488281
 30
0.0099999997764826
 70
   192
  0
VERTEX
  5
5F6
  8
0
  6
HCS_01
 62
     7
 10
7.676705837249756
 20
24.12714767456055
 30
0.0099999997764826
 70
   192
  0
VERTEX
  5
5F7
  8
0
  6
HCS_01
 62
     7
 10
7.676705837249756
 20
22.12714767456055
 30
0.0099999997764826
 70
   192
  0
VERTEX
  5
5F8
  8
0
  6
HCS_01
 62
     7
 10
7.896202087402344
 20
22.32856750488281
 30
0.0099999997764826
 70
   192
  0
VERTEX
  5
5F9
  8
0
  6
HCS_01
 62
     7
 10
7.676705837249756
 20
22.12714767456055
 30
0.0099999997764826
 70
   192
  0
VERTEX
  5
5FA
  8
0
  6
HCS_01
 62
     7
 10
8.704465866088867
 20
22.12714767456055
 30
0.0099999997764826
 70
   192
  0
VERTEX
  5
5FB
  8
0
  6
HCS_01
 62
     7
 10
7.896202087402344
 20
22.32856750488281
 30
0.0099999997764826
 70
   192
  0
VERTEX
  5
5FC
  8
0
  6
HCS_01
 62
     7
 10
8.704465866088867
 20
22.12714767456055
 30
0.0099999997764826
 70
   192
  0
VERTEX
  5
5FD
  8
0
  6
HCS_01
 62
     7
 10
8.704465866088867
 20
22.32856750488281
 30
0.0099999997764826
 70
   192
  0
VERTEX
  5
5FE
  8
0
  6
HCS_01
 62
     7
 10
10.80130195617676
 20
23.24787139892578
 30
0.0099999997764826
 70
   192
  0
VERTEX
  5
5FF
  8
0
  6
HCS_01
 62
     7
 10
10.76127624511719
 20
23.63796043395996
 30
0.0099999997764826
 70
   192
  0
VERTEX
  5
600
  8
0
  6
HCS_01
 62
     7
 10
10.74884986877441
 20
22.76304244995117
 30
0.0099999997764826
 70
   192
  0
VERTEX
  5
601
  8
0
  6
HCS_01
 62
     7
 10
10.64119911193848
 20
23.92508125305176
 30
0.0099999997764826
 70
   192
  0
VERTEX
  5
602
  8
0
  6
HCS_01
 62
     7
 10
10.74884986877441
 20
22.76304244995117
 30
0.0099999997764826
 70
   192
  0
VERTEX
  5
603
  8
0
  6
HCS_01
 62
     7
 10
10.76127624511719
 20
23.63796043395996
 30
0.0099999997764826
 70
   192
  0
VERTEX
  5
604
  8
0
  6
HCS_01
 62
     7
 10
10.74884986877441
 20
22.76304244995117
 30
0.0099999997764826
 70
   192
  0
VERTEX
  5
605
  8
0
  6
HCS_01
 62
     7
 10
10.64119911193848
 20
23.92508125305176
 30
0.0099999997764826
 70
   192
  0
VERTEX
  5
606
  8
0
  6
HCS_01
 62
     7
 10
10.59148979187012
 20
22.39829063415527
 30
0.0099999997764826
 70
   192
  0
VERTEX
  5
607
  8
0
  6
HCS_01
 62
     7
 10
10.58309745788574
 20
23.13295745849609
 30
0.0099999997764826
 70
   192
  0
VERTEX
  5
608
  8
0
  6
HCS_01
 62
     7
 10
10.59148979187012
 20
22.39829063415527
 30
0.0099999997764826
 70
   192
  0
VERTEX
  5
609
  8
0
  6
HCS_01
 62
     7
 10
10.64119911193848
 20
23.92508125305176
 30
0.0099999997764826
 70
   192
  0
VERTEX
  5
60A
  8
0
  6
HCS_01
 62
     7
 10
10.59148979187012
 20
22.39829063415527
 30
0.0099999997764826
 70
   192
  0
VERTEX
  5
60B
  8
0
  6
HCS_01
 62
     7
 10
10.58309745788574
 20
23.13295745849609
 30
0.0099999997764826
 70
   192
  0
VERTEX
  5
60C
  8
0
  6
HCS_01
 62
     7
 10
10.54468536376953
 20
22.76933670043945
 30
0.0099999997764826
 70
   192
  0
VERTEX
  5
60D
  8
0
  6
HCS_01
 62
     7
 10
10.64119911193848
 20
23.92508125305176
 30
0.0099999997764826
 70
   192
  0
VERTEX
  5
60E
  8
0
  6
HCS_01
 62
     7
 10
10.4459114074707
 20
24.10180854797363
 30
0.0099999997764826
 70
   192
  0
VERTEX
  5
60F
  8
0
  6
HCS_01
 62
     7
 10
10.45720958709717
 20
23.82566261291504
 30
0.0099999997764826
 70
   192
  0
VERTEX
  5
610
  8
0
  6
HCS_01
 62
     7
 10
10.64119911193848
 20
23.92508125305176
 30
0.0099999997764826
 70
   192
  0
VERTEX
  5
611
  8
0
  6
HCS_01
 62
     7
 10
10.45720958709717
 20
23.82566261291504
 30
0.0099999997764826
 70
   192
  0
VERTEX
  5
612
  8
0
  6
HCS_01
 62
     7
 10
10.54097366333008
 20
23.65700531005859
 30
0.0099999997764826
 70
   192
  0
VERTEX
  5
613
  8
0
  6
HCS_01
 62
     7
 10
10.64119911193848
 20
23.92508125305176
 30
0.0099999997764826
 70
   192
  0
VERTEX
  5
614
  8
0
  6
HCS_01
 62
     7
 10
10.54097366333008
 20
23.65700531005859
 30
0.0099999997764826
 70
   192
  0
VERTEX
  5
615
  8
0
  6
HCS_01
 62
     7
 10
10.5688943862915
 20
23.45187377929688
 30
0.0099999997764826
 70
   192
  0
VERTEX
  5
616
  8
0
  6
HCS_01
 62
     7
 10
10.64119911193848
 20
23.92508125305176
 30
0.0099999997764826
 70
   192
  0
VERTEX
  5
617
  8
0
  6
HCS_01
 62
     7
 10
10.5688943862915
 20
23.45187377929688
 30
0.0099999997764826
 70
   192
  0
VERTEX
  5
618
  8
0
  6
HCS_01
 62
     7
 10
10.57793235778809
 20
23.13295745849609
 30
0.0099999997764826
 70
   192
  0
VERTEX
  5
619
  8
0
  6
HCS_01
 62
     7
 10
10.64119911193848
 20
23.92508125305176
 30
0.0099999997764826
 70
   192
  0
VERTEX
  5
61A
  8
0
  6
HCS_01
 62
     7
 10
10.57793235778809
 20
23.13295745849609
 30
0.0099999997764826
 70
   192
  0
VERTEX
  5
61B
  8
0
  6
HCS_01
 62
     7
 10
10.58051490783691
 20
23.13166618347168
 30
0.0099999997764826
 70
   192
  0
VERTEX
  5
61C
  8
0
  6
HCS_01
 62
     7
 10
10.64119911193848
 20
23.92508125305176
 30
0.0099999997764826
 70
   192
  0
VERTEX
  5
61D
  8
0
  6
HCS_01
 62
     7
 10
10.58051490783691
 20
23.13166618347168
 30
0.0099999997764826
 70
   192
  0
VERTEX
  5
61E
  8
0
  6
HCS_01
 62
     7
 10
10.58309745788574
 20
23.13295745849609
 30
0.0099999997764826
 70
   192
  0
VERTEX
  5
61F
  8
0
  6
HCS_01
 62
     7
 10
10.00110816955566
 20
23.94331932067871
 30
0.0099999997764826
 70
   192
  0
VERTEX
  5
620
  8
0
  6
HCS_01
 62
     7
 10
10.15959739685059
 20
23.97608184814453
 30
0.0099999997764826
 70
   192
  0
VERTEX
  5
621
  8
0
  6
HCS_01
 62
     7
 10
10.18025588989258
 20
24.16071701049805
 30
0.0099999997764826
 70
   192
  0
VERTEX
  5
622
  8
0
  6
HCS_01
 62
     7
 10
10.32696342468262
 20
23.9384765625
 30
0.0099999997764826
 70
   192
  0
VERTEX
  5
623
  8
0
  6
HCS_01
 62
     7
 10
10.18025588989258
 20
24.16071701049805
 30
0.0099999997764826
 70
   192
  0
VERTEX
  5
624
  8
0
  6
HCS_01
 62
     7
 10
10.15959739685059
 20
23.97608184814453
 30
0.0099999997764826
 70
   192
  0
VERTEX
  5
625
  8
0
  6
HCS_01
 62
     7
 10
10.18025588989258
 20
24.16071701049805
 30
0.0099999997764826
 70
   192
  0
VERTEX
  5
626
  8
0
  6
HCS_01
 62
     7
 10
10.32696342468262
 20
23.9384765625
 30
0.0099999997764826
 70
   192
  0
VERTEX
  5
627
  8
0
  6
HCS_01
 62
     7
 10
10.4459114074707
 20
24.10180854797363
 30
0.0099999997764826
 70
   192
  0
VERTEX
  5
628
  8
0
  6
HCS_01
 62
     7
 10
10.45720958709717
 20
23.82566261291504
 30
0.0099999997764826
 70
   192
  0
VERTEX
  5
629
  8
0
  6
HCS_01
 62
     7
 10
10.4459114074707
 20
24.10180854797363
 30
0.0099999997764826
 70
   192
  0
VERTEX
  5
62A
  8
0
  6
HCS_01
 62
     7
 10
10.32696342468262
 20
23.9384765625
 30
0.0099999997764826
 70
   192
  0
VERTEX
  5
62B
  8
0
  6
HCS_01
 62
     7
 10
9.920572280883789
 20
24.11310577392578
 30
0.0099999997764826
 70
   192
  0
VERTEX
  5
62C
  8
0
  6
HCS_01
 62
     7
 10
9.717376708984375
 20
23.97027206420898
 30
0.0099999997764826
 70
   192
  0
VERTEX
  5
62D
  8
0
  6
HCS_01
 62
     7
 10
9.790973663330078
 20
23.69993591308594
 30
0.0099999997764826
 70
   192
  0
VERTEX
  5
62E
  8
0
  6
HCS_01
 62
     7
 10
9.920572280883789
 20
24.11310577392578
 30
0.0099999997764826
 70
   192
  0
VERTEX
  5
62F
  8
0
  6
HCS_01
 62
     7
 10
9.790973663330078
 20
23.69993591308594
 30
0.0099999997764826
 70
   192
  0
VERTEX
  5
630
  8
0
  6
HCS_01
 62
     7
 10
9.874252319335938
 20
23.84502983093262
 30
0.0099999997764826
 70
   192
  0
VERTEX
  5
631
  8
0
  6
HCS_01
 62
     7
 10
9.920572280883789
 20
24.11310577392578
 30
0.0099999997764826
 70
   192
  0
VERTEX
  5
632
  8
0
  6
HCS_01
 62
     7
 10
9.874252319335938
 20
23.84502983093262
 30
0.0099999997764826
 70
   192
  0
VERTEX
  5
633
  8
0
  6
HCS_01
 62
     7
 10
10.00110816955566
 20
23.94331932067871
 30
0.0099999997764826
 70
   192
  0
VERTEX
  5
634
  8
0
  6
HCS_01
 62
     7
 10
9.920572280883789
 20
24.11310577392578
 30
0.0099999997764826
 70
   192
  0
VERTEX
  5
635
  8
0
  6
HCS_01
 62
     7
 10
10.00110816955566
 20
23.94331932067871
 30
0.0099999997764826
 70
   192
  0
VERTEX
  5
636
  8
0
  6
HCS_01
 62
     7
 10
10.18025588989258
 20
24.16071701049805
 30
0.0099999997764826
 70
   192
  0
VERTEX
  5
637
  8
0
  6
HCS_01
 62
     7
 10
10.00336837768555
 20
23.0972900390625
 30
0.0099999997764826
 70
   192
  0
VERTEX
  5
638
  8
0
  6
HCS_01
 62
     7
 10
9.872961044311523
 20
23.19170570373535
 30
0.0099999997764826
 70
   192
  0
VERTEX
  5
639
  8
0
  6
HCS_01
 62
     7
 10
9.893942832946777
 20
22.91636657714844
 30
0.0099999997764826
 70
   192
  0
VERTEX
  5
63A
  8
0
  6
HCS_01
 62
     7
 10
9.790650367736816
 20
23.33841323852539
 30
0.0099999997764826
 70
   192
  0
VERTEX
  5
63B
  8
0
  6
HCS_01
 62
     7
 10
9.893942832946777
 20
22.91636657714844
 30
0.0099999997764826
 70
   192
  0
VERTEX
  5
63C
  8
0
  6
HCS_01
 62
     7
 10
9.872961044311523
 20
23.19170570373535
 30
0.0099999997764826
 70
   192
  0
VERTEX
  5
63D
  8
0
  6
HCS_01
 62
     7
 10
9.893942832946777
 20
22.91636657714844
 30
0.0099999997764826
 70
   192
  0
VERTEX
  5
63E
  8
0
  6
HCS_01
 62
     7
 10
9.790650367736816
 20
23.33841323852539
 30
0.0099999997764826
 70
   192
  0
VERTEX
  5
63F
  8
0
  6
HCS_01
 62
     7
 10
9.706401824951172
 20
23.04903221130371
 30
0.0099999997764826
 70
   192
  0
VERTEX
  5
640
  8
0
  6
HCS_01
 62
     7
 10
9.763213157653809
 20
23.52676010131836
 30
0.0099999997764826
 70
   192
  0
VERTEX
  5
641
  8
0
  6
HCS_01
 62
     7
 10
9.706401824951172
 20
23.04903221130371
 30
0.0099999997764826
 70
   192
  0
VERTEX
  5
642
  8
0
  6
HCS_01
 62
     7
 10
9.790650367736816
 20
23.33841323852539
 30
0.0099999997764826
 70
   192
  0
VERTEX
  5
643
  8
0
  6
HCS_01
 62
     7
 10
9.706401824951172
 20
23.04903221130371
 30
0.0099999997764826
 70
   192
  0
VERTEX
  5
644
  8
0
  6
HCS_01
 62
     7
 10
9.763213157653809
 20
23.52676010131836
 30
0.0099999997764826
 70
   192
  0
VERTEX
  5
645
  8
0
  6
HCS_01
 62
     7
 10
9.717376708984375
 20
23.97027206420898
 30
0.0099999997764826
 70
   192
  0
VERTEX
  5
646
  8
0
  6
HCS_01
 62
     7
 10
9.790973663330078
 20
23.69993591308594
 30
0.0099999997764826
 70
   192
  0
VERTEX
  5
647
  8
0
  6
HCS_01
 62
     7
 10
9.717376708984375
 20
23.97027206420898
 30
0.0099999997764826
 70
   192
  0
VERTEX
  5
648
  8
0
  6
HCS_01
 62
     7
 10
9.763213157653809
 20
23.52676010131836
 30
0.0099999997764826
 70
   192
  0
VERTEX
  5
649
  8
0
  6
HCS_01
 62
     7
 10
10.4294490814209
 20
22.4996452331543
 30
0.0099999997764826
 70
   192
  0
VERTEX
  5
64A
  8
0
  6
HCS_01
 62
     7
 10
10.2461051940918
 20
22.33260345458984
 30
0.0099999997764826
 70
   192
  0
VERTEX
  5
64B
  8
0
  6
HCS_01
 62
     7
 10
10.33729362487793
 20
22.16975593566895
 30
0.0099999997764826
 70
   192
  0
VERTEX
  5
64C
  8
0
  6
HCS_01
 62
     7
 10
10.4294490814209
 20
22.4996452331543
 30
0.0099999997764826
 70
   192
  0
VERTEX
  5
64D
  8
0
  6
HCS_01
 62
     7
 10
10.33729362487793
 20
22.16975593566895
 30
0.0099999997764826
 70
   192
  0
VERTEX
  5
64E
  8
0
  6
HCS_01
 62
     7
 10
10.59148979187012
 20
22.39829063415527
 30
0.0099999997764826
 70
   192
  0
VERTEX
  5
64F
  8
0
  6
HCS_01
 62
     7
 10
10.4294490814209
 20
22.4996452331543
 30
0.0099999997764826
 70
   192
  0
VERTEX
  5
650
  8
0
  6
HCS_01
 62
     7
 10
10.59148979187012
 20
22.39829063415527
 30
0.0099999997764826
 70
   192
  0
VERTEX
  5
651
  8
0
  6
HCS_01
 62
     7
 10
10.54468536376953
 20
22.76933670043945
 30
0.0099999997764826
 70
   192
  0
VERTEX
  5
652
  8
0
  6
HCS_01
 62
     7
 10
9.650882720947266
 20
22.37117576599121
 30
0.0099999997764826
 70
   192
  0
VERTEX
  5
653
  8
0
  6
HCS_01
 62
     7
 10
9.808403968811035
 20
22.1103630065918
 30
0.0099999997764826
 70
   192
  0
VERTEX
  5
654
  8
0
  6
HCS_01
 62
     7
 10
9.823575019836426
 20
22.30048561096191
 30
0.0099999997764826
 70
   192
  0
VERTEX
  5
655
  8
0
  6
HCS_01
 62
     7
 10
9.994330406188965
 20
22.09357833862305
 30
0.0099999997764826
 70
   192
  0
VERTEX
  5
656
  8
0
  6
HCS_01
 62
     7
 10
9.823575019836426
 20
22.30048561096191
 30
0.0099999997764826
 70
   192
  0
VERTEX
  5
657
  8
0
  6
HCS_01
 62
     7
 10
9.808403968811035
 20
22.1103630065918
 30
0.0099999997764826
 70
   192
  0
VERTEX
  5
658
  8
0
  6
HCS_01
 62
     7
 10
9.823575019836426
 20
22.30048561096191
 30
0.0099999997764826
 70
   192
  0
VERTEX
  5
659
  8
0
  6
HCS_01
 62
     7
 10
9.994330406188965
 20
22.09357833862305
 30
0.0099999997764826
 70
   192
  0
VERTEX
  5
65A
  8
0
  6
HCS_01
 62
     7
 10
10.00336837768555
 20
22.27692222595215
 30
0.0099999997764826
 70
   192
  0
VERTEX
  5
65B
  8
0
  6
HCS_01
 62
     7
 10
10.33729362487793
 20
22.16975593566895
 30
0.0099999997764826
 70
   192
  0
VERTEX
  5
65C
  8
0
  6
HCS_01
 62
     7
 10
10.00336837768555
 20
22.27692222595215
 30
0.0099999997764826
 70
   192
  0
VERTEX
  5
65D
  8
0
  6
HCS_01
 62
     7
 10
9.994330406188965
 20
22.09357833862305
 30
0.0099999997764826
 70
   192
  0
VERTEX
  5
65E
  8
0
  6
HCS_01
 62
     7
 10
10.00336837768555
 20
22.27692222595215
 30
0.0099999997764826
 70
   192
  0
VERTEX
  5
65F
  8
0
  6
HCS_01
 62
     7
 10
10.33729362487793
 20
22.16975593566895
 30
0.0099999997764826
 70
   192
  0
VERTEX
  5
660
  8
0
  6
HCS_01
 62
     7
 10
10.2461051940918
 20
22.33260345458984
 30
0.0099999997764826
 70
   192
  0
VERTEX
  5
661
  8
0
  6
HCS_01
 62
     7
 10
10.5688943862915
 20
23.45187377929688
 30
0.0099999997764826
 70
   192
  0
VERTEX
  5
662
  8
0
  6
HCS_01
 62
     7
 10
10.54097366333008
 20
23.30355262756348
 30
0.0099999997764826
 70
   192
  0
VERTEX
  5
663
  8
0
  6
HCS_01
 62
     7
 10
10.57793235778809
 20
23.13295745849609
 30
0.0099999997764826
 70
   192
  0
VERTEX
  5
664
  8
0
  6
HCS_01
 62
     7
 10
10.45720958709717
 20
23.17879486083984
 30
0.0099999997764826
 70
   192
  0
VERTEX
  5
665
  8
0
  6
HCS_01
 62
     7
 10
10.57793235778809
 20
23.13295745849609
 30
0.0099999997764826
 70
   192
  0
VERTEX
  5
666
  8
0
  6
HCS_01
 62
     7
 10
10.54097366333008
 20
23.30355262756348
 30
0.0099999997764826
 70
   192
  0
VERTEX
  5
667
  8
0
  6
HCS_01
 62
     7
 10
10.57793235778809
 20
23.13295745849609
 30
0.0099999997764826
 70
   192
  0
VERTEX
  5
668
  8
0
  6
HCS_01
 62
     7
 10
10.45720958709717
 20
23.17879486083984
 30
0.0099999997764826
 70
   192
  0
VERTEX
  5
669
  8
0
  6
HCS_01
 62
     7
 10
10.40104484558105
 20
22.93734741210938
 30
0.0099999997764826
 70
   192
  0
VERTEX
  5
66A
  8
0
  6
HCS_01
 62
     7
 10
10.33083724975586
 20
23.09406089782715
 30
0.0099999997764826
 70
   192
  0
VERTEX
  5
66B
  8
0
  6
HCS_01
 62
     7
 10
10.40104484558105
 20
22.93734741210938
 30
0.0099999997764826
 70
   192
  0
VERTEX
  5
66C
  8
0
  6
HCS_01
 62
     7
 10
10.45720958709717
 20
23.17879486083984
 30
0.0099999997764826
 70
   192
  0
VERTEX
  5
66D
  8
0
  6
HCS_01
 62
     7
 10
10.40104484558105
 20
22.93734741210938
 30
0.0099999997764826
 70
   192
  0
VERTEX
  5
66E
  8
0
  6
HCS_01
 62
     7
 10
10.33083724975586
 20
23.09406089782715
 30
0.0099999997764826
 70
   192
  0
VERTEX
  5
66F
  8
0
  6
HCS_01
 62
     7
 10
10.17509174346924
 20
23.06581687927246
 30
0.0099999997764826
 70
   192
  0
VERTEX
  5
670
  8
0
  6
HCS_01
 62
     7
 10
10.12861061096191
 20
22.87214469909668
 30
0.0099999997764826
 70
   192
  0
VERTEX
  5
671
  8
0
  6
HCS_01
 62
     7
 10
10.40104484558105
 20
22.93734741210938
 30
0.0099999997764826
 70
   192
  0
VERTEX
  5
672
  8
0
  6
HCS_01
 62
     7
 10
10.17509174346924
 20
23.06581687927246
 30
0.0099999997764826
 70
   192
  0
VERTEX
  5
673
  8
0
  6
HCS_01
 62
     7
 10
10.12861061096191
 20
22.87214469909668
 30
0.0099999997764826
 70
   192
  0
VERTEX
  5
674
  8
0
  6
HCS_01
 62
     7
 10
10.17509174346924
 20
23.06581687927246
 30
0.0099999997764826
 70
   192
  0
VERTEX
  5
675
  8
0
  6
HCS_01
 62
     7
 10
10.00336837768555
 20
23.0972900390625
 30
0.0099999997764826
 70
   192
  0
VERTEX
  5
676
  8
0
  6
HCS_01
 62
     7
 10
10.12861061096191
 20
22.87214469909668
 30
0.0099999997764826
 70
   192
  0
VERTEX
  5
677
  8
0
  6
HCS_01
 62
     7
 10
10.00336837768555
 20
23.0972900390625
 30
0.0099999997764826
 70
   192
  0
VERTEX
  5
678
  8
0
  6
HCS_01
 62
     7
 10
9.893942832946777
 20
22.91636657714844
 30
0.0099999997764826
 70
   192
  0
VERTEX
  5
679
  8
0
  6
HCS_01
 62
     7
 10
9.586163520812988
 20
23.75610160827637
 30
0.0099999997764826
 70
   192
  0
VERTEX
  5
67A
  8
0
  6
HCS_01
 62
     7
 10
9.542425155639648
 20
23.49448204040527
 30
0.0099999997764826
 70
   192
  0
VERTEX
  5
67B
  8
0
  6
HCS_01
 62
     7
 10
9.583419799804688
 20
23.24883842468262
 30
0.0099999997764826
 70
   192
  0
VERTEX
  5
67C
  8
0
  6
HCS_01
 62
     7
 10
9.586163520812988
 20
23.75610160827637
 30
0.0099999997764826
 70
   192
  0
VERTEX
  5
67D
  8
0
  6
HCS_01
 62
     7
 10
9.583419799804688
 20
23.24883842468262
 30
0.0099999997764826
 70
   192
  0
VERTEX
  5
67E
  8
0
  6
HCS_01
 62
     7
 10
9.706401824951172
 20
23.04903221130371
 30
0.0099999997764826
 70
   192
  0
VERTEX
  5
67F
  8
0
  6
HCS_01
 62
     7
 10
9.586163520812988
 20
23.75610160827637
 30
0.0099999997764826
 70
   192
  0
VERTEX
  5
680
  8
0
  6
HCS_01
 62
     7
 10
9.706401824951172
 20
23.04903221130371
 30
0.0099999997764826
 70
   192
  0
VERTEX
  5
681
  8
0
  6
HCS_01
 62
     7
 10
9.717376708984375
 20
23.97027206420898
 30
0.0099999997764826
 70
   192
  0
VERTEX
  5
682
  8
0
  6
HCS_01
 62
     7
 10
9.808403968811035
 20
22.1103630065918
 30
0.0099999997764826
 70
   192
  0
VERTEX
  5
683
  8
0
  6
HCS_01
 62
     7
 10
9.650882720947266
 20
22.37117576599121
 30
0.0099999997764826
 70
   192
  0
VERTEX
  5
684
  8
0
  6
HCS_01
 62
     7
 10
9.650882720947266
 20
22.16071701049805
 30
0.0099999997764826
 70
   192
  0
VERTEX
  5
685
  8
0
  6
HCS_01
 62
     7
 10
11.10827445983887
 20
22.1879940032959
 30
0.0099999997764826
 70
   192
  0
VERTEX
  5
686
  8
0
  6
HCS_01
 62
     7
 10
11.09697723388672
 20
22.24722480773926
 30
0.0099999997764826
 70
   192
  0
VERTEX
  5
687
  8
0
  6
HCS_01
 62
     7
 10
11.09697723388672
 20
22.24722480773926
 30
0.0099999997764826
 70
   192
  0
VERTEX
  5
688
  8
0
  6
HCS_01
 62
     7
 10
11.09697723388672
 20
22.24722480773926
 30
0.0099999997764826
 70
   192
  0
VERTEX
  5
689
  8
0
  6
HCS_01
 62
     7
 10
11.10827445983887
 20
22.1879940032959
 30
0.0099999997764826
 70
   192
  0
VERTEX
  5
68A
  8
0
  6
HCS_01
 62
     7
 10
11.14216709136963
 20
22.13941383361816
 30
0.0099999997764826
 70
   192
  0
VERTEX
  5
68B
  8
0
  6
HCS_01
 62
     7
 10
11.09697723388672
 20
22.24722480773926
 30
0.0099999997764826
 70
   192
  0
VERTEX
  5
68C
  8
0
  6
HCS_01
 62
     7
 10
11.14216709136963
 20
22.13941383361816
 30
0.0099999997764826
 70
   192
  0
VERTEX
  5
68D
  8
0
  6
HCS_01
 62
     7
 10
11.19090843200684
 20
22.10697364807129
 30
0.0099999997764826
 70
   192
  0
VERTEX
  5
68E
  8
0
  6
HCS_01
 62
     7
 10
11.09697723388672
 20
22.24722480773926
 30
0.0099999997764826
 70
   192
  0
VERTEX
  5
68F
  8
0
  6
HCS_01
 62
     7
 10
11.19090843200684
 20
22.10697364807129
 30
0.0099999997764826
 70
   192
  0
VERTEX
  5
690
  8
0
  6
HCS_01
 62
     7
 10
11.246750831604
 20
22.09616088867188
 30
0.0099999997764826
 70
   192
  0
VERTEX
  5
691
  8
0
  6
HCS_01
 62
     7
 10
11.09697723388672
 20
22.24722480773926
 30
0.0099999997764826
 70
   192
  0
VERTEX
  5
692
  8
0
  6
HCS_01
 62
     7
 10
11.246750831604
 20
22.09616088867188
 30
0.0099999997764826
 70
   192
  0
VERTEX
  5
693
  8
0
  6
HCS_01
 62
     7
 10
11.30340003967285
 20
22.10729598999023
 30
0.0099999997764826
 70
   192
  0
VERTEX
  5
694
  8
0
  6
HCS_01
 62
     7
 10
11.09697723388672
 20
22.24722480773926
 30
0.0099999997764826
 70
   192
  0
VERTEX
  5
695
  8
0
  6
HCS_01
 62
     7
 10
11.30340003967285
 20
22.10729598999023
 30
0.0099999997764826
 70
   192
  0
VERTEX
  5
696
  8
0
  6
HCS_01
 62
     7
 10
11.35198020935059
 20
22.14070510864258
 30
0.0099999997764826
 70
   192
  0
VERTEX
  5
697
  8
0
  6
HCS_01
 62
     7
 10
11.09697723388672
 20
22.24722480773926
 30
0.0099999997764826
 70
   192
  0
VERTEX
  5
698
  8
0
  6
HCS_01
 62
     7
 10
11.35198020935059
 20
22.14070510864258
 30
0.0099999997764826
 70
   192
  0
VERTEX
  5
699
  8
0
  6
HCS_01
 62
     7
 10
11.38538837432861
 20
22.18960762023926
 30
0.0099999997764826
 70
   192
  0
VERTEX
  5
69A
  8
0
  6
HCS_01
 62
     7
 10
11.09697723388672
 20
22.24722480773926
 30
0.0099999997764826
 70
   192
  0
VERTEX
  5
69B
  8
0
  6
HCS_01
 62
     7
 10
11.38538837432861
 20
22.18960762023926
 30
0.0099999997764826
 70
   192
  0
VERTEX
  5
69C
  8
0
  6
HCS_01
 62
     7
 10
11.39652442932129
 20
22.24722480773926
 30
0.0099999997764826
 70
   192
  0
VERTEX
  5
69D
  8
0
  6
HCS_01
 62
     7
 10
11.09697723388672
 20
22.24722480773926
 30
0.0099999997764826
 70
   192
  0
VERTEX
  5
69E
  8
0
  6
HCS_01
 62
     7
 10
11.39652442932129
 20
22.24722480773926
 30
0.0099999997764826
 70
   192
  0
VERTEX
  5
69F
  8
0
  6
HCS_01
 62
     7
 10
11.38554954528809
 20
22.30581092834473
 30
0.0099999997764826
 70
   192
  0
VERTEX
  5
6A0
  8
0
  6
HCS_01
 62
     7
 10
11.09697723388672
 20
22.24722480773926
 30
0.0099999997764826
 70
   192
  0
VERTEX
  5
6A1
  8
0
  6
HCS_01
 62
     7
 10
11.38554954528809
 20
22.30581092834473
 30
0.0099999997764826
 70
   192
  0
VERTEX
  5
6A2
  8
0
  6
HCS_01
 62
     7
 10
11.35262489318848
 20
22.35503578186035
 30
0.0099999997764826
 70
   192
  0
VERTEX
  5
6A3
  8
0
  6
HCS_01
 62
     7
 10
11.09697723388672
 20
22.24722480773926
 30
0.0099999997764826
 70
   192
  0
VERTEX
  5
6A4
  8
0
  6
HCS_01
 62
     7
 10
11.35262489318848
 20
22.35503578186035
 30
0.0099999997764826
 70
   192
  0
VERTEX
  5
6A5
  8
0
  6
HCS_01
 62
     7
 10
11.30420684814453
 20
22.3884449005127
 30
0.0099999997764826
 70
   192
  0
VERTEX
  5
6A6
  8
0
  6
HCS_01
 62
     7
 10
11.09697723388672
 20
22.24722480773926
 30
0.0099999997764826
 70
   192
  0
VERTEX
  5
6A7
  8
0
  6
HCS_01
 62
     7
 10
11.30420684814453
 20
22.3884449005127
 30
0.0099999997764826
 70
   192
  0
VERTEX
  5
6A8
  8
0
  6
HCS_01
 62
     7
 10
11.246750831604
 20
22.39958190917969
 30
0.0099999997764826
 70
   192
  0
VERTEX
  5
6A9
  8
0
  6
HCS_01
 62
     7
 10
11.09697723388672
 20
22.24722480773926
 30
0.0099999997764826
 70
   192
  0
VERTEX
  5
6AA
  8
0
  6
HCS_01
 62
     7
 10
11.246750831604
 20
22.39958190917969
 30
0.0099999997764826
 70
   192
  0
VERTEX
  5
6AB
  8
0
  6
HCS_01
 62
     7
 10
11.19090843200684
 20
22.3884449005127
 30
0.0099999997764826
 70
   192
  0
VERTEX
  5
6AC
  8
0
  6
HCS_01
 62
     7
 10
11.09697723388672
 20
22.24722480773926
 30
0.0099999997764826
 70
   192
  0
VERTEX
  5
6AD
  8
0
  6
HCS_01
 62
     7
 10
11.19090843200684
 20
22.3884449005127
 30
0.0099999997764826
 70
   192
  0
VERTEX
  5
6AE
  8
0
  6
HCS_01
 62
     7
 10
11.14216709136963
 20
22.35503578186035
 30
0.0099999997764826
 70
   192
  0
VERTEX
  5
6AF
  8
0
  6
HCS_01
 62
     7
 10
11.09697723388672
 20
22.24722480773926
 30
0.0099999997764826
 70
   192
  0
VERTEX
  5
6B0
  8
0
  6
HCS_01
 62
     7
 10
11.14216709136963
 20
22.35503578186035
 30
0.0099999997764826
 70
   192
  0
VERTEX
  5
6B1
  8
0
  6
HCS_01
 62
     7
 10
11.10827445983887
 20
22.30581092834473
 30
0.0099999997764826
 70
   192
  0
VERTEX
  5
6B2
  8
0
  6
HCS_01
 62
     7
 10
12.8106632232666
 20
23.90442276000977
 30
0.0099999997764826
 70
   192
  0
VERTEX
  5
6B3
  8
0
  6
HCS_01
 62
     7
 10
12.34294128417969
 20
24.16071701049805
 30
0.0099999997764826
 70
   192
  0
VERTEX
  5
6B4
  8
0
  6
HCS_01
 62
     7
 10
12.64216709136963
 20
23.75949096679688
 30
0.0099999997764826
 70
   192
  0
VERTEX
  5
6B5
  8
0
  6
HCS_01
 62
     7
 10
12.8106632232666
 20
23.90442276000977
 30
0.0099999997764826
 70
   192
  0
VERTEX
  5
6B6
  8
0
  6
HCS_01
 62
     7
 10
12.64216709136963
 20
23.75949096679688
 30
0.0099999997764826
 70
   192
  0
VERTEX
  5
6B7
  8
0
  6
HCS_01
 62
     7
 10
12.74578285217285
 20
23.10971641540527
 30
0.0099999997764826
 70
   192
  0
VERTEX
  5
6B8
  8
0
  6
HCS_01
 62
     7
 10
12.8106632232666
 20
23.90442276000977
 30
0.0099999997764826
 70
   192
  0
VERTEX
  5
6B9
  8
0
  6
HCS_01
 62
     7
 10
12.74578285217285
 20
23.10971641540527
 30
0.0099999997764826
 70
   192
  0
VERTEX
  5
6BA
  8
0
  6
HCS_01
 62
     7
 10
12.79549217224121
 20
22.36536598205566
 30
0.0099999997764826
 70
   192
  0
VERTEX
  5
6BB
  8
0
  6
HCS_01
 62
     7
 10
12.8106632232666
 20
23.90442276000977
 30
0.0099999997764826
 70
   192
  0
VERTEX
  5
6BC
  8
0
  6
HCS_01
 62
     7
 10
12.79549217224121
 20
22.36536598205566
 30
0.0099999997764826
 70
   192
  0
VERTEX
  5
6BD
  8
0
  6
HCS_01
 62
     7
 10
12.92380046844482
 20
22.69380378723145
 30
0.0099999997764826
 70
   192
  0
VERTEX
  5
6BE
  8
0
  6
HCS_01
 62
     7
 10
12.8106632232666
 20
23.90442276000977
 30
0.0099999997764826
 70
   192
  0
VERTEX
  5
6BF
  8
0
  6
HCS_01
 62
     7
 10
12.92380046844482
 20
22.69380378723145
 30
0.0099999997764826
 70
   192
  0
VERTEX
  5
6C0
  8
0
  6
HCS_01
 62
     7
 10
12.9665699005127
 20
23.13554000854492
 30
0.0099999997764826
 70
   192
  0
VERTEX
  5
6C1
  8
0
  6
HCS_01
 62
     7
 10
11.8923282623291
 20
23.09809684753418
 30
0.0099999997764826
 70
   192
  0
VERTEX
  5
6C2
  8
0
  6
HCS_01
 62
     7
 10
12.00207710266113
 20
23.7565860748291
 30
0.0099999997764826
 70
   192
  0
VERTEX
  5
6C3
  8
0
  6
HCS_01
 62
     7
 10
12.05582141876221
 20
24.09260940551758
 30
0.0099999997764826
 70
   192
  0
VERTEX
  5
6C4
  8
0
  6
HCS_01
 62
     7
 10
12.33132171630859
 20
23.97608184814453
 30
0.0099999997764826
 70
   192
  0
VERTEX
  5
6C5
  8
0
  6
HCS_01
 62
     7
 10
12.05582141876221
 20
24.09260940551758
 30
0.0099999997764826
 70
   192
  0
VERTEX
  5
6C6
  8
0
  6
HCS_01
 62
     7
 10
12.00207710266113
 20
23.7565860748291
 30
0.0099999997764826
 70
   192
  0
VERTEX
  5
6C7
  8
0
  6
HCS_01
 62
     7
 10
12.05582141876221
 20
24.09260940551758
 30
0.0099999997764826
 70
   192
  0
VERTEX
  5
6C8
  8
0
  6
HCS_01
 62
     7
 10
12.33132171630859
 20
23.97608184814453
 30
0.0099999997764826
 70
   192
  0
VERTEX
  5
6C9
  8
0
  6
HCS_01
 62
     7
 10
12.34294128417969
 20
24.16071701049805
 30
0.0099999997764826
 70
   192
  0
VERTEX
  5
6CA
  8
0
  6
HCS_01
 62
     7
 10
12.64216709136963
 20
23.75949096679688
 30
0.0099999997764826
 70
   192
  0
VERTEX
  5
6CB
  8
0
  6
HCS_01
 62
     7
 10
12.34294128417969
 20
24.16071701049805
 30
0.0099999997764826
 70
   192
  0
VERTEX
  5
6CC
  8
0
  6
HCS_01
 62
     7
 10
12.33132171630859
 20
23.97608184814453
 30
0.0099999997764826
 70
   192
  0
VERTEX
  5
6CD
  8
0
  6
HCS_01
 62
     7
 10
11.67283248901367
 20
23.08647537231445
 30
0.0099999997764826
 70
   192
  0
VERTEX
  5
6CE
  8
0
  6
HCS_01
 62
     7
 10
11.71285820007324
 20
22.66781997680664
 30
0.0099999997764826
 70
   192
  0
VERTEX
  5
6CF
  8
0
  6
HCS_01
 62
     7
 10
11.7159252166748
 20
23.55161476135254
 30
0.0099999997764826
 70
   192
  0
VERTEX
  5
6D0
  8
0
  6
HCS_01
 62
     7
 10
11.83293533325195
 20
22.35439109802246
 30
0.0099999997764826
 70
   192
  0
VERTEX
  5
6D1
  8
0
  6
HCS_01
 62
     7
 10
11.7159252166748
 20
23.55161476135254
 30
0.0099999997764826
 70
   192
  0
VERTEX
  5
6D2
  8
0
  6
HCS_01
 62
     7
 10
11.71285820007324
 20
22.66781997680664
 30
0.0099999997764826
 70
   192
  0
VERTEX
  5
6D3
  8
0
  6
HCS_01
 62
     7
 10
11.7159252166748
 20
23.55161476135254
 30
0.0099999997764826
 70
   192
  0
VERTEX
  5
6D4
  8
0
  6
HCS_01
 62
     7
 10
11.83293533325195
 20
22.35439109802246
 30
0.0099999997764826
 70
   192
  0
VERTEX
  5
6D5
  8
0
  6
HCS_01
 62
     7
 10
11.84520149230957
 20
23.88828468322754
 30
0.0099999997764826
 70
   192
  0
VERTEX
  5
6D6
  8
0
  6
HCS_01
 62
     7
 10
11.8923282623291
 20
23.09809684753418
 30
0.0099999997764826
 70
   192
  0
VERTEX
  5
6D7
  8
0
  6
HCS_01
 62
     7
 10
11.84520149230957
 20
23.88828468322754
 30
0.0099999997764826
 70
   192
  0
VERTEX
  5
6D8
  8
0
  6
HCS_01
 62
     7
 10
11.83293533325195
 20
22.35439109802246
 30
0.0099999997764826
 70
   192
  0
VERTEX
  5
6D9
  8
0
  6
HCS_01
 62
     7
 10
11.84520149230957
 20
23.88828468322754
 30
0.0099999997764826
 70
   192
  0
VERTEX
  5
6DA
  8
0
  6
HCS_01
 62
     7
 10
11.8923282623291
 20
23.09809684753418
 30
0.0099999997764826
 70
   192
  0
VERTEX
  5
6DB
  8
0
  6
HCS_01
 62
     7
 10
12.05582141876221
 20
24.09260940551758
 30
0.0099999997764826
 70
   192
  0
VERTEX
  5
6DC
  8
0
  6
HCS_01
 62
     7
 10
12.02919101715088
 20
22.15878105163574
 30
0.0099999997764826
 70
   192
  0
VERTEX
  5
6DD
  8
0
  6
HCS_01
 62
     7
 10
12.29775142669678
 20
22.09357833862305
 30
0.0099999997764826
 70
   192
  0
VERTEX
  5
6DE
  8
0
  6
HCS_01
 62
     7
 10
12.3209924697876
 20
22.27692222595215
 30
0.0099999997764826
 70
   192
  0
VERTEX
  5
6DF
  8
0
  6
HCS_01
 62
     7
 10
12.58551788330078
 20
22.16152381896973
 30
0.0099999997764826
 70
   192
  0
VERTEX
  5
6E0
  8
0
  6
HCS_01
 62
     7
 10
12.3209924697876
 20
22.27692222595215
 30
0.0099999997764826
 70
   192
  0
VERTEX
  5
6E1
  8
0
  6
HCS_01
 62
     7
 10
12.29775142669678
 20
22.09357833862305
 30
0.0099999997764826
 70
   192
  0
VERTEX
  5
6E2
  8
0
  6
HCS_01
 62
     7
 10
12.3209924697876
 20
22.27692222595215
 30
0.0099999997764826
 70
   192
  0
VERTEX
  5
6E3
  8
0
  6
HCS_01
 62
     7
 10
12.58551788330078
 20
22.16152381896973
 30
0.0099999997764826
 70
   192
  0
VERTEX
  5
6E4
  8
0
  6
HCS_01
 62
     7
 10
12.63958549499512
 20
22.48512077331543
 30
0.0099999997764826
 70
   192
  0
VERTEX
  5
6E5
  8
0
  6
HCS_01
 62
     7
 10
12.79549217224121
 20
22.36536598205566
 30
0.0099999997764826
 70
   192
  0
VERTEX
  5
6E6
  8
0
  6
HCS_01
 62
     7
 10
12.63958549499512
 20
22.48512077331543
 30
0.0099999997764826
 70
   192
  0
VERTEX
  5
6E7
  8
0
  6
HCS_01
 62
     7
 10
12.58551788330078
 20
22.16152381896973
 30
0.0099999997764826
 70
   192
  0
VERTEX
  5
6E8
  8
0
  6
HCS_01
 62
     7
 10
12.63958549499512
 20
22.48512077331543
 30
0.0099999997764826
 70
   192
  0
VERTEX
  5
6E9
  8
0
  6
HCS_01
 62
     7
 10
12.79549217224121
 20
22.36536598205566
 30
0.0099999997764826
 70
   192
  0
VERTEX
  5
6EA
  8
0
  6
HCS_01
 62
     7
 10
12.74578285217285
 20
23.10971641540527
 30
0.0099999997764826
 70
   192
  0
VERTEX
  5
6EB
  8
0
  6
HCS_01
 62
     7
 10
12.02919101715088
 20
22.15878105163574
 30
0.0099999997764826
 70
   192
  0
VERTEX
  5
6EC
  8
0
  6
HCS_01
 62
     7
 10
12.3209924697876
 20
22.27692222595215
 30
0.0099999997764826
 70
   192
  0
VERTEX
  5
6ED
  8
0
  6
HCS_01
 62
     7
 10
11.9994945526123
 20
22.48221588134766
 30
0.0099999997764826
 70
   192
  0
VERTEX
  5
6EE
  8
0
  6
HCS_01
 62
     7
 10
12.02919101715088
 20
22.15878105163574
 30
0.0099999997764826
 70
   192
  0
VERTEX
  5
6EF
  8
0
  6
HCS_01
 62
     7
 10
11.9994945526123
 20
22.48221588134766
 30
0.0099999997764826
 70
   192
  0
VERTEX
  5
6F0
  8
0
  6
HCS_01
 62
     7
 10
11.8923282623291
 20
23.09809684753418
 30
0.0099999997764826
 70
   192
  0
VERTEX
  5
6F1
  8
0
  6
HCS_01
 62
     7
 10
12.02919101715088
 20
22.15878105163574
 30
0.0099999997764826
 70
   192
  0
VERTEX
  5
6F2
  8
0
  6
HCS_01
 62
     7
 10
11.8923282623291
 20
23.09809684753418
 30
0.0099999997764826
 70
   192
  0
VERTEX
  5
6F3
  8
0
  6
HCS_01
 62
     7
 10
11.83293533325195
 20
22.35439109802246
 30
0.0099999997764826
 70
   192
  0
VERTEX
  5
6F4
  8
0
  6
HCS_01
 62
     7
 10
14.34326553344727
 20
23.90442276000977
 30
0.0099999997764826
 70
   192
  0
VERTEX
  5
6F5
  8
0
  6
HCS_01
 62
     7
 10
13.87554359436035
 20
24.16071701049805
 30
0.0099999997764826
 70
   192
  0
VERTEX
  5
6F6
  8
0
  6
HCS_01
 62
     7
 10
14.17476844787598
 20
23.75949096679688
 30
0.0099999997764826
 70
   192
  0
VERTEX
  5
6F7
  8
0
  6
HCS_01
 62
     7
 10
14.34326553344727
 20
23.90442276000977
 30
0.0099999997764826
 70
   192
  0
VERTEX
  5
6F8
  8
0
  6
HCS_01
 62
     7
 10
14.17476844787598
 20
23.75949096679688
 30
0.0099999997764826
 70
   192
  0
VERTEX
  5
6F9
  8
0
  6
HCS_01
 62
     7
 10
14.27838516235352
 20
23.10971641540527
 30
0.0099999997764826
 70
   192
  0
VERTEX
  5
6FA
  8
0
  6
HCS_01
 62
     7
 10
14.34326553344727
 20
23.90442276000977
 30
0.0099999997764826
 70
   192
  0
VERTEX
  5
6FB
  8
0
  6
HCS_01
 62
     7
 10
14.27838516235352
 20
23.10971641540527
 30
0.0099999997764826
 70
   192
  0
VERTEX
  5
6FC
  8
0
  6
HCS_01
 62
     7
 10
14.32809448242188
 20
22.36536598205566
 30
0.0099999997764826
 70
   192
  0
VERTEX
  5
6FD
  8
0
  6
HCS_01
 62
     7
 10
14.34326553344727
 20
23.90442276000977
 30
0.0099999997764826
 70
   192
  0
VERTEX
  5
6FE
  8
0
  6
HCS_01
 62
     7
 10
14.32809448242188
 20
22.36536598205566
 30
0.0099999997764826
 70
   192
  0
VERTEX
  5
6FF
  8
0
  6
HCS_01
 62
     7
 10
14.45640182495117
 20
22.69380378723145
 30
0.0099999997764826
 70
   192
  0
VERTEX
  5
700
  8
0
  6
HCS_01
 62
     7
 10
14.34326553344727
 20
23.90442276000977
 30
0.0099999997764826
 70
   192
  0
VERTEX
  5
701
  8
0
  6
HCS_01
 62
     7
 10
14.45640182495117
 20
22.69380378723145
 30
0.0099999997764826
 70
   192
  0
VERTEX
  5
702
  8
0
  6
HCS_01
 62
     7
 10
14.49917221069336
 20
23.13554000854492
 30
0.0099999997764826
 70
   192
  0
VERTEX
  5
703
  8
0
  6
HCS_01
 62
     7
 10
13.42493057250977
 20
23.09809684753418
 30
0.0099999997764826
 70
   192
  0
VERTEX
  5
704
  8
0
  6
HCS_01
 62
     7
 10
13.5346794128418
 20
23.7565860748291
 30
0.0099999997764826
 70
   192
  0
VERTEX
  5
705
  8
0
  6
HCS_01
 62
     7
 10
13.58842277526855
 20
24.09260940551758
 30
0.0099999997764826
 70
   192
  0
VERTEX
  5
706
  8
0
  6
HCS_01
 62
     7
 10
13.86392402648926
 20
23.97608184814453
 30
0.0099999997764826
 70
   192
  0
VERTEX
  5
707
  8
0
  6
HCS_01
 62
     7
 10
13.58842277526855
 20
24.09260940551758
 30
0.0099999997764826
 70
   192
  0
VERTEX
  5
708
  8
0
  6
HCS_01
 62
     7
 10
13.5346794128418
 20
23.7565860748291
 30
0.0099999997764826
 70
   192
  0
VERTEX
  5
709
  8
0
  6
HCS_01
 62
     7
 10
13.58842277526855
 20
24.09260940551758
 30
0.0099999997764826
 70
   192
  0
VERTEX
  5
70A
  8
0
  6
HCS_01
 62
     7
 10
13.86392402648926
 20
23.97608184814453
 30
0.0099999997764826
 70
   192
  0
VERTEX
  5
70B
  8
0
  6
HCS_01
 62
     7
 10
13.87554359436035
 20
24.16071701049805
 30
0.0099999997764826
 70
   192
  0
VERTEX
  5
70C
  8
0
  6
HCS_01
 62
     7
 10
14.17476844787598
 20
23.75949096679688
 30
0.0099999997764826
 70
   192
  0
VERTEX
  5
70D
  8
0
  6
HCS_01
 62
     7
 10
13.87554359436035
 20
24.16071701049805
 30
0.0099999997764826
 70
   192
  0
VERTEX
  5
70E
  8
0
  6
HCS_01
 62
     7
 10
13.86392402648926
 20
23.97608184814453
 30
0.0099999997764826
 70
   192
  0
VERTEX
  5
70F
  8
0
  6
HCS_01
 62
     7
 10
13.20543384552002
 20
23.08647537231445
 30
0.0099999997764826
 70
   192
  0
VERTEX
  5
710
  8
0
  6
HCS_01
 62
     7
 10
13.24546051025391
 20
22.66781997680664
 30
0.0099999997764826
 70
   192
  0
VERTEX
  5
711
  8
0
  6
HCS_01
 62
     7
 10
13.24852657318115
 20
23.55161476135254
 30
0.0099999997764826
 70
   192
  0
VERTEX
  5
712
  8
0
  6
HCS_01
 62
     7
 10
13.36553764343262
 20
22.35439109802246
 30
0.0099999997764826
 70
   192
  0
VERTEX
  5
713
  8
0
  6
HCS_01
 62
     7
 10
13.24852657318115
 20
23.55161476135254
 30
0.0099999997764826
 70
   192
  0
VERTEX
  5
714
  8
0
  6
HCS_01
 62
     7
 10
13.24546051025391
 20
22.66781997680664
 30
0.0099999997764826
 70
   192
  0
VERTEX
  5
715
  8
0
  6
HCS_01
 62
     7
 10
13.24852657318115
 20
23.55161476135254
 30
0.0099999997764826
 70
   192
  0
VERTEX
  5
716
  8
0
  6
HCS_01
 62
     7
 10
13.36553764343262
 20
22.35439109802246
 30
0.0099999997764826
 70
   192
  0
VERTEX
  5
717
  8
0
  6
HCS_01
 62
     7
 10
13.37780380249023
 20
23.88828468322754
 30
0.0099999997764826
 70
   192
  0
VERTEX
  5
718
  8
0
  6
HCS_01
 62
     7
 10
13.42493057250977
 20
23.09809684753418
 30
0.0099999997764826
 70
   192
  0
VERTEX
  5
719
  8
0
  6
HCS_01
 62
     7
 10
13.37780380249023
 20
23.88828468322754
 30
0.0099999997764826
 70
   192
  0
VERTEX
  5
71A
  8
0
  6
HCS_01
 62
     7
 10
13.36553764343262
 20
22.35439109802246
 30
0.0099999997764826
 70
   192
  0
VERTEX
  5
71B
  8
0
  6
HCS_01
 62
     7
 10
13.37780380249023
 20
23.88828468322754
 30
0.0099999997764826
 70
   192
  0
VERTEX
  5
71C
  8
0
  6
HCS_01
 62
     7
 10
13.42493057250977
 20
23.09809684753418
 30
0.0099999997764826
 70
   192
  0
VERTEX
  5
71D
  8
0
  6
HCS_01
 62
     7
 10
13.58842277526855
 20
24.09260940551758
 30
0.0099999997764826
 70
   192
  0
VERTEX
  5
71E
  8
0
  6
HCS_01
 62
     7
 10
13.56179237365723
 20
22.15878105163574
 30
0.0099999997764826
 70
   192
  0
VERTEX
  5
71F
  8
0
  6
HCS_01
 62
     7
 10
13.83035278320312
 20
22.09357833862305
 30
0.0099999997764826
 70
   192
  0
VERTEX
  5
720
  8
0
  6
HCS_01
 62
     7
 10
13.85359382629395
 20
22.27692222595215
 30
0.0099999997764826
 70
   192
  0
VERTEX
  5
721
  8
0
  6
HCS_01
 62
     7
 10
14.11812019348145
 20
22.16152381896973
 30
0.0099999997764826
 70
   192
  0
VERTEX
  5
722
  8
0
  6
HCS_01
 62
     7
 10
13.85359382629395
 20
22.27692222595215
 30
0.0099999997764826
 70
   192
  0
VERTEX
  5
723
  8
0
  6
HCS_01
 62
     7
 10
13.83035278320312
 20
22.09357833862305
 30
0.0099999997764826
 70
   192
  0
VERTEX
  5
724
  8
0
  6
HCS_01
 62
     7
 10
13.85359382629395
 20
22.27692222595215
 30
0.0099999997764826
 70
   192
  0
VERTEX
  5
725
  8
0
  6
HCS_01
 62
     7
 10
14.11812019348145
 20
22.16152381896973
 30
0.0099999997764826
 70
   192
  0
VERTEX
  5
726
  8
0
  6
HCS_01
 62
     7
 10
14.17218589782715
 20
22.48512077331543
 30
0.0099999997764826
 70
   192
  0
VERTEX
  5
727
  8
0
  6
HCS_01
 62
     7
 10
14.32809448242188
 20
22.36536598205566
 30
0.0099999997764826
 70
   192
  0
VERTEX
  5
728
  8
0
  6
HCS_01
 62
     7
 10
14.17218589782715
 20
22.48512077331543
 30
0.0099999997764826
 70
   192
  0
VERTEX
  5
729
  8
0
  6
HCS_01
 62
     7
 10
14.11812019348145
 20
22.16152381896973
 30
0.0099999997764826
 70
   192
  0
VERTEX
  5
72A
  8
0
  6
HCS_01
 62
     7
 10
14.17218589782715
 20
22.48512077331543
 30
0.0099999997764826
 70
   192
  0
VERTEX
  5
72B
  8
0
  6
HCS_01
 62
     7
 10
14.32809448242188
 20
22.36536598205566
 30
0.0099999997764826
 70
   192
  0
VERTEX
  5
72C
  8
0
  6
HCS_01
 62
     7
 10
14.27838516235352
 20
23.10971641540527
 30
0.0099999997764826
 70
   192
  0
VERTEX
  5
72D
  8
0
  6
HCS_01
 62
     7
 10
13.56179237365723
 20
22.15878105163574
 30
0.0099999997764826
 70
   192
  0
VERTEX
  5
72E
  8
0
  6
HCS_01
 62
     7
 10
13.85359382629395
 20
22.27692222595215
 30
0.0099999997764826
 70
   192
  0
VERTEX
  5
72F
  8
0
  6
HCS_01
 62
     7
 10
13.53209686279297
 20
22.48221588134766
 30
0.0099999997764826
 70
   192
  0
VERTEX
  5
730
  8
0
  6
HCS_01
 62
     7
 10
13.56179237365723
 20
22.15878105163574
 30
0.0099999997764826
 70
   192
  0
VERTEX
  5
731
  8
0
  6
HCS_01
 62
     7
 10
13.53209686279297
 20
22.48221588134766
 30
0.0099999997764826
 70
   192
  0
VERTEX
  5
732
  8
0
  6
HCS_01
 62
     7
 10
13.42493057250977
 20
23.09809684753418
 30
0.0099999997764826
 70
   192
  0
VERTEX
  5
733
  8
0
  6
HCS_01
 62
     7
 10
13.56179237365723
 20
22.15878105163574
 30
0.0099999997764826
 70
   192
  0
VERTEX
  5
734
  8
0
  6
HCS_01
 62
     7
 10
13.42493057250977
 20
23.09809684753418
 30
0.0099999997764826
 70
   192
  0
VERTEX
  5
735
  8
0
  6
HCS_01
 62
     7
 10
13.36553764343262
 20
22.35439109802246
 30
0.0099999997764826
 70
   192
  0
VERTEX
  5
736
  8
0
  6
HCS_01
 62
     7
 10
9.877900123596191
 20
14.0
 30
0.0099999997764826
 70
   192
  0
VERTEX
  5
737
  8
0
  6
HCS_01
 62
     7
 10
11.87790012359619
 20
14.0
 30
0.0099999997764826
 70
   192
  0
VERTEX
  5
738
  8
0
  6
HCS_01
 62
     7
 10
10.87790012359619
 20
9.0
 30
0.0099999997764826
 70
   192
  0
VERTEX
  5
739
  8
0
  6
HCS_01
 62
     7
 10
11.87790012359619
 20
-5.0
 30
0.0099999997764826
 70
   192
  0
VERTEX
  5
73A
  8
0
  6
HCS_01
 62
     7
 10
9.877900123596191
 20
-5.0
 30
0.0099999997764826
 70
   192
  0
VERTEX
  5
73B
  8
0
  6
HCS_01
 62
     7
 10
10.87790012359619
 20
0.0
 30
0.0099999997764826
 70
   192
  0
VERTEX
  5
73C
  8
0
  6
HCS_01
 62
     7
 10
0.0
 20
0.0
 30
0.0
 70
   128
 71
     1
 72
     2
 73
     3
  0
VERTEX
  5
73D
  8
0
  6
HCS_01
 62
     7
 10
0.0
 20
0.0
 30
0.0
 70
   128
 71
     4
 72
     5
 73
     6
  0
VERTEX
  5
73E
  8
0
  6
HCS_01
 62
     7
 10
0.0
 20
0.0
 30
0.0
 70
   128
 71
     7
 72
     8
 73
     9
  0
VERTEX
  5
73F
  8
0
  6
HCS_01
 62
     7
 10
0.0
 20
0.0
 30
0.0
 70
   128
 71
    10
 72
    11
 73
    12
  0
VERTEX
  5
740
  8
0
  6
HCS_01
 62
     7
 10
0.0
 20
0.0
 30
0.0
 70
   128
 71
    13
 72
    14
 73
    15
  0
VERTEX
  5
741
  8
0
  6
HCS_01
 62
     7
 10
0.0
 20
0.0
 30
0.0
 70
   128
 71
    16
 72
    17
 73
    18
  0
VERTEX
  5
742
  8
0
  6
HCS_01
 62
     7
 10
0.0
 20
0.0
 30
0.0
 70
   128
 71
    19
 72
    20
 73
    21
  0
VERTEX
  5
743
  8
0
  6
HCS_01
 62
     7
 10
0.0
 20
0.0
 30
0.0
 70
   128
 71
    22
 72
    23
 73
    24
  0
VERTEX
  5
744
  8
0
  6
HCS_01
 62
     7
 10
0.0
 20
0.0
 30
0.0
 70
   128
 71
    25
 72
    26
 73
    27
  0
VERTEX
  5
745
  8
0
  6
HCS_01
 62
     7
 10
0.0
 20
0.0
 30
0.0
 70
   128
 71
    28
 72
    29
 73
    30
  0
VERTEX
  5
746
  8
0
  6
HCS_01
 62
     7
 10
0.0
 20
0.0
 30
0.0
 70
   128
 71
    31
 72
    32
 73
    33
  0
VERTEX
  5
747
  8
0
  6
HCS_01
 62
     7
 10
0.0
 20
0.0
 30
0.0
 70
   128
 71
    34
 72
    35
 73
    36
  0
VERTEX
  5
748
  8
0
  6
HCS_01
 62
     7
 10
0.0
 20
0.0
 30
0.0
 70
   128
 71
    37
 72
    38
 73
    39
  0
VERTEX
  5
749
  8
0
  6
HCS_01
 62
     7
 10
0.0
 20
0.0
 30
0.0
 70
   128
 71
    40
 72
    41
 73
    42
  0
VERTEX
  5
74A
  8
0
  6
HCS_01
 62
     7
 10
0.0
 20
0.0
 30
0.0
 70
   128
 71
    43
 72
    44
 73
    45
  0
VERTEX
  5
74B
  8
0
  6
HCS_01
 62
     7
 10
0.0
 20
0.0
 30
0.0
 70
   128
 71
    46
 72
    47
 73
    48
  0
VERTEX
  5
74C
  8
0
  6
HCS_01
 62
     7
 10
0.0
 20
0.0
 30
0.0
 70
   128
 71
    49
 72
    50
 73
    51
  0
VERTEX
  5
74D
  8
0
  6
HCS_01
 62
     7
 10
0.0
 20
0.0
 30
0.0
 70
   128
 71
    52
 72
    53
 73
    54
  0
VERTEX
  5
74E
  8
0
  6
HCS_01
 62
     7
 10
0.0
 20
0.0
 30
0.0
 70
   128
 71
    55
 72
    56
 73
    57
  0
VERTEX
  5
74F
  8
0
  6
HCS_01
 62
     7
 10
0.0
 20
0.0
 30
0.0
 70
   128
 71
    58
 72
    59
 73
    60
  0
VERTEX
  5
750
  8
0
  6
HCS_01
 62
     7
 10
0.0
 20
0.0
 30
0.0
 70
   128
 71
    61
 72
    62
 73
    63
  0
VERTEX
  5
751
  8
0
  6
HCS_01
 62
     7
 10
0.0
 20
0.0
 30
0.0
 70
   128
 71
    64
 72
    65
 73
    66
  0
VERTEX
  5
752
  8
0
  6
HCS_01
 62
     7
 10
0.0
 20
0.0
 30
0.0
 70
   128
 71
    67
 72
    68
 73
    69
  0
VERTEX
  5
753
  8
0
  6
HCS_01
 62
     7
 10
0.0
 20
0.0
 30
0.0
 70
   128
 71
    70
 72
    71
 73
    72
  0
VERTEX
  5
754
  8
0
  6
HCS_01
 62
     7
 10
0.0
 20
0.0
 30
0.0
 70
   128
 71
    73
 72
    74
 73
    75
  0
VERTEX
  5
755
  8
0
  6
HCS_01
 62
     7
 10
0.0
 20
0.0
 30
0.0
 70
   128
 71
    76
 72
    77
 73
    78
  0
VERTEX
  5
756
  8
0
  6
HCS_01
 62
     7
 10
0.0
 20
0.0
 30
0.0
 70
   128
 71
    79
 72
    80
 73
    81
  0
VERTEX
  5
757
  8
0
  6
HCS_01
 62
     7
 10
0.0
 20
0.0
 30
0.0
 70
   128
 71
    82
 72
    83
 73
    84
  0
VERTEX
  5
758
  8
0
  6
HCS_01
 62
     7
 10
0.0
 20
0.0
 30
0.0
 70
   128
 71
    85
 72
    86
 73
    87
  0
VERTEX
  5
759
  8
0
  6
HCS_01
 62
     7
 10
0.0
 20
0.0
 30
0.0
 70
   128
 71
    88
 72
    89
 73
    90
  0
VERTEX
  5
75A
  8
0
  6
HCS_01
 62
     7
 10
0.0
 20
0.0
 30
0.0
 70
   128
 71
    91
 72
    92
 73
    93
  0
VERTEX
  5
75B
  8
0
  6
HCS_01
 62
     7
 10
0.0
 20
0.0
 30
0.0
 70
   128
 71
    94
 72
    95
 73
    96
  0
VERTEX
  5
75C
  8
0
  6
HCS_01
 62
     7
 10
0.0
 20
0.0
 30
0.0
 70
   128
 71
    97
 72
    98
 73
    99
  0
VERTEX
  5
75D
  8
0
  6
HCS_01
 62
     7
 10
0.0
 20
0.0
 30
0.0
 70
   128
 71
   100
 72
   101
 73
   102
  0
VERTEX
  5
75E
  8
0
  6
HCS_01
 62
     7
 10
0.0
 20
0.0
 30
0.0
 70
   128
 71
   103
 72
   104
 73
   105
  0
VERTEX
  5
75F
  8
0
  6
HCS_01
 62
     7
 10
0.0
 20
0.0
 30
0.0
 70
   128
 71
   106
 72
   107
 73
   108
  0
VERTEX
  5
760
  8
0
  6
HCS_01
 62
     7
 10
0.0
 20
0.0
 30
0.0
 70
   128
 71
   109
 72
   110
 73
   111
  0
VERTEX
  5
761
  8
0
  6
HCS_01
 62
     7
 10
0.0
 20
0.0
 30
0.0
 70
   128
 71
   112
 72
   113
 73
   114
  0
VERTEX
  5
762
  8
0
  6
HCS_01
 62
     7
 10
0.0
 20
0.0
 30
0.0
 70
   128
 71
   115
 72
   116
 73
   117
  0
VERTEX
  5
763
  8
0
  6
HCS_01
 62
     7
 10
0.0
 20
0.0
 30
0.0
 70
   128
 71
   118
 72
   119
 73
   120
  0
VERTEX
  5
764
  8
0
  6
HCS_01
 62
     7
 10
0.0
 20
0.0
 30
0.0
 70
   128
 71
   121
 72
   122
 73
   123
  0
VERTEX
  5
765
  8
0
  6
HCS_01
 62
     7
 10
0.0
 20
0.0
 30
0.0
 70
   128
 71
   124
 72
   125
 73
   126
  0
VERTEX
  5
766
  8
0
  6
HCS_01
 62
     7
 10
0.0
 20
0.0
 30
0.0
 70
   128
 71
   127
 72
   128
 73
   129
  0
VERTEX
  5
767
  8
0
  6
HCS_01
 62
     7
 10
0.0
 20
0.0
 30
0.0
 70
   128
 71
   130
 72
   131
 73
   132
  0
VERTEX
  5
768
  8
0
  6
HCS_01
 62
     7
 10
0.0
 20
0.0
 30
0.0
 70
   128
 71
   133
 72
   134
 73
   135
  0
VERTEX
  5
769
  8
0
  6
HCS_01
 62
     7
 10
0.0
 20
0.0
 30
0.0
 70
   128
 71
   136
 72
   137
 73
   138
  0
VERTEX
  5
76A
  8
0
  6
HCS_01
 62
     7
 10
0.0
 20
0.0
 30
0.0
 70
   128
 71
   139
 72
   140
 73
   141
  0
VERTEX
  5
76B
  8
0
  6
HCS_01
 62
     7
 10
0.0
 20
0.0
 30
0.0
 70
   128
 71
   142
 72
   143
 73
   144
  0
VERTEX
  5
76C
  8
0
  6
HCS_01
 62
     7
 10
0.0
 20
0.0
 30
0.0
 70
   128
 71
   145
 72
   146
 73
   147
  0
VERTEX
  5
76D
  8
0
  6
HCS_01
 62
     7
 10
0.0
 20
0.0
 30
0.0
 70
   128
 71
   148
 72
   149
 73
   150
  0
VERTEX
  5
76E
  8
0
  6
HCS_01
 62
     7
 10
0.0
 20
0.0
 30
0.0
 70
   128
 71
   151
 72
   152
 73
   153
  0
VERTEX
  5
76F
  8
0
  6
HCS_01
 62
     7
 10
0.0
 20
0.0
 30
0.0
 70
   128
 71
   154
 72
   155
 73
   156
  0
VERTEX
  5
770
  8
0
  6
HCS_01
 62
     7
 10
0.0
 20
0.0
 30
0.0
 70
   128
 71
   157
 72
   158
 73
   159
  0
VERTEX
  5
771
  8
0
  6
HCS_01
 62
     7
 10
0.0
 20
0.0
 30
0.0
 70
   128
 71
   160
 72
   161
 73
   162
  0
VERTEX
  5
772
  8
0
  6
HCS_01
 62
     7
 10
0.0
 20
0.0
 30
0.0
 70
   128
 71
   163
 72
   164
 73
   165
  0
VERTEX
  5
773
  8
0
  6
HCS_01
 62
     7
 10
0.0
 20
0.0
 30
0.0
 70
   128
 71
   166
 72
   167
 73
   168
  0
VERTEX
  5
774
  8
0
  6
HCS_01
 62
     7
 10
0.0
 20
0.0
 30
0.0
 70
   128
 71
   169
 72
   170
 73
   171
  0
VERTEX
  5
775
  8
0
  6
HCS_01
 62
     7
 10
0.0
 20
0.0
 30
0.0
 70
   128
 71
   172
 72
   173
 73
   174
  0
VERTEX
  5
776
  8
0
  6
HCS_01
 62
     7
 10
0.0
 20
0.0
 30
0.0
 70
   128
 71
   175
 72
   176
 73
   177
  0
VERTEX
  5
777
  8
0
  6
HCS_01
 62
     7
 10
0.0
 20
0.0
 30
0.0
 70
   128
 71
   178
 72
   179
 73
   180
  0
VERTEX
  5
778
  8
0
  6
HCS_01
 62
     7
 10
0.0
 20
0.0
 30
0.0
 70
   128
 71
   181
 72
   182
 73
   183
  0
VERTEX
  5
779
  8
0
  6
HCS_01
 62
     7
 10
0.0
 20
0.0
 30
0.0
 70
   128
 71
   184
 72
   185
 73
   186
  0
VERTEX
  5
77A
  8
0
  6
HCS_01
 62
     7
 10
0.0
 20
0.0
 30
0.0
 70
   128
 71
   187
 72
   188
 73
   189
  0
VERTEX
  5
77B
  8
0
  6
HCS_01
 62
     7
 10
0.0
 20
0.0
 30
0.0
 70
   128
 71
   190
 72
   191
 73
   192
  0
VERTEX
  5
77C
  8
0
  6
HCS_01
 62
     7
 10
0.0
 20
0.0
 30
0.0
 70
   128
 71
   193
 72
   194
 73
   195
  0
VERTEX
  5
77D
  8
0
  6
HCS_01
 62
     7
 10
0.0
 20
0.0
 30
0.0
 70
   128
 71
   196
 72
   197
 73
   198
  0
VERTEX
  5
77E
  8
0
  6
HCS_01
 62
     7
 10
0.0
 20
0.0
 30
0.0
 70
   128
 71
   199
 72
   200
 73
   201
  0
VERTEX
  5
77F
  8
0
  6
HCS_01
 62
     7
 10
0.0
 20
0.0
 30
0.0
 70
   128
 71
   202
 72
   203
 73
   204
  0
VERTEX
  5
780
  8
0
  6
HCS_01
 62
     7
 10
0.0
 20
0.0
 30
0.0
 70
   128
 71
   205
 72
   206
 73
   207
  0
VERTEX
  5
781
  8
0
  6
HCS_01
 62
     7
 10
0.0
 20
0.0
 30
0.0
 70
   128
 71
   208
 72
   209
 73
   210
  0
VERTEX
  5
782
  8
0
  6
HCS_01
 62
     7
 10
0.0
 20
0.0
 30
0.0
 70
   128
 71
   211
 72
   212
 73
   213
  0
VERTEX
  5
783
  8
0
  6
HCS_01
 62
     7
 10
0.0
 20
0.0
 30
0.0
 70
   128
 71
   214
 72
   215
 73
   216
  0
VERTEX
  5
784
  8
0
  6
HCS_01
 62
     7
 10
0.0
 20
0.0
 30
0.0
 70
   128
 71
   217
 72
   218
 73
   219
  0
VERTEX
  5
785
  8
0
  6
HCS_01
 62
     7
 10
0.0
 20
0.0
 30
0.0
 70
   128
 71
   220
 72
   221
 73
   222
  0
VERTEX
  5
786
  8
0
  6
HCS_01
 62
     7
 10
0.0
 20
0.0
 30
0.0
 70
   128
 71
   223
 72
   224
 73
   225
  0
VERTEX
  5
787
  8
0
  6
HCS_01
 62
     7
 10
0.0
 20
0.0
 30
0.0
 70
   128
 71
   226
 72
   227
 73
   228
  0
VERTEX
  5
788
  8
0
  6
HCS_01
 62
     7
 10
0.0
 20
0.0
 30
0.0
 70
   128
 71
   229
 72
   230
 73
   231
  0
VERTEX
  5
789
  8
0
  6
HCS_01
 62
     7
 10
0.0
 20
0.0
 30
0.0
 70
   128
 71
   232
 72
   233
 73
   234
  0
VERTEX
  5
78A
  8
0
  6
HCS_01
 62
     7
 10
0.0
 20
0.0
 30
0.0
 70
   128
 71
   235
 72
   236
 73
   237
  0
VERTEX
  5
78B
  8
0
  6
HCS_01
 62
     7
 10
0.0
 20
0.0
 30
0.0
 70
   128
 71
   238
 72
   239
 73
   240
  0
VERTEX
  5
78C
  8
0
  6
HCS_01
 62
     7
 10
0.0
 20
0.0
 30
0.0
 70
   128
 71
   241
 72
   242
 73
   243
  0
VERTEX
  5
78D
  8
0
  6
HCS_01
 62
     7
 10
0.0
 20
0.0
 30
0.0
 70
   128
 71
   244
 72
   245
 73
   246
  0
VERTEX
  5
78E
  8
0
  6
HCS_01
 62
     7
 10
0.0
 20
0.0
 30
0.0
 70
   128
 71
   247
 72
   248
 73
   249
  0
VERTEX
  5
78F
  8
0
  6
HCS_01
 62
     7
 10
0.0
 20
0.0
 30
0.0
 70
   128
 71
   250
 72
   251
 73
   252
  0
VERTEX
  5
790
  8
0
  6
HCS_01
 62
     7
 10
0.0
 20
0.0
 30
0.0
 70
   128
 71
   253
 72
   254
 73
   255
  0
VERTEX
  5
791
  8
0
  6
HCS_01
 62
     7
 10
0.0
 20
0.0
 30
0.0
 70
   128
 71
   256
 72
   257
 73
   258
  0
VERTEX
  5
792
  8
0
  6
HCS_01
 62
     7
 10
0.0
 20
0.0
 30
0.0
 70
   128
 71
   259
 72
   260
 73
   261
  0
VERTEX
  5
793
  8
0
  6
HCS_01
 62
     7
 10
0.0
 20
0.0
 30
0.0
 70
   128
 71
   262
 72
   263
 73
   264
  0
VERTEX
  5
794
  8
0
  6
HCS_01
 62
     7
 10
0.0
 20
0.0
 30
0.0
 70
   128
 71
   265
 72
   266
 73
   267
  0
VERTEX
  5
795
  8
0
  6
HCS_01
 62
     7
 10
0.0
 20
0.0
 30
0.0
 70
   128
 71
   268
 72
   269
 73
   270
  0
VERTEX
  5
796
  8
0
  6
HCS_01
 62
     7
 10
0.0
 20
0.0
 30
0.0
 70
   128
 71
   271
 72
   272
 73
   273
  0
VERTEX
  5
797
  8
0
  6
HCS_01
 62
     7
 10
0.0
 20
0.0
 30
0.0
 70
   128
 71
   274
 72
   275
 73
   276
  0
VERTEX
  5
798
  8
0
  6
HCS_01
 62
     7
 10
0.0
 20
0.0
 30
0.0
 70
   128
 71
   277
 72
   278
 73
   279
  0
VERTEX
  5
799
  8
0
  6
HCS_01
 62
     7
 10
0.0
 20
0.0
 30
0.0
 70
   128
 71
   280
 72
   281
 73
   282
  0
VERTEX
  5
79A
  8
0
  6
HCS_01
 62
     7
 10
0.0
 20
0.0
 30
0.0
 70
   128
 71
   283
 72
   284
 73
   285
  0
VERTEX
  5
79B
  8
0
  6
HCS_01
 62
     7
 10
0.0
 20
0.0
 30
0.0
 70
   128
 71
   286
 72
   287
 73
   288
  0
VERTEX
  5
79C
  8
0
  6
HCS_01
 62
     7
 10
0.0
 20
0.0
 30
0.0
 70
   128
 71
   289
 72
   290
 73
   291
  0
VERTEX
  5
79D
  8
0
  6
HCS_01
 62
     7
 10
0.0
 20
0.0
 30
0.0
 70
   128
 71
   292
 72
   293
 73
   294
  0
VERTEX
  5
79E
  8
0
  6
HCS_01
 62
     7
 10
0.0
 20
0.0
 30
0.0
 70
   128
 71
   295
 72
   296
 73
   297
  0
VERTEX
  5
79F
  8
0
  6
HCS_01
 62
     7
 10
0.0
 20
0.0
 30
0.0
 70
   128
 71
   298
 72
   299
 73
   300
  0
VERTEX
  5
7A0
  8
0
  6
HCS_01
 62
     7
 10
0.0
 20
0.0
 30
0.0
 70
   128
 71
   301
 72
   302
 73
   303
  0
VERTEX
  5
7A1
  8
0
  6
HCS_01
 62
     7
 10
0.0
 20
0.0
 30
0.0
 70
   128
 71
   304
 72
   305
 73
   306
  0
VERTEX
  5
7A2
  8
0
  6
HCS_01
 62
     7
 10
0.0
 20
0.0
 30
0.0
 70
   128
 71
   307
 72
   308
 73
   309
  0
VERTEX
  5
7A3
  8
0
  6
HCS_01
 62
     7
 10
0.0
 20
0.0
 30
0.0
 70
   128
 71
   310
 72
   311
 73
   312
  0
VERTEX
  5
7A4
  8
0
  6
HCS_01
 62
     7
 10
0.0
 20
0.0
 30
0.0
 70
   128
 71
   313
 72
   314
 73
   315
  0
VERTEX
  5
7A5
  8
0
  6
HCS_01
 62
     7
 10
0.0
 20
0.0
 30
0.0
 70
   128
 71
   316
 72
   317
 73
   318
  0
VERTEX
  5
7A6
  8
0
  6
HCS_01
 62
     7
 10
0.0
 20
0.0
 30
0.0
 70
   128
 71
   319
 72
   320
 73
   321
  0
VERTEX
  5
7A7
  8
0
  6
HCS_01
 62
     7
 10
0.0
 20
0.0
 30
0.0
 70
   128
 71
   322
 72
   323
 73
   324
  0
VERTEX
  5
7A8
  8
0
  6
HCS_01
 62
     7
 10
0.0
 20
0.0
 30
0.0
 70
   128
 71
   325
 72
   326
 73
   327
  0
VERTEX
  5
7A9
  8
0
  6
HCS_01
 62
     7
 10
0.0
 20
0.0
 30
0.0
 70
   128
 71
   328
 72
   329
 73
   330
  0
VERTEX
  5
7AA
  8
0
  6
HCS_01
 62
     7
 10
0.0
 20
0.0
 30
0.0
 70
   128
 71
   331
 72
   332
 73
   333
  0
VERTEX
  5
7AB
  8
0
  6
HCS_01
 62
     7
 10
0.0
 20
0.0
 30
0.0
 70
   128
 71
   334
 72
   335
 73
   336
  0
VERTEX
  5
7AC
  8
0
  6
HCS_01
 62
     7
 10
0.0
 20
0.0
 30
0.0
 70
   128
 71
   337
 72
   338
 73
   339
  0
VERTEX
  5
7AD
  8
0
  6
HCS_01
 62
     7
 10
0.0
 20
0.0
 30
0.0
 70
   128
 71
   340
 72
   341
 73
   342
  0
VERTEX
  5
7AE
  8
0
  6
HCS_01
 62
     7
 10
0.0
 20
0.0
 30
0.0
 70
   128
 71
   343
 72
   344
 73
   345
  0
VERTEX
  5
7AF
  8
0
  6
HCS_01
 62
     7
 10
0.0
 20
0.0
 30
0.0
 70
   128
 71
   346
 72
   347
 73
   348
  0
VERTEX
  5
7B0
  8
0
  6
HCS_01
 62
     7
 10
0.0
 20
0.0
 30
0.0
 70
   128
 71
   349
 72
   350
 73
   351
  0
VERTEX
  5
7B1
  8
0
  6
HCS_01
 62
     7
 10
0.0
 20
0.0
 30
0.0
 70
   128
 71
   352
 72
   353
 73
   354
  0
VERTEX
  5
7B2
  8
0
  6
HCS_01
 62
     7
 10
0.0
 20
0.0
 30
0.0
 70
   128
 71
   355
 72
   356
 73
   357
  0
VERTEX
  5
7B3
  8
0
  6
HCS_01
 62
     7
 10
0.0
 20
0.0
 30
0.0
 70
   128
 71
   358
 72
   359
 73
   360
  0
VERTEX
  5
7B4
  8
0
  6
HCS_01
 62
     7
 10
0.0
 20
0.0
 30
0.0
 70
   128
 71
   361
 72
   362
 73
   363
  0
VERTEX
  5
7B5
  8
0
  6
HCS_01
 62
     7
 10
0.0
 20
0.0
 30
0.0
 70
   128
 71
   364
 72
   365
 73
   366
  0
VERTEX
  5
7B6
  8
0
  6
HCS_01
 62
     7
 10
0.0
 20
0.0
 30
0.0
 70
   128
 71
   367
 72
   368
 73
   369
  0
VERTEX
  5
7B7
  8
0
  6
HCS_01
 62
     7
 10
0.0
 20
0.0
 30
0.0
 70
   128
 71
   370
 72
   371
 73
   372
  0
VERTEX
  5
7B8
  8
0
  6
HCS_01
 62
     7
 10
0.0
 20
0.0
 30
0.0
 70
   128
 71
   373
 72
   374
 73
   375
  0
VERTEX
  5
7B9
  8
0
  6
HCS_01
 62
     7
 10
0.0
 20
0.0
 30
0.0
 70
   128
 71
   376
 72
   377
 73
   378
  0
VERTEX
  5
7BA
  8
0
  6
HCS_01
 62
     7
 10
0.0
 20
0.0
 30
0.0
 70
   128
 71
   379
 72
   380
 73
   381
  0
VERTEX
  5
7BB
  8
0
  6
HCS_01
 62
     7
 10
0.0
 20
0.0
 30
0.0
 70
   128
 71
   382
 72
   383
 73
   384
  0
VERTEX
  5
7BC
  8
0
  6
HCS_01
 62
     7
 10
0.0
 20
0.0
 30
0.0
 70
   128
 71
   385
 72
   386
 73
   387
  0
VERTEX
  5
7BD
  8
0
  6
HCS_01
 62
     7
 10
0.0
 20
0.0
 30
0.0
 70
   128
 71
   388
 72
   389
 73
   390
  0
VERTEX
  5
7BE
  8
0
  6
HCS_01
 62
     7
 10
0.0
 20
0.0
 30
0.0
 70
   128
 71
   391
 72
   392
 73
   393
  0
VERTEX
  5
7BF
  8
0
  6
HCS_01
 62
     7
 10
0.0
 20
0.0
 30
0.0
 70
   128
 71
   394
 72
   395
 73
   396
  0
VERTEX
  5
7C0
  8
0
  6
HCS_01
 62
     7
 10
0.0
 20
0.0
 30
0.0
 70
   128
 71
   397
 72
   398
 73
   399
  0
VERTEX
  5
7C1
  8
0
  6
HCS_01
 62
     7
 10
0.0
 20
0.0
 30
0.0
 70
   128
 71
   400
 72
   401
 73
   402
  0
SEQEND
  5
7C2
  8
0
  6
HCS_01
 62
     7
  0
ENDBLK
  5
7C5
  8
0
  0
ENDSEC
  0
SECTION
  2
ENTITIES
  0
LINE
  5
97
  8
UNNAMED_LEVEL_1
  6
HCS_01
 62
   253
 10
0.0
 20
50.0
 30
0.0
 11
3.0
 21
50.0
 31
0.0
  0
LINE
  5
98
  8
UNNAMED_LEVEL_1
  6
HCS_01
 62
   253
 10
0.0
 20
0.0
 30
0.0
 11
1.5
 21
0.0
 31
0.0
  0
LINE
  5
99
  8
UNNAMED_LEVEL_1
  6
HCS_01
 62
   253
 10
1.5
 20
0.0
 30
0.0
 11
1.5
 21
9.0
 31
0.0
  0
LINE
  5
9A
  8
UNNAMED_LEVEL_1
  6
HCS_01
 62
   253
 10
1.5
 20
9.0
 30
0.0
 11
1.5
 21
11.0
 31
0.0
  0
LINE
  5
9B
  8
UNNAMED_LEVEL_1
  6
HCS_01
 62
   253
 10
1.5
 20
11.0
 30
0.0
 11
3.0
 21
16.5980762113533
 31
0.0
  0
LINE
  5
9C
  8
UNNAMED_LEVEL_1
  6
HCS_01
 62
   253
 10
3.0
 20
50.0
 30
0.0
 11
3.0
 21
16.59807621135329
 31
0.0
  0
LINE
  5
9D
  8
UNNAMED_LEVEL_1
  6
HCS_01
 62
   253
 10
0.0
 20
50.0
 30
0.0
 11
-3.0
 21
50.0
 31
0.0
  0
LINE
  5
9E
  8
UNNAMED_LEVEL_1
  6
HCS_01
 62
   253
 10
0.0
 20
0.0
 30
0.0
 11
-1.5
 21
0.0
 31
0.0
  0
LINE
  5
9F
  8
UNNAMED_LEVEL_1
  6
HCS_01
 62
   253
 10
-1.5
 20
0.0
 30
0.0
 11
-1.5
 21
9.0
 31
0.0
  0
LINE
  5
A0
  8
UNNAMED_LEVEL_1
  6
HCS_01
 62
   253
 10
-1.5
 20
9.0
 30
0.0
 11
-1.5
 21
11.0
 31
0.0
  0
LINE
  5
A1
  8
UNNAMED_LEVEL_1
  6
HCS_01
 62
   253
 10
-1.5
 20
11.0
 30
0.0
 11
-3.0
 21
16.5980762113533
 31
0.0
  0
LINE
  5
A2
  8
UNNAMED_LEVEL_1
  6
HCS_01
 62
   253
 10
-3.0
 20
50.0
 30
0.0
 11
-3.0
 21
16.59807621135329
 31
0.0
  0
INSERT
  5
24C
  8
0
  6
HCS_01
 62
     7
  2
GROUP_17
 10
0.0
 20
0.0
 30
0.0
  0
INSERT
  5
3D8
  8
0
  6
HCS_01
 62
     7
  2
GROUP_22
 10
0.0
 20
0.0
 30
0.0
  0
INSERT
  5
3DD
  8
0
  6
HCS_01
 62
     7
  2
GROUP_27
 10
0.0
 20
0.0
 30
0.0
  0
INSERT
  5
5A2
  8
0
  6
HCS_01
 62
     7
  2
GROUP_33
 10
0.0
 20
0.0
 30
0.0
  0
INSERT
  5
7C3
  8
0
  6
HCS_01
 62
     7
  2
GNODE_34
 10
0.0
 20
0.0
 30
0.0
  0
ENDSEC
  0
EOF
