ISO-10303-21;
HEADER;
/* Generated by software containing ST-Developer
 * from STEP Tools, Inc. (www.steptools.com) 
 */
/* OPTION: using custom schema-name function */

FILE_DESCRIPTION(
/* description */ (''),
/* implementation_level */ '2;1');

FILE_NAME(
/* name */ '202828064ndi000_00.stp',
/* time_stamp */ '2020-01-31T08:18:42+01:00',
/* author */ (''),
/* organization */ (''),
/* preprocessor_version */ 'ST-DEVELOPER v16.7',
/* originating_system */ 'SIEMENS PLM Software NX 12.0',
/* authorisation */ '');

FILE_SCHEMA (('AUTOMOTIVE_DESIGN { 1 0 10303 214 3 1 1 1 }'));
ENDSEC;

DATA;
#10=PROPERTY_DEFINITION_REPRESENTATION(#14,#12);
#11=PROPERTY_DEFINITION_REPRESENTATION(#15,#13);
#12=REPRESENTATION('',(#16),#360);
#13=REPRESENTATION('',(#17),#360);
#14=PROPERTY_DEFINITION('pmi validation property','',#21);
#15=PROPERTY_DEFINITION('pmi validation property','',#21);
#16=VALUE_REPRESENTATION_ITEM('number of annotations',COUNT_MEASURE(0.));
#17=VALUE_REPRESENTATION_ITEM('number of views',COUNT_MEASURE(0.));
#18=SHAPE_REPRESENTATION_RELATIONSHIP('None',
'relationship between mp540CB83A6Dyfp6-None and mp540CB83A6Dyfp6-None',
#30,#19);
#19=ADVANCED_BREP_SHAPE_REPRESENTATION('mp540CB83A6Dyfp6-None',(#57,#58),
#360);
#20=SHAPE_DEFINITION_REPRESENTATION(#21,#30);
#21=PRODUCT_DEFINITION_SHAPE('','',#22);
#22=PRODUCT_DEFINITION(' ','',#24,#23);
#23=PRODUCT_DEFINITION_CONTEXT('part definition',#29,'design');
#24=PRODUCT_DEFINITION_FORMATION_WITH_SPECIFIED_SOURCE(' ',' ',#26,
 .NOT_KNOWN.);
#25=PRODUCT_RELATED_PRODUCT_CATEGORY('part','',(#26));
#26=PRODUCT('mp540CB83A6Dyfp6','mp540CB83A6Dyfp6',' ',(#27));
#27=PRODUCT_CONTEXT(' ',#29,'mechanical');
#28=APPLICATION_PROTOCOL_DEFINITION('international standard',
'automotive_design',2010,#29);
#29=APPLICATION_CONTEXT(
'core data for automotive mechanical design processes');
#30=SHAPE_REPRESENTATION('mp540CB83A6Dyfp6-None',(#206),#360);
#31=SPHERICAL_SURFACE('',#230,8.5625);
#32=TOROIDAL_SURFACE('',#225,13.5625,5.);
#33=TOROIDAL_SURFACE('',#226,12.9411920231988,2.);
#34=CONICAL_SURFACE('',#220,8.5625,1.74491621505435);
#35=CONICAL_SURFACE('',#224,10.9975,44.9999999999986);
#36=CYLINDRICAL_SURFACE('',#217,8.5625);
#37=CYLINDRICAL_SURFACE('',#223,12.49675);
#38=CYLINDRICAL_SURFACE('',#231,8.4975);
#39=PRESENTATION_LAYER_ASSIGNMENT('96','Layer 96',(#57));
#40=PRESENTATION_LAYER_ASSIGNMENT('14','Layer 14',(#58));
#41=STYLED_ITEM('',(#43),#57);
#42=STYLED_ITEM('',(#44),#58);
#43=PRESENTATION_STYLE_ASSIGNMENT((#45));
#44=PRESENTATION_STYLE_ASSIGNMENT((#46));
#45=SURFACE_STYLE_USAGE(.BOTH.,#47);
#46=SURFACE_STYLE_USAGE(.BOTH.,#48);
#47=SURFACE_SIDE_STYLE('',(#49));
#48=SURFACE_SIDE_STYLE('',(#50));
#49=SURFACE_STYLE_FILL_AREA(#51);
#50=SURFACE_STYLE_FILL_AREA(#52);
#51=FILL_AREA_STYLE('',(#53));
#52=FILL_AREA_STYLE('',(#54));
#53=FILL_AREA_STYLE_COLOUR('',#55);
#54=FILL_AREA_STYLE_COLOUR('',#56);
#55=COLOUR_RGB('Light Gray',0.8,0.8,0.8);
#56=COLOUR_RGB('Silver Gray',0.6,0.6,0.6);
#57=MANIFOLD_SOLID_BREP('',#59);
#58=MANIFOLD_SOLID_BREP('',#60);
#59=CLOSED_SHELL('',(#92,#93,#94,#95,#96));
#60=CLOSED_SHELL('',(#97,#98,#99,#100,#101,#102,#103,#104,#105,#106));
#61=SURFACE_OF_REVOLUTION('',#67,#64);
#62=SURFACE_OF_REVOLUTION('',#68,#65);
#63=SURFACE_OF_REVOLUTION('',#69,#66);
#64=AXIS1_PLACEMENT('',#302,#244);
#65=AXIS1_PLACEMENT('',#311,#247);
#66=AXIS1_PLACEMENT('',#330,#248);
#67=B_SPLINE_CURVE_WITH_KNOTS('',5,(#296,#297,#298,#299,#300,#301),
 .UNSPECIFIED.,.F.,.F.,(6,6),(0.,1.),.UNSPECIFIED.);
#68=B_SPLINE_CURVE_WITH_KNOTS('',5,(#305,#306,#307,#308,#309,#310),
 .UNSPECIFIED.,.F.,.F.,(6,6),(0.,1.),.UNSPECIFIED.);
#69=B_SPLINE_CURVE_WITH_KNOTS('',5,(#312,#313,#314,#315,#316,#317,#318,
#319,#320,#321,#322,#323,#324,#325,#326,#327,#328,#329),.UNSPECIFIED.,.F.,
 .F.,(6,1,1,1,1,1,1,1,1,1,1,1,1,6),(0.,0.112739336211567,0.224374040834302,
0.336588820416234,0.448504257458932,0.560351613151338,0.672586869815836,
0.697270506769068,0.709428118999764,0.725155247377996,0.734111755952996,
0.784227018858042,0.896411156442166,1.),.UNSPECIFIED.);
#70=FACE_BOUND('',#117,.T.);
#71=FACE_BOUND('',#118,.T.);
#72=FACE_BOUND('',#119,.T.);
#73=FACE_BOUND('',#120,.T.);
#74=FACE_BOUND('',#121,.T.);
#75=FACE_BOUND('',#122,.T.);
#76=FACE_BOUND('',#124,.T.);
#77=FACE_BOUND('',#125,.T.);
#78=FACE_BOUND('',#126,.T.);
#79=FACE_BOUND('',#127,.T.);
#80=FACE_BOUND('',#128,.T.);
#81=FACE_BOUND('',#129,.T.);
#82=FACE_BOUND('',#130,.T.);
#83=FACE_BOUND('',#131,.T.);
#84=FACE_BOUND('',#132,.T.);
#85=FACE_BOUND('',#133,.T.);
#86=FACE_BOUND('',#134,.T.);
#87=FACE_BOUND('',#135,.T.);
#88=FACE_BOUND('',#136,.T.);
#89=FACE_BOUND('',#137,.T.);
#90=FACE_BOUND('',#139,.T.);
#91=FACE_BOUND('',#140,.T.);
#92=ADVANCED_FACE('',(#111),#107,.T.);
#93=ADVANCED_FACE('',(#112),#108,.T.);
#94=ADVANCED_FACE('',(#70,#71),#61,.F.);
#95=ADVANCED_FACE('',(#72,#73),#62,.F.);
#96=ADVANCED_FACE('',(#74,#75),#63,.F.);
#97=ADVANCED_FACE('',(#113),#109,.T.);
#98=ADVANCED_FACE('',(#76,#77),#36,.T.);
#99=ADVANCED_FACE('',(#78,#79),#34,.T.);
#100=ADVANCED_FACE('',(#80,#81),#37,.T.);
#101=ADVANCED_FACE('',(#82,#83),#35,.T.);
#102=ADVANCED_FACE('',(#84,#85),#32,.F.);
#103=ADVANCED_FACE('',(#86,#87),#33,.F.);
#104=ADVANCED_FACE('',(#88,#89),#110,.F.);
#105=ADVANCED_FACE('',(#114),#31,.T.);
#106=ADVANCED_FACE('',(#90,#91),#38,.T.);
#107=PLANE('',#208);
#108=PLANE('',#210);
#109=PLANE('',#214);
#110=PLANE('',#228);
#111=FACE_OUTER_BOUND('',#115,.T.);
#112=FACE_OUTER_BOUND('',#116,.T.);
#113=FACE_OUTER_BOUND('',#123,.T.);
#114=FACE_OUTER_BOUND('',#138,.T.);
#115=EDGE_LOOP('',(#141));
#116=EDGE_LOOP('',(#142));
#117=EDGE_LOOP('',(#143));
#118=EDGE_LOOP('',(#144));
#119=EDGE_LOOP('',(#145));
#120=EDGE_LOOP('',(#146));
#121=EDGE_LOOP('',(#147));
#122=EDGE_LOOP('',(#148));
#123=EDGE_LOOP('',(#149));
#124=EDGE_LOOP('',(#150));
#125=EDGE_LOOP('',(#151));
#126=EDGE_LOOP('',(#152));
#127=EDGE_LOOP('',(#153));
#128=EDGE_LOOP('',(#154));
#129=EDGE_LOOP('',(#155));
#130=EDGE_LOOP('',(#156));
#131=EDGE_LOOP('',(#157));
#132=EDGE_LOOP('',(#158));
#133=EDGE_LOOP('',(#159));
#134=EDGE_LOOP('',(#160));
#135=EDGE_LOOP('',(#161));
#136=EDGE_LOOP('',(#162));
#137=EDGE_LOOP('',(#163));
#138=EDGE_LOOP('',(#164));
#139=EDGE_LOOP('',(#165));
#140=EDGE_LOOP('',(#166));
#141=ORIENTED_EDGE('',*,*,#180,.T.);
#142=ORIENTED_EDGE('',*,*,#181,.F.);
#143=ORIENTED_EDGE('',*,*,#181,.T.);
#144=ORIENTED_EDGE('',*,*,#182,.F.);
#145=ORIENTED_EDGE('',*,*,#182,.T.);
#146=ORIENTED_EDGE('',*,*,#183,.F.);
#147=ORIENTED_EDGE('',*,*,#183,.T.);
#148=ORIENTED_EDGE('',*,*,#180,.F.);
#149=ORIENTED_EDGE('',*,*,#184,.T.);
#150=ORIENTED_EDGE('',*,*,#185,.T.);
#151=ORIENTED_EDGE('',*,*,#186,.T.);
#152=ORIENTED_EDGE('',*,*,#187,.T.);
#153=ORIENTED_EDGE('',*,*,#188,.T.);
#154=ORIENTED_EDGE('',*,*,#189,.F.);
#155=ORIENTED_EDGE('',*,*,#190,.T.);
#156=ORIENTED_EDGE('',*,*,#189,.T.);
#157=ORIENTED_EDGE('',*,*,#184,.F.);
#158=ORIENTED_EDGE('',*,*,#186,.F.);
#159=ORIENTED_EDGE('',*,*,#188,.F.);
#160=ORIENTED_EDGE('',*,*,#187,.F.);
#161=ORIENTED_EDGE('',*,*,#190,.F.);
#162=ORIENTED_EDGE('',*,*,#191,.T.);
#163=ORIENTED_EDGE('',*,*,#185,.F.);
#164=ORIENTED_EDGE('',*,*,#192,.T.);
#165=ORIENTED_EDGE('',*,*,#192,.F.);
#166=ORIENTED_EDGE('',*,*,#191,.F.);
#167=VERTEX_POINT('',#289);
#168=VERTEX_POINT('',#292);
#169=VERTEX_POINT('',#295);
#170=VERTEX_POINT('',#304);
#171=VERTEX_POINT('',#332);
#172=VERTEX_POINT('',#335);
#173=VERTEX_POINT('',#337);
#174=VERTEX_POINT('',#340);
#175=VERTEX_POINT('',#342);
#176=VERTEX_POINT('',#345);
#177=VERTEX_POINT('',#347);
#178=VERTEX_POINT('',#353);
#179=VERTEX_POINT('',#356);
#180=EDGE_CURVE('',#167,#167,#193,.T.);
#181=EDGE_CURVE('',#168,#168,#194,.T.);
#182=EDGE_CURVE('',#169,#169,#195,.T.);
#183=EDGE_CURVE('',#170,#170,#196,.T.);
#184=EDGE_CURVE('',#171,#171,#197,.T.);
#185=EDGE_CURVE('',#172,#172,#198,.T.);
#186=EDGE_CURVE('',#173,#173,#199,.T.);
#187=EDGE_CURVE('',#174,#174,#200,.T.);
#188=EDGE_CURVE('',#175,#175,#201,.T.);
#189=EDGE_CURVE('',#176,#176,#202,.T.);
#190=EDGE_CURVE('',#177,#177,#203,.T.);
#191=EDGE_CURVE('',#178,#178,#204,.T.);
#192=EDGE_CURVE('',#179,#179,#205,.T.);
#193=CIRCLE('',#207,0.247928350227119);
#194=CIRCLE('',#209,8.66121111984346);
#195=CIRCLE('',#211,9.52716162551282);
#196=CIRCLE('',#212,9.60772519087206);
#197=CIRCLE('',#213,10.9975);
#198=CIRCLE('',#215,8.5625);
#199=CIRCLE('',#216,8.5625);
#200=CIRCLE('',#218,10.9421194301041);
#201=CIRCLE('',#219,8.56481851726329);
#202=CIRCLE('',#221,12.49675);
#203=CIRCLE('',#222,12.49675);
#204=CIRCLE('',#227,8.4975);
#205=CIRCLE('',#229,8.4975);
#206=AXIS2_PLACEMENT_3D('',#287,#232,#233);
#207=AXIS2_PLACEMENT_3D('',#288,#234,#235);
#208=AXIS2_PLACEMENT_3D('',#290,#236,#237);
#209=AXIS2_PLACEMENT_3D('',#291,#238,#239);
#210=AXIS2_PLACEMENT_3D('',#293,#240,#241);
#211=AXIS2_PLACEMENT_3D('',#294,#242,#243);
#212=AXIS2_PLACEMENT_3D('',#303,#245,#246);
#213=AXIS2_PLACEMENT_3D('',#331,#249,#250);
#214=AXIS2_PLACEMENT_3D('',#333,#251,#252);
#215=AXIS2_PLACEMENT_3D('',#334,#253,#254);
#216=AXIS2_PLACEMENT_3D('',#336,#255,#256);
#217=AXIS2_PLACEMENT_3D('',#338,#257,#258);
#218=AXIS2_PLACEMENT_3D('',#339,#259,#260);
#219=AXIS2_PLACEMENT_3D('',#341,#261,#262);
#220=AXIS2_PLACEMENT_3D('',#343,#263,#264);
#221=AXIS2_PLACEMENT_3D('',#344,#265,#266);
#222=AXIS2_PLACEMENT_3D('',#346,#267,#268);
#223=AXIS2_PLACEMENT_3D('',#348,#269,#270);
#224=AXIS2_PLACEMENT_3D('',#349,#271,#272);
#225=AXIS2_PLACEMENT_3D('',#350,#273,#274);
#226=AXIS2_PLACEMENT_3D('',#351,#275,#276);
#227=AXIS2_PLACEMENT_3D('',#352,#277,#278);
#228=AXIS2_PLACEMENT_3D('',#354,#279,#280);
#229=AXIS2_PLACEMENT_3D('',#355,#281,#282);
#230=AXIS2_PLACEMENT_3D('',#357,#283,#284);
#231=AXIS2_PLACEMENT_3D('',#358,#285,#286);
#232=DIRECTION('',(0.,0.,1.));
#233=DIRECTION('',(1.,0.,0.));
#234=DIRECTION('',(1.,0.,0.));
#235=DIRECTION('',(0.,0.,-1.));
#236=DIRECTION('',(1.,0.,0.));
#237=DIRECTION('',(0.,0.,-1.));
#238=DIRECTION('',(1.,0.,0.));
#239=DIRECTION('',(0.,0.,-1.));
#240=DIRECTION('',(-1.,0.,0.));
#241=DIRECTION('',(0.,0.,1.));
#242=DIRECTION('',(1.,0.,0.));
#243=DIRECTION('',(0.,0.,-1.));
#244=DIRECTION('',(1.,0.,0.));
#245=DIRECTION('',(1.,0.,0.));
#246=DIRECTION('',(0.,0.,-1.));
#247=DIRECTION('',(1.,0.,0.));
#248=DIRECTION('',(1.,0.,0.));
#249=DIRECTION('',(-1.,-3.08148791101958E-32,1.66533453693773E-16));
#250=DIRECTION('',(0.,-1.,-3.33066907387547E-16));
#251=DIRECTION('',(-1.,-3.08148791101958E-32,1.66533453693773E-16));
#252=DIRECTION('',(0.,-1.,-3.33066907387547E-16));
#253=DIRECTION('',(-1.,-3.08148791101958E-32,1.66533453693773E-16));
#254=DIRECTION('',(0.,-1.,-3.33066907387547E-16));
#255=DIRECTION('',(1.,3.08148791101958E-32,-1.66533453693773E-16));
#256=DIRECTION('',(0.,-1.,-3.33066907387547E-16));
#257=DIRECTION('',(-1.,-3.08148791101958E-32,1.66533453693773E-16));
#258=DIRECTION('',(0.,-1.,-3.33066907387547E-16));
#259=DIRECTION('',(1.,3.08148791101958E-32,-1.66533453693773E-16));
#260=DIRECTION('',(0.,1.,3.33066907387547E-16));
#261=DIRECTION('',(-1.,-3.08148791101958E-32,1.66533453693773E-16));
#262=DIRECTION('',(0.,-1.,-3.33066907387547E-16));
#263=DIRECTION('',(-1.,-3.08148791101958E-32,1.66533453693773E-16));
#264=DIRECTION('',(-1.24459834108146E-15,-1.,-3.33066907387547E-16));
#265=DIRECTION('',(-1.,-3.08148791101958E-32,1.66533453693773E-16));
#266=DIRECTION('',(0.,1.,3.33066907387547E-16));
#267=DIRECTION('',(-1.,-3.08148791101958E-32,1.66533453693773E-16));
#268=DIRECTION('',(0.,1.,3.33066907387547E-16));
#269=DIRECTION('',(-1.,-3.08148791101958E-32,1.66533453693773E-16));
#270=DIRECTION('',(0.,-1.,-3.33066907387547E-16));
#271=DIRECTION('',(1.,3.08148791101958E-32,-1.66533453693773E-16));
#272=DIRECTION('',(-5.49073081103173E-17,1.,3.33066907387547E-16));
#273=DIRECTION('',(-1.,-3.08148791101958E-32,1.66533453693773E-16));
#274=DIRECTION('',(0.,-1.,-3.33066907387547E-16));
#275=DIRECTION('',(-1.,-3.08148791101958E-32,1.66533453693773E-16));
#276=DIRECTION('',(0.,-1.,-3.33066907387547E-16));
#277=DIRECTION('',(-1.,-3.08148791101958E-32,1.66533453693773E-16));
#278=DIRECTION('',(0.,-1.,-3.33066907387547E-16));
#279=DIRECTION('',(-1.,-3.08148791101958E-32,1.66533453693773E-16));
#280=DIRECTION('',(0.,-1.,-3.33066907387547E-16));
#281=DIRECTION('',(1.,3.08148791101958E-32,-1.66533453693773E-16));
#282=DIRECTION('',(0.,-1.,-3.33066907387547E-16));
#283=DIRECTION('',(0.,1.,3.33066907387547E-16));
#284=DIRECTION('',(-1.,-3.08148791101957E-32,1.66533453693773E-16));
#285=DIRECTION('',(1.,3.08148791101958E-32,-1.66533453693773E-16));
#286=DIRECTION('',(0.,1.,3.33066907387547E-16));
#287=CARTESIAN_POINT('',(0.,0.,0.));
#288=CARTESIAN_POINT('',(37.9952021500504,0.,0.));
#289=CARTESIAN_POINT('',(37.9952021500504,0.,-0.247928350227119));
#290=CARTESIAN_POINT('',(37.9952021500504,0.,0.));
#291=CARTESIAN_POINT('',(23.0049953189911,0.,0.));
#292=CARTESIAN_POINT('',(23.0049953189911,0.,-8.66121111984346));
#293=CARTESIAN_POINT('',(23.0049953189911,0.,-8.66121111984346));
#294=CARTESIAN_POINT('',(24.9668790297835,0.,0.));
#295=CARTESIAN_POINT('',(24.9668790297835,0.,-9.52716162551282));
#296=CARTESIAN_POINT('',(24.9668790297835,-2.19550939928315E-15,-9.52716162551279));
#297=CARTESIAN_POINT('',(24.5574088630259,-2.19550939928315E-15,-9.39680059233675));
#298=CARTESIAN_POINT('',(24.1549461839789,-2.19550939928315E-15,-9.2444424257373));
#299=CARTESIAN_POINT('',(23.7610298076245,-9.11407451245627E-16,-9.07057274965892));
#300=CARTESIAN_POINT('',(23.3772475910583,-9.11407451245627E-16,-8.87589242402222));
#301=CARTESIAN_POINT('',(23.0049953189911,-9.11407451245627E-16,-8.66121111984346));
#302=CARTESIAN_POINT('',(0.,0.,0.));
#303=CARTESIAN_POINT('',(25.2328226248532,0.,0.));
#304=CARTESIAN_POINT('',(25.2328226248532,0.,-9.60772519087206));
#305=CARTESIAN_POINT('',(25.2328226248532,-2.43945488809238E-16,-9.60772519087207));
#306=CARTESIAN_POINT('',(25.1794181568161,-2.43945488809238E-16,-9.59234388231448));
#307=CARTESIAN_POINT('',(25.1261246932128,-2.43945488809238E-16,-9.57657771750496));
#308=CARTESIAN_POINT('',(25.0729454849896,-2.16840434497101E-16,-9.56041925618532));
#309=CARTESIAN_POINT('',(25.0198738491991,-2.16840434497101E-16,-9.5439122018056));
#310=CARTESIAN_POINT('',(24.9668790297835,-2.16840434497101E-16,-9.52716162551282));
#311=CARTESIAN_POINT('',(0.,0.,0.));
#312=CARTESIAN_POINT('',(37.9952021500504,-5.0821976835258E-17,-0.247928350227119));
#313=CARTESIAN_POINT('',(37.9849921392933,-5.08219768352577E-17,-0.659543920493369));
#314=CARTESIAN_POINT('',(37.9225026145446,-5.08219768352582E-17,-1.47769573626039));
#315=CARTESIAN_POINT('',(37.702751695399,-3.88903522194203E-15,-2.69325426255339));
#316=CARTESIAN_POINT('',(37.1638023583369,-1.83445556556002E-15,-4.25519226665829));
#317=CARTESIAN_POINT('',(36.107199823191,2.64337959378126E-14,-6.02880828820175));
#318=CARTESIAN_POINT('',(34.7141301411137,-2.52320141418138E-14,-7.54972858750123));
#319=CARTESIAN_POINT('',(33.3007355794764,4.60480303009106E-14,-8.56846644148978));
#320=CARTESIAN_POINT('',(32.0738130852456,-2.73627218435184E-15,-9.17593723999766));
#321=CARTESIAN_POINT('',(31.1196481845642,-3.76196774477312E-16,-9.51416344303382));
#322=CARTESIAN_POINT('',(30.5071552656041,-1.22170161580245E-15,-9.68069293786276));
#323=CARTESIAN_POINT('',(30.1108164585517,-7.76640122523724E-16,-9.77658504580493));
#324=CARTESIAN_POINT('',(29.397380950545,-2.55821804991138E-16,-9.91947173074032));
#325=CARTESIAN_POINT('',(28.340116932738,7.29160104873999E-16,-10.0388602706308));
#326=CARTESIAN_POINT('',(27.330551528586,5.29111776026273E-16,-10.0254344605029));
#327=CARTESIAN_POINT('',(26.3639384449152,-2.33781093442187E-16,-9.89471578095661));
#328=CARTESIAN_POINT('',(25.5963675745941,-2.33781093442187E-16,-9.71243173045652));
#329=CARTESIAN_POINT('',(25.2328226248532,-2.33781093442187E-16,-9.60772519087206));
#330=CARTESIAN_POINT('',(0.,0.,0.));
#331=CARTESIAN_POINT('',(-153.000004681009,-8.81305542551599E-30,2.63122856836162E-14));
#332=CARTESIAN_POINT('',(-153.000004681009,-10.9975,2.26493823696217E-14));
#333=CARTESIAN_POINT('',(-153.000004681009,-8.81305542551599E-30,2.63122856836162E-14));
#334=CARTESIAN_POINT('',(3.99999531899114,-3.97511940521525E-30,1.66533453693774E-16));
#335=CARTESIAN_POINT('',(3.99999531899114,-8.5625,-2.6853519408121E-15));
#336=CARTESIAN_POINT('',(3.07613753691554,-4.00358797108493E-30,3.20386680864692E-16));
#337=CARTESIAN_POINT('',(3.07613753691554,-8.5625,-2.53149871364118E-15));
#338=CARTESIAN_POINT('',(-111.226819925455,-7.52581978722574E-30,1.93556529544858E-14));
#339=CARTESIAN_POINT('',(-75.1126354966599,-6.41296555988909E-30,1.33414330942246E-14));
#340=CARTESIAN_POINT('',(-75.1126354966599,10.9421194301041,1.69858909730746E-14));
#341=CARTESIAN_POINT('',(2.92388840847613,-4.00827950957242E-30,3.45741254045574E-16));
#342=CARTESIAN_POINT('',(2.92388840847613,-8.56481851726329,-2.5069163618349E-15));
#343=CARTESIAN_POINT('',(2.99999531899114,-4.00593428432545E-30,3.33066907387547E-16));
#344=CARTESIAN_POINT('',(-151.500754681009,-8.76685621801003E-30,2.60626104031658E-14));
#345=CARTESIAN_POINT('',(-151.500754681009,12.49675,3.02248642780611E-14));
#346=CARTESIAN_POINT('',(-77.0017284832228,-6.47117773189794E-30,1.36560302736256E-14));
#347=CARTESIAN_POINT('',(-77.0017284832228,12.49675,1.78182841485209E-14));
#348=CARTESIAN_POINT('',(-111.226819925455,-7.52581978722574E-30,1.93556529544858E-14));
#349=CARTESIAN_POINT('',(-153.000004681009,-8.81305542551599E-30,2.63122856836162E-14));
#350=CARTESIAN_POINT('',(3.07613753691554,-4.00358797108493E-30,3.20386680864692E-16));
#351=CARTESIAN_POINT('',(-75.0517358452841,-6.41108894449409E-30,1.33312912649522E-14));
#352=CARTESIAN_POINT('',(3.99999531899114,-3.97511940521525E-30,1.66533453693773E-16));
#353=CARTESIAN_POINT('',(3.99999531899114,-8.4975,-2.66370259183191E-15));
#354=CARTESIAN_POINT('',(3.99999531899114,-2.83023604552568E-15,8.4975));
#355=CARTESIAN_POINT('',(29.0530385279812,-3.20311290738772E-30,-4.00563635743867E-15));
#356=CARTESIAN_POINT('',(29.0530385279812,-8.4975,-6.83587240296435E-15));
#357=CARTESIAN_POINT('',(27.9999953189911,-3.23556230657056E-30,-3.83026943495679E-15));
#358=CARTESIAN_POINT('',(16.4476736593321,-3.59154570195505E-30,-1.90642141079238E-15));
#359=MECHANICAL_DESIGN_GEOMETRIC_PRESENTATION_REPRESENTATION('',(#41,#42),
#360);
#360=(
GEOMETRIC_REPRESENTATION_CONTEXT(3)
GLOBAL_UNCERTAINTY_ASSIGNED_CONTEXT((#361))
GLOBAL_UNIT_ASSIGNED_CONTEXT((#367,#363,#362))
REPRESENTATION_CONTEXT('202828064ndi000_00','TOP_LEVEL_ASSEMBLY_PART')
);
#361=UNCERTAINTY_MEASURE_WITH_UNIT(LENGTH_MEASURE(2.E-5),#367,
'DISTANCE_ACCURACY_VALUE','Maximum Tolerance applied to model');
#362=(
NAMED_UNIT(*)
SI_UNIT($,.STERADIAN.)
SOLID_ANGLE_UNIT()
);
#363=(
CONVERSION_BASED_UNIT('DEGREE',#365)
NAMED_UNIT(#364)
PLANE_ANGLE_UNIT()
);
#364=DIMENSIONAL_EXPONENTS(0.,0.,0.,0.,0.,0.,0.);
#365=PLANE_ANGLE_MEASURE_WITH_UNIT(PLANE_ANGLE_MEASURE(0.0174532925),#366);
#366=(
NAMED_UNIT(*)
PLANE_ANGLE_UNIT()
SI_UNIT($,.RADIAN.)
);
#367=(
LENGTH_UNIT()
NAMED_UNIT(*)
SI_UNIT(.MILLI.,.METRE.)
);
ENDSEC;
END-ISO-10303-21;
