ISO-10303-21;
HEADER;
/* Generated by software containing ST-Developer
 * from STEP Tools, Inc. (www.steptools.com) 
 */
/* OPTION: using custom schema-name function */

FILE_DESCRIPTION(
/* description */ (''),
/* implementation_level */ '2;1');

FILE_NAME(
/* name */ 'PPH-10-02-QC12-132HSCW_112229648ndi000_00_SIM.stp',
/* time_stamp */ '2020-01-30T08:59:26+01:00',
/* author */ (''),
/* organization */ (''),
/* preprocessor_version */ 'ST-DEVELOPER v16.7',
/* originating_system */ 'SIEMENS PLM Software NX 12.0',
/* authorisation */ '');

FILE_SCHEMA (('AUTOMOTIVE_DESIGN { 1 0 10303 214 3 1 1 1 }'));
ENDSEC;

DATA;
#10=PROPERTY_DEFINITION_REPRESENTATION(#14,#12);
#11=PROPERTY_DEFINITION_REPRESENTATION(#15,#13);
#12=REPRESENTATION('',(#16),#413);
#13=REPRESENTATION('',(#17),#413);
#14=PROPERTY_DEFINITION('pmi validation property','',#21);
#15=PROPERTY_DEFINITION('pmi validation property','',#21);
#16=VALUE_REPRESENTATION_ITEM('number of annotations',COUNT_MEASURE(0.));
#17=VALUE_REPRESENTATION_ITEM('number of views',COUNT_MEASURE(0.));
#18=SHAPE_REPRESENTATION_RELATIONSHIP('None',
'relationship between pp073194ACF1wtna-None and pp073194ACF1wtna-None',
#30,#19);
#19=ADVANCED_BREP_SHAPE_REPRESENTATION('pp073194ACF1wtna-None',(#68,#69,
#70),#413);
#20=SHAPE_DEFINITION_REPRESENTATION(#21,#30);
#21=PRODUCT_DEFINITION_SHAPE('','',#22);
#22=PRODUCT_DEFINITION(' ','',#24,#23);
#23=PRODUCT_DEFINITION_CONTEXT('part definition',#29,'design');
#24=PRODUCT_DEFINITION_FORMATION_WITH_SPECIFIED_SOURCE(' ',' ',#26,
 .NOT_KNOWN.);
#25=PRODUCT_RELATED_PRODUCT_CATEGORY('part','',(#26));
#26=PRODUCT('pp073194ACF1wtna','pp073194ACF1wtna',' ',(#27));
#27=PRODUCT_CONTEXT(' ',#29,'mechanical');
#28=APPLICATION_PROTOCOL_DEFINITION('international standard',
'automotive_design',2010,#29);
#29=APPLICATION_CONTEXT(
'core data for automotive mechanical design processes');
#30=SHAPE_REPRESENTATION('pp073194ACF1wtna-None',(#247),#413);
#31=TOROIDAL_SURFACE('',#264,6.87754730653932,1.);
#32=TOROIDAL_SURFACE('',#271,6.80542608323149,1.);
#33=CYLINDRICAL_SURFACE('',#261,3.975);
#34=CYLINDRICAL_SURFACE('',#266,5.99875);
#35=CYLINDRICAL_SURFACE('',#275,3.975);
#36=CONICAL_SURFACE('',#259,4.00222139978605,30.);
#37=CONICAL_SURFACE('',#269,5.02029946162075,30.);
#38=CONICAL_SURFACE('',#273,5.83973730842441,2.00000000000001);
#39=CONICAL_SURFACE('',#276,4.175,29.9999999999999);
#40=VERTEX_LOOP('',#208);
#41=VERTEX_LOOP('',#216);
#42=SPHERICAL_SURFACE('',#257,4.0625);
#43=PRESENTATION_LAYER_ASSIGNMENT('96','Layer 96',(#68));
#44=PRESENTATION_LAYER_ASSIGNMENT('14','Layer 14',(#69,#70));
#45=STYLED_ITEM('',(#48),#68);
#46=STYLED_ITEM('',(#49),#69);
#47=STYLED_ITEM('',(#50),#70);
#48=PRESENTATION_STYLE_ASSIGNMENT((#51));
#49=PRESENTATION_STYLE_ASSIGNMENT((#52));
#50=PRESENTATION_STYLE_ASSIGNMENT((#53));
#51=SURFACE_STYLE_USAGE(.BOTH.,#54);
#52=SURFACE_STYLE_USAGE(.BOTH.,#55);
#53=SURFACE_STYLE_USAGE(.BOTH.,#56);
#54=SURFACE_SIDE_STYLE('',(#57));
#55=SURFACE_SIDE_STYLE('',(#58));
#56=SURFACE_SIDE_STYLE('',(#59));
#57=SURFACE_STYLE_FILL_AREA(#60);
#58=SURFACE_STYLE_FILL_AREA(#61);
#59=SURFACE_STYLE_FILL_AREA(#62);
#60=FILL_AREA_STYLE('',(#63));
#61=FILL_AREA_STYLE('',(#64));
#62=FILL_AREA_STYLE('',(#65));
#63=FILL_AREA_STYLE_COLOUR('',#66);
#64=FILL_AREA_STYLE_COLOUR('',#67);
#65=FILL_AREA_STYLE_COLOUR('',#67);
#66=COLOUR_RGB('Light Gray',0.8,0.8,0.8);
#67=COLOUR_RGB('Silver Gray',0.6,0.6,0.6);
#68=MANIFOLD_SOLID_BREP('',#71);
#69=MANIFOLD_SOLID_BREP('',#72);
#70=MANIFOLD_SOLID_BREP('',#73);
#71=CLOSED_SHELL('',(#114,#115,#116,#117,#118,#119));
#72=CLOSED_SHELL('',(#120,#121,#122,#123));
#73=CLOSED_SHELL('',(#124,#125,#126,#127,#128,#129,#130,#131));
#74=B_SPLINE_CURVE_WITH_KNOTS('',3,(#357,#358,#359,#360,#361,#362),
 .UNSPECIFIED.,.F.,.F.,(4,2,4),(0.,0.5,1.),.UNSPECIFIED.);
#75=B_SPLINE_CURVE_WITH_KNOTS('',3,(#371,#372,#373,#374,#375,#376),
 .UNSPECIFIED.,.F.,.F.,(4,2,4),(0.,0.5,1.),.UNSPECIFIED.);
#76=SURFACE_OF_REVOLUTION('',#84,#80);
#77=SURFACE_OF_REVOLUTION('',#74,#81);
#78=SURFACE_OF_REVOLUTION('',#85,#82);
#79=SURFACE_OF_REVOLUTION('',#75,#83);
#80=AXIS1_PLACEMENT('',#354,#289);
#81=AXIS1_PLACEMENT('',#363,#292);
#82=AXIS1_PLACEMENT('',#370,#295);
#83=AXIS1_PLACEMENT('',#377,#296);
#84=(
BOUNDED_CURVE()
B_SPLINE_CURVE(3,(#350,#351,#352,#353),.UNSPECIFIED.,.F.,.F.)
B_SPLINE_CURVE_WITH_KNOTS((4,4),(0.,1.),.UNSPECIFIED.)
CURVE()
GEOMETRIC_REPRESENTATION_ITEM()
RATIONAL_B_SPLINE_CURVE((1.,0.997786818212053,0.997786818212053,1.))
REPRESENTATION_ITEM('')
);
#85=(
BOUNDED_CURVE()
B_SPLINE_CURVE(3,(#366,#367,#368,#369),.UNSPECIFIED.,.F.,.F.)
B_SPLINE_CURVE_WITH_KNOTS((4,4),(0.,1.),.UNSPECIFIED.)
CURVE()
GEOMETRIC_REPRESENTATION_ITEM()
RATIONAL_B_SPLINE_CURVE((1.,0.668341620142381,0.668341620142381,1.))
REPRESENTATION_ITEM('')
);
#86=FACE_BOUND('',#142,.T.);
#87=FACE_BOUND('',#143,.T.);
#88=FACE_BOUND('',#144,.T.);
#89=FACE_BOUND('',#145,.T.);
#90=FACE_BOUND('',#146,.T.);
#91=FACE_BOUND('',#147,.T.);
#92=FACE_BOUND('',#148,.T.);
#93=FACE_BOUND('',#149,.T.);
#94=FACE_BOUND('',#150,.T.);
#95=FACE_BOUND('',#151,.T.);
#96=FACE_BOUND('',#152,.T.);
#97=FACE_BOUND('',#40,.T.);
#98=FACE_BOUND('',#154,.T.);
#99=FACE_BOUND('',#155,.T.);
#100=FACE_BOUND('',#156,.T.);
#101=FACE_BOUND('',#157,.T.);
#102=FACE_BOUND('',#158,.T.);
#103=FACE_BOUND('',#159,.T.);
#104=FACE_BOUND('',#161,.T.);
#105=FACE_BOUND('',#162,.T.);
#106=FACE_BOUND('',#163,.T.);
#107=FACE_BOUND('',#164,.T.);
#108=FACE_BOUND('',#165,.T.);
#109=FACE_BOUND('',#166,.T.);
#110=FACE_BOUND('',#167,.T.);
#111=FACE_BOUND('',#168,.T.);
#112=FACE_BOUND('',#169,.T.);
#113=FACE_BOUND('',#41,.T.);
#114=ADVANCED_FACE('',(#136),#132,.F.);
#115=ADVANCED_FACE('',(#137),#133,.T.);
#116=ADVANCED_FACE('',(#86,#87),#76,.T.);
#117=ADVANCED_FACE('',(#88,#89),#77,.T.);
#118=ADVANCED_FACE('',(#90,#91),#78,.T.);
#119=ADVANCED_FACE('',(#92,#93),#79,.T.);
#120=ADVANCED_FACE('',(#94,#95),#42,.T.);
#121=ADVANCED_FACE('',(#96,#97),#36,.F.);
#122=ADVANCED_FACE('',(#138),#134,.T.);
#123=ADVANCED_FACE('',(#98,#99),#33,.T.);
#124=ADVANCED_FACE('',(#100,#101),#31,.F.);
#125=ADVANCED_FACE('',(#102,#103),#34,.T.);
#126=ADVANCED_FACE('',(#139),#135,.T.);
#127=ADVANCED_FACE('',(#104,#105),#37,.T.);
#128=ADVANCED_FACE('',(#106,#107),#32,.F.);
#129=ADVANCED_FACE('',(#108,#109),#38,.T.);
#130=ADVANCED_FACE('',(#110,#111),#35,.T.);
#131=ADVANCED_FACE('',(#112,#113),#39,.T.);
#132=PLANE('',#249);
#133=PLANE('',#251);
#134=PLANE('',#260);
#135=PLANE('',#268);
#136=FACE_OUTER_BOUND('',#140,.T.);
#137=FACE_OUTER_BOUND('',#141,.T.);
#138=FACE_OUTER_BOUND('',#153,.T.);
#139=FACE_OUTER_BOUND('',#160,.T.);
#140=EDGE_LOOP('',(#170));
#141=EDGE_LOOP('',(#171));
#142=EDGE_LOOP('',(#172));
#143=EDGE_LOOP('',(#173));
#144=EDGE_LOOP('',(#174));
#145=EDGE_LOOP('',(#175));
#146=EDGE_LOOP('',(#176));
#147=EDGE_LOOP('',(#177));
#148=EDGE_LOOP('',(#178));
#149=EDGE_LOOP('',(#179));
#150=EDGE_LOOP('',(#180));
#151=EDGE_LOOP('',(#181));
#152=EDGE_LOOP('',(#182));
#153=EDGE_LOOP('',(#183));
#154=EDGE_LOOP('',(#184));
#155=EDGE_LOOP('',(#185));
#156=EDGE_LOOP('',(#186));
#157=EDGE_LOOP('',(#187));
#158=EDGE_LOOP('',(#188));
#159=EDGE_LOOP('',(#189));
#160=EDGE_LOOP('',(#190));
#161=EDGE_LOOP('',(#191));
#162=EDGE_LOOP('',(#192));
#163=EDGE_LOOP('',(#193));
#164=EDGE_LOOP('',(#194));
#165=EDGE_LOOP('',(#195));
#166=EDGE_LOOP('',(#196));
#167=EDGE_LOOP('',(#197));
#168=EDGE_LOOP('',(#198));
#169=EDGE_LOOP('',(#199));
#170=ORIENTED_EDGE('',*,*,#217,.F.);
#171=ORIENTED_EDGE('',*,*,#218,.T.);
#172=ORIENTED_EDGE('',*,*,#218,.F.);
#173=ORIENTED_EDGE('',*,*,#219,.T.);
#174=ORIENTED_EDGE('',*,*,#219,.F.);
#175=ORIENTED_EDGE('',*,*,#220,.T.);
#176=ORIENTED_EDGE('',*,*,#220,.F.);
#177=ORIENTED_EDGE('',*,*,#221,.T.);
#178=ORIENTED_EDGE('',*,*,#221,.F.);
#179=ORIENTED_EDGE('',*,*,#217,.T.);
#180=ORIENTED_EDGE('',*,*,#222,.T.);
#181=ORIENTED_EDGE('',*,*,#223,.T.);
#182=ORIENTED_EDGE('',*,*,#224,.F.);
#183=ORIENTED_EDGE('',*,*,#222,.F.);
#184=ORIENTED_EDGE('',*,*,#223,.F.);
#185=ORIENTED_EDGE('',*,*,#224,.T.);
#186=ORIENTED_EDGE('',*,*,#225,.T.);
#187=ORIENTED_EDGE('',*,*,#226,.F.);
#188=ORIENTED_EDGE('',*,*,#227,.F.);
#189=ORIENTED_EDGE('',*,*,#226,.T.);
#190=ORIENTED_EDGE('',*,*,#228,.T.);
#191=ORIENTED_EDGE('',*,*,#228,.F.);
#192=ORIENTED_EDGE('',*,*,#227,.T.);
#193=ORIENTED_EDGE('',*,*,#229,.F.);
#194=ORIENTED_EDGE('',*,*,#225,.F.);
#195=ORIENTED_EDGE('',*,*,#229,.T.);
#196=ORIENTED_EDGE('',*,*,#230,.T.);
#197=ORIENTED_EDGE('',*,*,#231,.T.);
#198=ORIENTED_EDGE('',*,*,#230,.F.);
#199=ORIENTED_EDGE('',*,*,#231,.F.);
#200=VERTEX_POINT('',#343);
#201=VERTEX_POINT('',#346);
#202=VERTEX_POINT('',#349);
#203=VERTEX_POINT('',#356);
#204=VERTEX_POINT('',#365);
#205=VERTEX_POINT('',#379);
#206=VERTEX_POINT('',#381);
#207=VERTEX_POINT('',#384);
#208=VERTEX_POINT('',#385);
#209=VERTEX_POINT('',#390);
#210=VERTEX_POINT('',#392);
#211=VERTEX_POINT('',#395);
#212=VERTEX_POINT('',#398);
#213=VERTEX_POINT('',#402);
#214=VERTEX_POINT('',#405);
#215=VERTEX_POINT('',#408);
#216=VERTEX_POINT('',#410);
#217=EDGE_CURVE('',#200,#200,#232,.T.);
#218=EDGE_CURVE('',#201,#201,#233,.T.);
#219=EDGE_CURVE('',#202,#202,#234,.T.);
#220=EDGE_CURVE('',#203,#203,#235,.T.);
#221=EDGE_CURVE('',#204,#204,#236,.T.);
#222=EDGE_CURVE('',#205,#205,#237,.T.);
#223=EDGE_CURVE('',#206,#206,#238,.T.);
#224=EDGE_CURVE('',#207,#207,#239,.T.);
#225=EDGE_CURVE('',#209,#209,#240,.T.);
#226=EDGE_CURVE('',#210,#210,#241,.T.);
#227=EDGE_CURVE('',#211,#211,#242,.T.);
#228=EDGE_CURVE('',#212,#212,#243,.T.);
#229=EDGE_CURVE('',#213,#213,#244,.T.);
#230=EDGE_CURVE('',#214,#214,#245,.T.);
#231=EDGE_CURVE('',#215,#215,#246,.T.);
#232=CIRCLE('',#248,0.0500045982119269);
#233=CIRCLE('',#250,3.57351060758186);
#234=CIRCLE('',#252,4.09330344324323);
#235=CIRCLE('',#253,4.21426040026533);
#236=CIRCLE('',#254,0.249783448196112);
#237=CIRCLE('',#255,2.50277970464841);
#238=CIRCLE('',#256,3.975);
#239=CIRCLE('',#258,3.975);
#240=CIRCLE('',#262,5.88214246960552);
#241=CIRCLE('',#263,5.99875);
#242=CIRCLE('',#265,5.99875);
#243=CIRCLE('',#267,5.02029946162075);
#244=CIRCLE('',#270,5.80603525621239);
#245=CIRCLE('',#272,3.975);
#246=CIRCLE('',#274,3.975);
#247=AXIS2_PLACEMENT_3D('',#341,#277,#278);
#248=AXIS2_PLACEMENT_3D('',#342,#279,#280);
#249=AXIS2_PLACEMENT_3D('',#344,#281,#282);
#250=AXIS2_PLACEMENT_3D('',#345,#283,#284);
#251=AXIS2_PLACEMENT_3D('',#347,#285,#286);
#252=AXIS2_PLACEMENT_3D('',#348,#287,#288);
#253=AXIS2_PLACEMENT_3D('',#355,#290,#291);
#254=AXIS2_PLACEMENT_3D('',#364,#293,#294);
#255=AXIS2_PLACEMENT_3D('',#378,#297,#298);
#256=AXIS2_PLACEMENT_3D('',#380,#299,#300);
#257=AXIS2_PLACEMENT_3D('',#382,#301,#302);
#258=AXIS2_PLACEMENT_3D('',#383,#303,#304);
#259=AXIS2_PLACEMENT_3D('',#386,#305,#306);
#260=AXIS2_PLACEMENT_3D('',#387,#307,#308);
#261=AXIS2_PLACEMENT_3D('',#388,#309,#310);
#262=AXIS2_PLACEMENT_3D('',#389,#311,#312);
#263=AXIS2_PLACEMENT_3D('',#391,#313,#314);
#264=AXIS2_PLACEMENT_3D('',#393,#315,#316);
#265=AXIS2_PLACEMENT_3D('',#394,#317,#318);
#266=AXIS2_PLACEMENT_3D('',#396,#319,#320);
#267=AXIS2_PLACEMENT_3D('',#397,#321,#322);
#268=AXIS2_PLACEMENT_3D('',#399,#323,#324);
#269=AXIS2_PLACEMENT_3D('',#400,#325,#326);
#270=AXIS2_PLACEMENT_3D('',#401,#327,#328);
#271=AXIS2_PLACEMENT_3D('',#403,#329,#330);
#272=AXIS2_PLACEMENT_3D('',#404,#331,#332);
#273=AXIS2_PLACEMENT_3D('',#406,#333,#334);
#274=AXIS2_PLACEMENT_3D('',#407,#335,#336);
#275=AXIS2_PLACEMENT_3D('',#409,#337,#338);
#276=AXIS2_PLACEMENT_3D('',#411,#339,#340);
#277=DIRECTION('',(0.,0.,1.));
#278=DIRECTION('',(1.,0.,0.));
#279=DIRECTION('',(0.,0.,1.));
#280=DIRECTION('',(1.,0.,0.));
#281=DIRECTION('',(0.,0.,1.));
#282=DIRECTION('',(1.,0.,0.));
#283=DIRECTION('',(0.,0.,1.));
#284=DIRECTION('',(1.,0.,0.));
#285=DIRECTION('',(0.,0.,1.));
#286=DIRECTION('',(1.,0.,0.));
#287=DIRECTION('',(0.,0.,1.));
#288=DIRECTION('',(1.,0.,0.));
#289=DIRECTION('',(0.,0.,1.));
#290=DIRECTION('',(0.,0.,1.));
#291=DIRECTION('',(1.,0.,0.));
#292=DIRECTION('',(0.,0.,1.));
#293=DIRECTION('',(0.,0.,1.));
#294=DIRECTION('',(1.,0.,0.));
#295=DIRECTION('',(0.,0.,1.));
#296=DIRECTION('',(0.,0.,1.));
#297=DIRECTION('',(0.,0.,1.));
#298=DIRECTION('',(0.,1.,0.));
#299=DIRECTION('',(0.,0.,-1.));
#300=DIRECTION('',(0.,-1.,0.));
#301=DIRECTION('',(6.12323399573677E-17,0.,-0.999999999999999));
#302=DIRECTION('',(1.,0.,0.));
#303=DIRECTION('',(0.,0.,-1.));
#304=DIRECTION('',(0.,-1.,0.));
#305=DIRECTION('',(0.,0.,1.));
#306=DIRECTION('',(0.,-1.,4.77431094988319E-17));
#307=DIRECTION('',(0.,0.,-1.));
#308=DIRECTION('',(0.,1.,0.));
#309=DIRECTION('',(0.,0.,-1.));
#310=DIRECTION('',(0.,1.,0.));
#311=DIRECTION('',(0.,0.,1.));
#312=DIRECTION('',(0.,-1.,0.));
#313=DIRECTION('',(0.,0.,1.));
#314=DIRECTION('',(0.,1.,0.));
#315=DIRECTION('',(0.,0.,1.));
#316=DIRECTION('',(0.,1.,0.));
#317=DIRECTION('',(0.,0.,1.));
#318=DIRECTION('',(0.,1.,0.));
#319=DIRECTION('',(0.,0.,-1.));
#320=DIRECTION('',(0.,1.,0.));
#321=DIRECTION('',(0.,0.,1.));
#322=DIRECTION('',(0.,1.,0.));
#323=DIRECTION('',(0.,0.,1.));
#324=DIRECTION('',(0.,1.,0.));
#325=DIRECTION('',(0.,0.,-1.));
#326=DIRECTION('',(0.,-1.,-9.53192936240237E-17));
#327=DIRECTION('',(0.,0.,-1.));
#328=DIRECTION('',(0.,1.,0.));
#329=DIRECTION('',(0.,0.,1.));
#330=DIRECTION('',(0.,-1.,0.));
#331=DIRECTION('',(0.,0.,1.));
#332=DIRECTION('',(0.,1.,0.));
#333=DIRECTION('',(0.,0.,1.));
#334=DIRECTION('',(0.,-1.,-8.51178560895359E-16));
#335=DIRECTION('',(0.,0.,1.));
#336=DIRECTION('',(0.,-1.,0.));
#337=DIRECTION('',(0.,0.,-1.));
#338=DIRECTION('',(0.,1.,0.));
#339=DIRECTION('',(0.,0.,1.));
#340=DIRECTION('',(0.,1.,-2.38644622049763E-17));
#341=CARTESIAN_POINT('',(0.,0.,0.));
#342=CARTESIAN_POINT('',(0.,0.,-86.9985112680309));
#343=CARTESIAN_POINT('',(0.0500045982119269,0.,-86.9985112680309));
#344=CARTESIAN_POINT('',(0.,0.,-86.9985112680309));
#345=CARTESIAN_POINT('',(0.,0.,-78.5052613140312));
#346=CARTESIAN_POINT('',(3.57351060758186,0.,-78.5052613140312));
#347=CARTESIAN_POINT('',(0.,0.,-78.5052613140312));
#348=CARTESIAN_POINT('',(0.,0.,-79.131486316923));
#349=CARTESIAN_POINT('',(4.09330344324323,0.,-79.131486316923));
#350=CARTESIAN_POINT('',(-4.09299805502846,0.0500000000000019,-79.131486316923));
#351=CARTESIAN_POINT('',(-3.93694369825134,0.0500000000000019,-78.9088372142881));
#352=CARTESIAN_POINT('',(-3.76328026261581,0.0500000000000019,-78.6996325386795));
#353=CARTESIAN_POINT('',(-3.57316079438081,0.0500000000000019,-78.5052613140312));
#354=CARTESIAN_POINT('',(0.,0.,0.));
#355=CARTESIAN_POINT('',(0.,0.,-79.3127462273283));
#356=CARTESIAN_POINT('',(4.21426040026533,0.,-79.3127462273283));
#357=CARTESIAN_POINT('',(-4.21423370510517,-0.0150000000000008,-79.3127462273283));
#358=CARTESIAN_POINT('',(-4.19360332597273,-0.0150000000000001,-79.2803961804322));
#359=CARTESIAN_POINT('',(-4.17239399577102,-0.0096998146435202,-79.2479913616902));
#360=CARTESIAN_POINT('',(-4.13135140684391,0.0118084987469712,-79.1867586750287));
#361=CARTESIAN_POINT('',(-4.11119878490198,0.0282016944965813,-79.1574540390509));
#362=CARTESIAN_POINT('',(-4.09299805502847,0.0499999999999027,-79.131486316923));
#363=CARTESIAN_POINT('',(0.,0.,0.));
#364=CARTESIAN_POINT('',(0.,0.,-86.9922885867439));
#365=CARTESIAN_POINT('',(0.249783448196112,0.,-86.9922885867439));
#366=CARTESIAN_POINT('',(-0.249332651276842,-0.0149999999999599,-86.9922885867439));
#367=CARTESIAN_POINT('',(-4.55447322603327,-0.0149999999999599,-86.7772632964193));
#368=CARTESIAN_POINT('',(-6.53195546681889,-0.0149999999999599,-82.9471150967707));
#369=CARTESIAN_POINT('',(-4.21423370510517,-0.0149999999999599,-79.3127462273283));
#370=CARTESIAN_POINT('',(0.,0.,0.));
#371=CARTESIAN_POINT('',(-0.000678116763778568,0.0499999999999093,-86.9985112680309));
#372=CARTESIAN_POINT('',(-0.0378280912965082,0.0274197497635799,-86.9985062278627));
#373=CARTESIAN_POINT('',(-0.0786180837022913,0.0112122616173053,-86.9980692249286));
#374=CARTESIAN_POINT('',(-0.162537797368035,-0.0099545843433063,-86.9960441537612));
#375=CARTESIAN_POINT('',(-0.206254293714168,-0.0150000000000008,-86.9944401857871));
#376=CARTESIAN_POINT('',(-0.249332651276843,-0.0150000000000009,-86.9922885867439));
#377=CARTESIAN_POINT('',(0.,0.,0.));
#378=CARTESIAN_POINT('',(0.,0.,-85.2002613140312));
#379=CARTESIAN_POINT('',(0.,2.50277970464841,-85.2002613140312));
#380=CARTESIAN_POINT('',(0.,0.,-82.8388799699172));
#381=CARTESIAN_POINT('',(0.,-3.975,-82.8388799699172));
#382=CARTESIAN_POINT('',(8.88178419700125E-16,0.,-82.0002613140312));
#383=CARTESIAN_POINT('',(0.,0.,-68.5474101615138));
#384=CARTESIAN_POINT('',(0.,-3.975,-68.5474101615138));
#385=CARTESIAN_POINT('',(0.,0.,-75.4323121216001));
#386=CARTESIAN_POINT('',(0.,0.,-68.5002613140312));
#387=CARTESIAN_POINT('',(0.,0.,-85.2002613140312));
#388=CARTESIAN_POINT('',(0.,0.,-65.2));
#389=CARTESIAN_POINT('',(0.,0.,-12.3818810486193));
#390=CARTESIAN_POINT('',(0.,-5.88214246960552,-12.3818810486193));
#391=CARTESIAN_POINT('',(0.,0.,-12.0004418069835));
#392=CARTESIAN_POINT('',(0.,5.99875,-12.0004418069835));
#393=CARTESIAN_POINT('',(0.,0.,-12.4776370437779));
#394=CARTESIAN_POINT('',(0.,0.,43.305273954834));
#395=CARTESIAN_POINT('',(0.,5.99875,43.305273954834));
#396=CARTESIAN_POINT('',(0.,0.,-65.2));
#397=CARTESIAN_POINT('',(0.,0.,45.));
#398=CARTESIAN_POINT('',(0.,5.02029946162075,45.));
#399=CARTESIAN_POINT('',(0.,0.,45.));
#400=CARTESIAN_POINT('',(0.,0.,45.));
#401=CARTESIAN_POINT('',(0.,0.,-12.7311005032975));
#402=CARTESIAN_POINT('',(0.,5.80603525621239,-12.7311005032975));
#403=CARTESIAN_POINT('',(0.,0.,-12.766));
#404=CARTESIAN_POINT('',(0.,0.,-65.1650898701436));
#405=CARTESIAN_POINT('',(0.,3.975,-65.1650898701436));
#406=CARTESIAN_POINT('',(0.,0.,-11.766));
#407=CARTESIAN_POINT('',(0.,0.,-68.5464101615138));
#408=CARTESIAN_POINT('',(0.,-3.975,-68.5464101615138));
#409=CARTESIAN_POINT('',(0.,0.,-65.2));
#410=CARTESIAN_POINT('',(-4.26423911175698E-17,0.,-75.4313121216001));
#411=CARTESIAN_POINT('',(0.,0.,-68.2));
#412=MECHANICAL_DESIGN_GEOMETRIC_PRESENTATION_REPRESENTATION('',(#45,#46,
#47),#413);
#413=(
GEOMETRIC_REPRESENTATION_CONTEXT(3)
GLOBAL_UNCERTAINTY_ASSIGNED_CONTEXT((#414))
GLOBAL_UNIT_ASSIGNED_CONTEXT((#420,#416,#415))
REPRESENTATION_CONTEXT('PPH-10-02-QC12-132HSCW_112229648ndi000_00_SIM',
'TOP_LEVEL_ASSEMBLY_PART')
);
#414=UNCERTAINTY_MEASURE_WITH_UNIT(LENGTH_MEASURE(2.E-5),#420,
'DISTANCE_ACCURACY_VALUE','Maximum Tolerance applied to model');
#415=(
NAMED_UNIT(*)
SI_UNIT($,.STERADIAN.)
SOLID_ANGLE_UNIT()
);
#416=(
CONVERSION_BASED_UNIT('DEGREE',#418)
NAMED_UNIT(#417)
PLANE_ANGLE_UNIT()
);
#417=DIMENSIONAL_EXPONENTS(0.,0.,0.,0.,0.,0.,0.);
#418=PLANE_ANGLE_MEASURE_WITH_UNIT(PLANE_ANGLE_MEASURE(0.0174532925),#419);
#419=(
NAMED_UNIT(*)
PLANE_ANGLE_UNIT()
SI_UNIT($,.RADIAN.)
);
#420=(
LENGTH_UNIT()
NAMED_UNIT(*)
SI_UNIT(.MILLI.,.METRE.)
);
ENDSEC;
END-ISO-10303-21;
