  0
SECTION
  2
HEADER
  9
$ACADVER
  1
AC1018
  9
$ACADMAINTVER
 70
   104
  9
$DWGCODEPAGE
  3
ANSI_1250
  9
$LASTSAVEDBY
  1
pp0701
  9
$INSBASE
 10
0.0
 20
0.0
 30
0.0
  9
$EXTMIN
 10
177.8191263333333
 20
215.818736
 30
0.0
  9
$EXTMAX
 10
338.92357
 20
287.6182816666668
 30
0.0
  9
$LIMMIN
 10
-0.5
 20
-0.5
  9
$LIMMAX
 10
5.0
 20
5.0
  9
$ORTHOMODE
 70
     0
  9
$REGENMODE
 70
     1
  9
$FILLMODE
 70
     1
  9
$QTEXTMODE
 70
     0
  9
$MIRRTEXT
 70
     1
  9
$LTSCALE
 40
1.0
  9
$ATTMODE
 70
     1
  9
$TEXTSIZE
 40
0.2
  9
$TRACEWID
 40
0.05
  9
$TEXTSTYLE
  7
Standard
  9
$CLAYER
  8
0
  9
$CELTYPE
  6
ByLayer
  9
$CECOLOR
 62
   256
  9
$CELTSCALE
 40
1.0
  9
$DISPSILH
 70
     0
  9
$DIMSCALE
 40
1.0
  9
$DIMASZ
 40
0.18
  9
$DIMEXO
 40
0.0625
  9
$DIMDLI
 40
0.38
  9
$DIMRND
 40
0.0
  9
$DIMDLE
 40
0.0
  9
$DIMEXE
 40
0.18
  9
$DIMTP
 40
0.0
  9
$DIMTM
 40
0.0
  9
$DIMTXT
 40
0.18
  9
$DIMCEN
 40
0.09
  9
$DIMTSZ
 40
0.0
  9
$DIMTOL
 70
     0
  9
$DIMLIM
 70
     0
  9
$DIMTIH
 70
     1
  9
$DIMTOH
 70
     1
  9
$DIMSE1
 70
     0
  9
$DIMSE2
 70
     0
  9
$DIMTAD
 70
     0
  9
$DIMZIN
 70
     0
  9
$DIMBLK
  1

  9
$DIMASO
 70
     1
  9
$DIMSHO
 70
     1
  9
$DIMPOST
  1

  9
$DIMAPOST
  1

  9
$DIMALT
 70
     0
  9
$DIMALTD
 70
     2
  9
$DIMALTF
 40
25.4
  9
$DIMLFAC
 40
1.0
  9
$DIMTOFL
 70
     0
  9
$DIMTVP
 40
0.0
  9
$DIMTIX
 70
     0
  9
$DIMSOXD
 70
     0
  9
$DIMSAH
 70
     0
  9
$DIMBLK1
  1

  9
$DIMBLK2
  1

  9
$DIMSTYLE
  2
Standard
  9
$DIMCLRD
 70
     0
  9
$DIMCLRE
 70
     0
  9
$DIMCLRT
 70
     0
  9
$DIMTFAC
 40
1.0
  9
$DIMGAP
 40
0.09
  9
$DIMJUST
 70
     0
  9
$DIMSD1
 70
     0
  9
$DIMSD2
 70
     0
  9
$DIMTOLJ
 70
     1
  9
$DIMTZIN
 70
     0
  9
$DIMALTZ
 70
     0
  9
$DIMALTTZ
 70
     0
  9
$DIMUPT
 70
     0
  9
$DIMDEC
 70
     4
  9
$DIMTDEC
 70
     4
  9
$DIMALTU
 70
     2
  9
$DIMALTTD
 70
     2
  9
$DIMTXSTY
  7
Standard
  9
$DIMAUNIT
 70
     0
  9
$DIMADEC
 70
     0
  9
$DIMALTRND
 40
0.0
  9
$DIMAZIN
 70
     0
  9
$DIMDSEP
 70
    46
  9
$DIMATFIT
 70
     3
  9
$DIMFRAC
 70
     0
  9
$DIMLDRBLK
  1

  9
$DIMLUNIT
 70
     2
  9
$DIMLWD
 70
    -2
  9
$DIMLWE
 70
    -2
  9
$DIMTMOVE
 70
     0
  9
$LUNITS
 70
     2
  9
$LUPREC
 70
     4
  9
$SKETCHINC
 40
0.1
  9
$FILLETRAD
 40
0.5
  9
$AUNITS
 70
     0
  9
$AUPREC
 70
     0
  9
$MENU
  1
.
  9
$ELEVATION
 40
0.0
  9
$PELEVATION
 40
0.0
  9
$THICKNESS
 40
0.0
  9
$LIMCHECK
 70
     0
  9
$CHAMFERA
 40
0.0
  9
$CHAMFERB
 40
0.0
  9
$CHAMFERC
 40
0.0
  9
$CHAMFERD
 40
0.0
  9
$SKPOLY
 70
     0
  9
$TDCREATE
 40
2458879.373483796
  9
$TDUCREATE
 40
2458879.331823669
  9
$TDUPDATE
 40
2458879.377881945
  9
$TDUUPDATE
 40
2458879.336215278
  9
$TDINDWG
 40
0.0026967708
  9
$TDUSRTIMER
 40
0.0026967708
  9
$USRTIMER
 70
     1
  9
$ANGBASE
 50
0.0
  9
$ANGDIR
 70
     0
  9
$PDMODE
 70
     0
  9
$PDSIZE
 40
0.0
  9
$PLINEWID
 40
0.0
  9
$SPLFRAME
 70
     0
  9
$SPLINETYPE
 70
     6
  9
$SPLINESEGS
 70
     8
  9
$HANDSEED
  5
40F
  9
$SURFTAB1
 70
     6
  9
$SURFTAB2
 70
     6
  9
$SURFTYPE
 70
     6
  9
$SURFU
 70
     6
  9
$SURFV
 70
     6
  9
$UCSBASE
  2

  9
$UCSNAME
  2

  9
$UCSORG
 10
237.144248
 20
243.731161
 30
0.0
  9
$UCSXDIR
 10
1.0
 20
0.0
 30
0.0
  9
$UCSYDIR
 10
0.0
 20
1.0
 30
0.0
  9
$UCSORTHOREF
  2

  9
$UCSORTHOVIEW
 70
     0
  9
$UCSORGTOP
 10
0.0
 20
0.0
 30
0.0
  9
$UCSORGBOTTOM
 10
0.0
 20
0.0
 30
0.0
  9
$UCSORGLEFT
 10
0.0
 20
0.0
 30
0.0
  9
$UCSORGRIGHT
 10
0.0
 20
0.0
 30
0.0
  9
$UCSORGFRONT
 10
0.0
 20
0.0
 30
0.0
  9
$UCSORGBACK
 10
0.0
 20
0.0
 30
0.0
  9
$PUCSBASE
  2

  9
$PUCSNAME
  2

  9
$PUCSORG
 10
0.0
 20
0.0
 30
0.0
  9
$PUCSXDIR
 10
1.0
 20
0.0
 30
0.0
  9
$PUCSYDIR
 10
0.0
 20
1.0
 30
0.0
  9
$PUCSORTHOREF
  2

  9
$PUCSORTHOVIEW
 70
     0
  9
$PUCSORGTOP
 10
0.0
 20
0.0
 30
0.0
  9
$PUCSORGBOTTOM
 10
0.0
 20
0.0
 30
0.0
  9
$PUCSORGLEFT
 10
0.0
 20
0.0
 30
0.0
  9
$PUCSORGRIGHT
 10
0.0
 20
0.0
 30
0.0
  9
$PUCSORGFRONT
 10
0.0
 20
0.0
 30
0.0
  9
$PUCSORGBACK
 10
0.0
 20
0.0
 30
0.0
  9
$USERI1
 70
     0
  9
$USERI2
 70
     0
  9
$USERI3
 70
     0
  9
$USERI4
 70
     0
  9
$USERI5
 70
     0
  9
$USERR1
 40
0.0
  9
$USERR2
 40
0.0
  9
$USERR3
 40
0.0
  9
$USERR4
 40
0.0
  9
$USERR5
 40
0.0
  9
$WORLDVIEW
 70
     1
  9
$SHADEDGE
 70
     3
  9
$SHADEDIF
 70
    70
  9
$TILEMODE
 70
     1
  9
$MAXACTVP
 70
    64
  9
$PINSBASE
 10
0.0
 20
0.0
 30
0.0
  9
$PLIMCHECK
 70
     0
  9
$PEXTMIN
 10
-0.5
 20
-0.5
 30
-0.5
  9
$PEXTMAX
 10
5.0
 20
5.0
 30
5.0
  9
$PLIMMIN
 10
-0.5
 20
-0.5
  9
$PLIMMAX
 10
5.0
 20
5.0
  9
$UNITMODE
 70
     0
  9
$VISRETAIN
 70
     1
  9
$PLINEGEN
 70
     0
  9
$PSLTSCALE
 70
     1
  9
$TREEDEPTH
 70
  3020
  9
$CMLSTYLE
  2
Standard
  9
$CMLJUST
 70
     0
  9
$CMLSCALE
 40
1.0
  9
$PROXYGRAPHICS
 70
     1
  9
$MEASUREMENT
 70
     1
  9
$CELWEIGHT
370
    13
  9
$ENDCAPS
280
     0
  9
$JOINSTYLE
280
     0
  9
$LWDISPLAY
290
     0
  9
$INSUNITS
 70
     4
  9
$HYPERLINKBASE
  1

  9
$STYLESHEET
  1

  9
$XEDIT
290
     1
  9
$CEPSNTYPE
380
     0
  9
$PSTYLEMODE
290
     1
  9
$FINGERPRINTGUID
  2
{BEBFC94A-D136-47C4-97F8-743EF75D76D5}
  9
$VERSIONGUID
  2
{346ABA4A-AF8E-2541-9B99-FC1F47413997}
  9
$EXTNAMES
290
     1
  9
$PSVPSCALE
 40
0.0
  9
$OLESTARTUP
290
     0
  9
$SORTENTS
280
   127
  9
$INDEXCTL
280
     0
  9
$HIDETEXT
280
     1
  9
$XCLIPFRAME
290
     0
  9
$HALOGAP
280
     0
  9
$OBSCOLOR
 70
   257
  9
$OBSLTYPE
280
     0
  9
$INTERSECTIONDISPLAY
280
     0
  9
$INTERSECTIONCOLOR
 70
   257
  9
$DIMASSOC
280
     2
  9
$PROJECTNAME
  1

  0
ENDSEC
  0
SECTION
  2
CLASSES
  0
CLASS
  1
ACDBDICTIONARYWDFLT
  2
AcDbDictionaryWithDefault
  3
ObjectDBX Classes
 90
        0
 91
        1
280
     0
281
     0
  0
CLASS
  1
VISUALSTYLE
  2
AcDbVisualStyle
  3
ObjectDBX Classes
 90
     4095
 91
       24
280
     0
281
     0
  0
CLASS
  1
MATERIAL
  2
AcDbMaterial
  3
ObjectDBX Classes
 90
     1153
 91
        3
280
     0
281
     0
  0
CLASS
  1
SCALE
  2
AcDbScale
  3
ObjectDBX Classes
 90
     1153
 91
       33
280
     0
281
     0
  0
CLASS
  1
TABLESTYLE
  2
AcDbTableStyle
  3
ObjectDBX Classes
 90
     4095
 91
        1
280
     0
281
     0
  0
CLASS
  1
MLEADERSTYLE
  2
AcDbMLeaderStyle
  3
ACDB_MLEADERSTYLE_CLASS
 90
     4095
 91
        1
280
     0
281
     0
  0
CLASS
  1
SUN
  2
AcDbSun
  3
SCENEOE
 90
     1153
 91
        0
280
     0
281
     0
  0
CLASS
  1
IMAGEDEF
  2
AcDbRasterImageDef
  3
ISM
 90
        0
 91
        1
280
     0
281
     0
  0
CLASS
  1
IMAGE
  2
AcDbRasterImage
  3
ISM
 90
     2175
 91
        1
280
     0
281
     1
  0
CLASS
  1
IMAGEDEF_REACTOR
  2
AcDbRasterImageDefReactor
  3
ISM
 90
        1
 91
        1
280
     0
281
     0
  0
CLASS
  1
DIMASSOC
  2
AcDbDimAssoc
  3
"AcDbDimAssoc|Product Desc:     AcDim ARX App For Dimension|Company:          Autodesk, Inc.|WEB Address:      www.autodesk.com"
 90
        0
 91
        7
280
     0
281
     0
  0
CLASS
  1
DICTIONARYVAR
  2
AcDbDictionaryVar
  3
ObjectDBX Classes
 90
        0
 91
        8
280
     0
281
     0
  0
CLASS
  1
CELLSTYLEMAP
  2
AcDbCellStyleMap
  3
ObjectDBX Classes
 90
     1152
 91
        2
280
     0
281
     0
  0
CLASS
  1
ACDBSECTIONVIEWSTYLE
  2
AcDbSectionViewStyle
  3
ObjectDBX Classes
 90
     1025
 91
        1
280
     0
281
     0
  0
CLASS
  1
ACDBDETAILVIEWSTYLE
  2
AcDbDetailViewStyle
  3
ObjectDBX Classes
 90
     1025
 91
        1
280
     0
281
     0
  0
CLASS
  1
RASTERVARIABLES
  2
AcDbRasterVariables
  3
ISM
 90
        0
 91
        1
280
     0
281
     0
  0
CLASS
  1
SORTENTSTABLE
  2
AcDbSortentsTable
  3
ObjectDBX Classes
 90
        0
 91
        1
280
     0
281
     0
  0
ENDSEC
  0
SECTION
  2
TABLES
  0
TABLE
  2
VPORT
  5
8
330
0
100
AcDbSymbolTable
 70
    16
  0
VPORT
  5
29
330
8
100
AcDbSymbolTableRecord
100
AcDbViewportTableRecord
  2
*Active
 70
     0
 10
0.0
 20
0.0
 11
1.0
 21
1.0
 12
271.977683610879
 22
246.8062305426519
 13
0.0
 23
0.0
 14
0.5
 24
0.5
 15
0.5
 25
0.5
 16
0.0
 26
0.0
 36
1.0
 17
0.0
 27
0.0
 37
0.0
 40
136.1239172377365
 41
2.188141391106043
 42
50.0
 43
753.735641
 44
-753.735641
 50
0.0
 51
0.0
 71
     0
 72
   100
 73
     1
 74
     3
 75
     0
 76
     0
 77
     0
 78
     0
281
     0
 65
     1
110
237.144248
120
243.731161
130
0.0
111
1.0
121
0.0
131
0.0
112
0.0
122
1.0
132
0.0
 79
     0
146
0.0
1001
ACAD_NAV_VCDISPLAY
1070
     3
  0
VPORT
  5
1BC
330
8
100
AcDbSymbolTableRecord
100
AcDbViewportTableRecord
  2
L1
 70
     0
 10
0.0
 20
0.0
 11
1.0
 21
1.0
 12
382.144681
 22
154.515784
 13
0.0
 23
0.0
 14
0.5
 24
0.5
 15
0.5
 25
0.5
 16
0.0
 26
0.0
 36
1.0
 17
0.0
 27
0.0
 37
0.0
 40
207.433333
 41
0.085602
 42
50.0
 43
753.735641
 44
-753.735641
 50
0.0
 51
0.0
 71
     0
 72
   100
 73
     1
 74
     3
 75
     0
 76
     0
 77
     0
 78
     0
281
     0
 65
     1
110
0.0
120
0.0
130
0.0
111
1.0
121
0.0
131
0.0
112
0.0
122
1.0
132
0.0
 79
     0
146
0.0
  0
VPORT
  5
1BD
330
8
100
AcDbSymbolTableRecord
100
AcDbViewportTableRecord
  2
L2
 70
     0
 10
0.0
 20
0.0
 11
0.5
 21
1.0
 12
0.0
 22
0.0
 13
0.0
 23
0.0
 14
0.5
 24
0.5
 15
0.5
 25
0.5
 16
0.0
 26
-1.0
 36
0.0
 17
0.0
 27
0.0
 37
0.0
 40
1478.660809
 41
0.012009
 42
50.0
 43
765.39502
 44
-765.39502
 50
0.0
 51
0.0
 71
     0
 72
   100
 73
     1
 74
     3
 75
     0
 76
     0
 77
     0
 78
     0
281
     0
 65
     1
110
0.0
120
0.0
130
0.0
111
1.0
121
0.0
131
0.0
112
0.0
122
1.0
132
0.0
 79
     0
146
0.0
  0
VPORT
  5
1BE
330
8
100
AcDbSymbolTableRecord
100
AcDbViewportTableRecord
  2
L2
 70
     0
 10
0.5
 20
0.0
 11
1.0
 21
1.0
 12
0.0
 22
0.0
 13
0.0
 23
0.0
 14
0.5
 24
0.5
 15
0.5
 25
0.5
 16
1.0
 26
0.0
 36
0.0
 17
0.0
 27
0.0
 37
0.0
 40
1478.660809
 41
0.012009
 42
50.0
 43
746.5698859999999
 44
-746.5698859999999
 50
0.0
 51
0.0
 71
     0
 72
   100
 73
     1
 74
     3
 75
     0
 76
     0
 77
     0
 78
     0
281
     0
 65
     1
110
0.0
120
0.0
130
0.0
111
1.0
121
0.0
131
0.0
112
0.0
122
1.0
132
0.0
 79
     0
146
0.0
  0
VPORT
  5
1BF
330
8
100
AcDbSymbolTableRecord
100
AcDbViewportTableRecord
  2
L3
 70
     0
 10
0.0
 20
0.5
 11
1.0
 21
1.0
 12
382.144681
 22
154.515784
 13
0.0
 23
0.0
 14
0.5
 24
0.5
 15
0.5
 25
0.5
 16
0.0
 26
0.0
 36
1.0
 17
0.0
 27
0.0
 37
0.0
 40
207.433333
 41
0.085602
 42
50.0
 43
753.735641
 44
-753.735641
 50
0.0
 51
0.0
 71
     0
 72
   100
 73
     1
 74
     3
 75
     0
 76
     0
 77
     0
 78
     0
281
     0
 65
     1
110
0.0
120
0.0
130
0.0
111
1.0
121
0.0
131
0.0
112
0.0
122
1.0
132
0.0
 79
     0
146
0.0
  0
VPORT
  5
1C0
330
8
100
AcDbSymbolTableRecord
100
AcDbViewportTableRecord
  2
L3
 70
     0
 10
0.0
 20
0.0
 11
1.0
 21
0.5
 12
0.0
 22
0.0
 13
0.0
 23
0.0
 14
0.5
 24
0.5
 15
0.5
 25
0.5
 16
0.0
 26
-1.0
 36
0.0
 17
0.0
 27
0.0
 37
0.0
 40
1478.660809
 41
0.012009
 42
50.0
 43
765.39502
 44
-765.39502
 50
0.0
 51
0.0
 71
     0
 72
   100
 73
     1
 74
     3
 75
     0
 76
     0
 77
     0
 78
     0
281
     0
 65
     1
110
0.0
120
0.0
130
0.0
111
1.0
121
0.0
131
0.0
112
0.0
122
1.0
132
0.0
 79
     0
146
0.0
  0
VPORT
  5
1C1
330
8
100
AcDbSymbolTableRecord
100
AcDbViewportTableRecord
  2
L4
 70
     0
 10
0.0
 20
0.5
 11
0.5
 21
1.0
 12
382.144681
 22
154.515784
 13
0.0
 23
0.0
 14
0.5
 24
0.5
 15
0.5
 25
0.5
 16
0.0
 26
0.0
 36
1.0
 17
0.0
 27
0.0
 37
0.0
 40
207.433333
 41
0.085602
 42
50.0
 43
753.735641
 44
-753.735641
 50
0.0
 51
0.0
 71
     0
 72
   100
 73
     1
 74
     3
 75
     0
 76
     0
 77
     0
 78
     0
281
     0
 65
     1
110
0.0
120
0.0
130
0.0
111
1.0
121
0.0
131
0.0
112
0.0
122
1.0
132
0.0
 79
     0
146
0.0
  0
VPORT
  5
1C2
330
8
100
AcDbSymbolTableRecord
100
AcDbViewportTableRecord
  2
L4
 70
     0
 10
0.0
 20
0.0
 11
0.5
 21
0.5
 12
0.0
 22
0.0
 13
0.0
 23
0.0
 14
0.5
 24
0.5
 15
0.5
 25
0.5
 16
0.0
 26
-1.0
 36
0.0
 17
0.0
 27
0.0
 37
0.0
 40
1478.660809
 41
0.012009
 42
50.0
 43
765.39502
 44
-765.39502
 50
0.0
 51
0.0
 71
     0
 72
   100
 73
     1
 74
     3
 75
     0
 76
     0
 77
     0
 78
     0
281
     0
 65
     1
110
0.0
120
0.0
130
0.0
111
1.0
121
0.0
131
0.0
112
0.0
122
1.0
132
0.0
 79
     0
146
0.0
  0
VPORT
  5
1C3
330
8
100
AcDbSymbolTableRecord
100
AcDbViewportTableRecord
  2
L4
 70
     0
 10
0.5
 20
0.0
 11
1.0
 21
0.5
 12
0.0
 22
0.0
 13
0.0
 23
0.0
 14
0.5
 24
0.5
 15
0.5
 25
0.5
 16
1.0
 26
0.0
 36
0.0
 17
0.0
 27
0.0
 37
0.0
 40
1478.660809
 41
0.012009
 42
50.0
 43
746.5698859999999
 44
-746.5698859999999
 50
0.0
 51
0.0
 71
     0
 72
   100
 73
     1
 74
     3
 75
     0
 76
     0
 77
     0
 78
     0
281
     0
 65
     1
110
0.0
120
0.0
130
0.0
111
1.0
121
0.0
131
0.0
112
0.0
122
1.0
132
0.0
 79
     0
146
0.0
  0
VPORT
  5
1C4
330
8
100
AcDbSymbolTableRecord
100
AcDbViewportTableRecord
  2
L4
 70
     0
 10
0.5
 20
0.5
 11
1.0
 21
1.0
 12
0.0
 22
0.0
 13
0.0
 23
0.0
 14
0.5
 24
0.5
 15
0.5
 25
0.5
 16
0.5773502691896259
 26
-0.5773502691896259
 36
0.5773502691896259
 17
0.0
 27
0.0
 37
0.0
 40
1453.705292
 41
0.012215
 42
50.0
 43
757.5245879999999
 44
-757.5245879999999
 50
0.0
 51
0.0
 71
     0
 72
   100
 73
     1
 74
     3
 75
     0
 76
     0
 77
     0
 78
     0
281
     0
 65
     1
110
0.0
120
0.0
130
0.0
111
1.0
121
0.0
131
0.0
112
0.0
122
1.0
132
0.0
 79
     0
146
0.0
  0
VPORT
  5
1C5
330
8
100
AcDbSymbolTableRecord
100
AcDbViewportTableRecord
  2
L6
 70
     0
 10
0.0
 20
0.5
 11
0.333333
 21
1.0
 12
0.0
 22
0.0
 13
0.0
 23
0.0
 14
0.5
 24
0.5
 15
0.5
 25
0.5
 16
0.7188730927569434
 26
-0.5850486126764433
 36
0.3754192287502549
 17
0.0
 27
0.0
 37
0.0
 40
1534.989881
 41
0.011568
 42
50.0
 43
794.5176169999999
 44
-794.5176169999999
 50
0.0
 51
0.0
 71
     0
 72
   100
 73
     1
 74
     3
 75
     0
 76
     0
 77
     0
 78
     0
281
     0
 65
     1
110
0.0
120
0.0
130
0.0
111
1.0
121
0.0
131
0.0
112
0.0
122
1.0
132
0.0
 79
     0
146
0.0
  0
VPORT
  5
1C6
330
8
100
AcDbSymbolTableRecord
100
AcDbViewportTableRecord
  2
L6
 70
     0
 10
0.0
 20
0.0
 11
0.333333
 21
0.5
 12
0.0
 22
0.0
 13
0.0
 23
0.0
 14
0.5
 24
0.5
 15
0.5
 25
0.5
 16
-1.0
 26
0.0
 36
0.0
 17
0.0
 27
0.0
 37
0.0
 40
1478.660809
 41
0.012009
 42
50.0
 43
746.5698859999999
 44
-746.5698859999999
 50
0.0
 51
0.0
 71
     0
 72
   100
 73
     1
 74
     3
 75
     0
 76
     0
 77
     0
 78
     0
281
     0
 65
     1
110
0.0
120
0.0
130
0.0
111
1.0
121
0.0
131
0.0
112
0.0
122
1.0
132
0.0
 79
     0
146
0.0
  0
VPORT
  5
1C7
330
8
100
AcDbSymbolTableRecord
100
AcDbViewportTableRecord
  2
L6
 70
     0
 10
0.333333
 20
0.5
 11
0.666667
 21
1.0
 12
382.144681
 22
154.515784
 13
0.0
 23
0.0
 14
0.5
 24
0.5
 15
0.5
 25
0.5
 16
0.0
 26
0.0
 36
1.0
 17
0.0
 27
0.0
 37
0.0
 40
207.433333
 41
0.085602
 42
50.0
 43
753.735641
 44
-753.735641
 50
0.0
 51
0.0
 71
     0
 72
   100
 73
     1
 74
     3
 75
     0
 76
     0
 77
     0
 78
     0
281
     0
 65
     1
110
0.0
120
0.0
130
0.0
111
1.0
121
0.0
131
0.0
112
0.0
122
1.0
132
0.0
 79
     0
146
0.0
  0
VPORT
  5
1C8
330
8
100
AcDbSymbolTableRecord
100
AcDbViewportTableRecord
  2
L6
 70
     0
 10
0.333333
 20
0.0
 11
0.666667
 21
0.5
 12
0.0
 22
0.0
 13
0.0
 23
0.0
 14
0.5
 24
0.5
 15
0.5
 25
0.5
 16
0.0
 26
-1.0
 36
0.0
 17
0.0
 27
0.0
 37
0.0
 40
1478.660809
 41
0.012009
 42
50.0
 43
765.39502
 44
-765.39502
 50
0.0
 51
0.0
 71
     0
 72
   100
 73
     1
 74
     3
 75
     0
 76
     0
 77
     0
 78
     0
281
     0
 65
     1
110
0.0
120
0.0
130
0.0
111
1.0
121
0.0
131
0.0
112
0.0
122
1.0
132
0.0
 79
     0
146
0.0
  0
VPORT
  5
1C9
330
8
100
AcDbSymbolTableRecord
100
AcDbViewportTableRecord
  2
L6
 70
     0
 10
0.666667
 20
0.5
 11
1.0
 21
1.0
 12
0.0
 22
0.0
 13
0.0
 23
0.0
 14
0.5
 24
0.5
 15
0.5
 25
0.5
 16
0.5773502691896259
 26
-0.5773502691896259
 36
0.5773502691896259
 17
0.0
 27
0.0
 37
0.0
 40
1453.705292
 41
0.012215
 42
50.0
 43
757.5245879999999
 44
-757.5245879999999
 50
0.0
 51
0.0
 71
     0
 72
   100
 73
     1
 74
     3
 75
     0
 76
     0
 77
     0
 78
     0
281
     0
 65
     1
110
0.0
120
0.0
130
0.0
111
1.0
121
0.0
131
0.0
112
0.0
122
1.0
132
0.0
 79
     0
146
0.0
  0
VPORT
  5
1CA
330
8
100
AcDbSymbolTableRecord
100
AcDbViewportTableRecord
  2
L6
 70
     0
 10
0.666667
 20
0.0
 11
1.0
 21
0.5
 12
0.0
 22
0.0
 13
0.0
 23
0.0
 14
0.5
 24
0.5
 15
0.5
 25
0.5
 16
1.0
 26
0.0
 36
0.0
 17
0.0
 27
0.0
 37
0.0
 40
1478.660809
 41
0.012009
 42
50.0
 43
746.5698859999999
 44
-746.5698859999999
 50
0.0
 51
0.0
 71
     0
 72
   100
 73
     1
 74
     3
 75
     0
 76
     0
 77
     0
 78
     0
281
     0
 65
     1
110
0.0
120
0.0
130
0.0
111
1.0
121
0.0
131
0.0
112
0.0
122
1.0
132
0.0
 79
     0
146
0.0
  0
ENDTAB
  0
TABLE
  2
LTYPE
  5
5
330
0
100
AcDbSymbolTable
 70
     8
  0
LTYPE
  5
14
330
5
100
AcDbSymbolTableRecord
100
AcDbLinetypeTableRecord
  2
ByBlock
 70
     0
  3

 72
    65
 73
     0
 40
0.0
  0
LTYPE
  5
15
330
5
100
AcDbSymbolTableRecord
100
AcDbLinetypeTableRecord
  2
ByLayer
 70
     0
  3

 72
    65
 73
     0
 40
0.0
  0
LTYPE
  5
16
330
5
100
AcDbSymbolTableRecord
100
AcDbLinetypeTableRecord
  2
Continuous
 70
     0
  3
Solid line
 72
    65
 73
     0
 40
0.0
  0
LTYPE
  5
6E
330
5
100
AcDbSymbolTableRecord
100
AcDbLinetypeTableRecord
  2
CENTER
 70
     0
  3
____ _ ____ _ ____ _ ____
 72
    65
 73
     4
 40
47.4
 49
22.0
 74
     4
 75
     0
340
0
 46
0.0
 50
0.0
 44
0.0
 45
0.0
 49
-8.5
 74
     4
 75
     0
340
0
 46
0.0
 50
0.0
 44
0.0
 45
0.0
 49
8.5
 74
     4
 75
     0
340
0
 46
0.0
 50
0.0
 44
0.0
 45
0.0
 49
-8.5
 74
     4
 75
     0
340
0
 46
0.0
 50
0.0
 44
0.0
 45
0.0
  0
LTYPE
  5
6F
330
5
100
AcDbSymbolTableRecord
100
AcDbLinetypeTableRecord
  2
DASHDOT
 70
     0
  3
_._._._._._._._._._._._._._._._.
 72
    65
 73
     4
 40
70.0
 49
31.0
 74
     4
 75
     0
340
0
 46
0.0
 50
0.0
 44
0.0
 45
0.0
 49
-13.0
 74
     4
 75
     0
340
0
 46
0.0
 50
0.0
 44
0.0
 45
0.0
 49
13.0
 74
     4
 75
     0
340
0
 46
0.0
 50
0.0
 44
0.0
 45
0.0
 49
-13.0
 74
     4
 75
     0
340
0
 46
0.0
 50
0.0
 44
0.0
 45
0.0
  0
LTYPE
  5
70
330
5
100
AcDbSymbolTableRecord
100
AcDbLinetypeTableRecord
  2
DASHED
 70
     0
  3
__ __ __ __ __ __ __ __ __
 72
    65
 73
     2
 40
25.72
 49
12.86
 74
     4
 75
     0
340
0
 46
0.0
 50
0.0
 44
0.0
 45
0.0
 49
-12.86
 74
     4
 75
     0
340
0
 46
0.0
 50
0.0
 44
0.0
 45
0.0
  0
LTYPE
  5
71
330
5
100
AcDbSymbolTableRecord
100
AcDbLinetypeTableRecord
  2
DOT
 70
     0
  3
.........................
 72
    65
 73
     2
 40
10.0
 49
0.0
 74
     4
 75
     0
340
0
 46
0.0
 50
0.0
 44
0.0
 45
0.0
 49
-10.0
 74
     4
 75
     0
340
0
 46
0.0
 50
0.0
 44
0.0
 45
0.0
  0
LTYPE
  5
72
330
5
100
AcDbSymbolTableRecord
100
AcDbLinetypeTableRecord
  2
PHANTOM
 70
     0
  3
____ _ _ ____ _ _ _____ _ _ ____
 72
    65
 73
     6
 40
50.5
 49
18.0
 74
     4
 75
     0
340
0
 46
0.0
 50
0.0
 44
0.0
 45
0.0
 49
-6.5
 74
     4
 75
     0
340
0
 46
0.0
 50
0.0
 44
0.0
 45
0.0
 49
6.5
 74
     4
 75
     0
340
0
 46
0.0
 50
0.0
 44
0.0
 45
0.0
 49
-6.5
 74
     4
 75
     0
340
0
 46
0.0
 50
0.0
 44
0.0
 45
0.0
 49
6.5
 74
     4
 75
     0
340
0
 46
0.0
 50
0.0
 44
0.0
 45
0.0
 49
-6.5
 74
     4
 75
     0
340
0
 46
0.0
 50
0.0
 44
0.0
 45
0.0
  0
LTYPE
  5
39A
330
5
100
AcDbSymbolTableRecord
100
AcDbLinetypeTableRecord
  2
CENTER2
 70
     0
  3
Center (.5x) ___ _ ___ _ ___ _ ___ _ ___ _ ___
 72
    65
 73
     4
 40
1.125
 49
0.75
 74
     0
 49
-0.125
 74
     0
 49
0.125
 74
     0
 49
-0.125
 74
     0
  0
ENDTAB
  0
TABLE
  2
LAYER
  5
2
102
{ACAD_XDICTIONARY
360
3C6
102
}
330
0
100
AcDbSymbolTable
 70
    21
  0
LAYER
  5
10
102
{ACAD_XDICTIONARY
360
3AB
102
}
330
2
100
AcDbSymbolTableRecord
100
AcDbLayerTableRecord
  2
0
 70
     0
 62
     7
  6
Continuous
370
    -3
390
F
  0
LAYER
  5
110
330
2
100
AcDbSymbolTableRecord
100
AcDbLayerTableRecord
  2
Defpoints
 70
     0
 62
     7
  6
Continuous
290
     0
370
    -3
390
F
  0
LAYER
  5
397
102
{ACAD_XDICTIONARY
360
3AD
102
}
330
2
100
AcDbSymbolTableRecord
100
AcDbLayerTableRecord
  2
1
 70
     0
 62
     4
  6
Continuous
370
    -3
390
F
  0
LAYER
  5
398
102
{ACAD_XDICTIONARY
360
3AF
102
}
330
2
100
AcDbSymbolTableRecord
100
AcDbLayerTableRecord
  2
2
 70
     0
 62
     7
  6
Continuous
370
    -3
390
F
  0
LAYER
  5
399
102
{ACAD_XDICTIONARY
360
3B1
102
}
330
2
100
AcDbSymbolTableRecord
100
AcDbLayerTableRecord
  2
4
 70
     0
 62
     2
  6
CENTER2
370
    -3
390
F
  0
LAYER
  5
39B
102
{ACAD_XDICTIONARY
360
3B3
102
}
330
2
100
AcDbSymbolTableRecord
100
AcDbLayerTableRecord
  2
SK1
 70
     0
 62
     4
  6
Continuous
370
    -3
390
F
  0
LAYER
  5
39C
102
{ACAD_XDICTIONARY
360
3B5
102
}
330
2
100
AcDbSymbolTableRecord
100
AcDbLayerTableRecord
  2
SK2
 70
     0
 62
     7
  6
Continuous
370
    -3
390
F
  0
LAYER
  5
39E
102
{ACAD_XDICTIONARY
360
3B7
102
}
330
2
100
AcDbSymbolTableRecord
100
AcDbLayerTableRecord
  2
SK4
 70
     0
 62
     2
  6
CENTER2
370
    -3
390
F
  0
LAYER
  5
39F
102
{ACAD_XDICTIONARY
360
3B9
102
}
330
2
100
AcDbSymbolTableRecord
100
AcDbLayerTableRecord
  2
SK6
 70
     0
 62
     5
  6
Continuous
370
    -3
390
F
  0
LAYER
  5
3A0
102
{ACAD_XDICTIONARY
360
3BB
102
}
330
2
100
AcDbSymbolTableRecord
100
AcDbLayerTableRecord
  2
CUT
 70
     0
 62
     1
  6
Continuous
370
    -3
390
F
  0
LAYER
  5
3A1
102
{ACAD_XDICTIONARY
360
3BD
102
}
330
2
100
AcDbSymbolTableRecord
100
AcDbLayerTableRecord
  2
NOCUT
 70
     0
 62
     7
  6
Continuous
370
    -3
390
F
  0
LAYER
  5
3A2
102
{ACAD_XDICTIONARY
360
3BF
102
}
330
2
100
AcDbSymbolTableRecord
100
AcDbLayerTableRecord
  2
80
 70
     0
 62
     6
  6
Continuous
370
    -3
390
F
  0
LAYER
  5
3A3
102
{ACAD_XDICTIONARY
360
3C1
102
}
330
2
100
AcDbSymbolTableRecord
100
AcDbLayerTableRecord
  2
81
 70
     0
 62
     3
  6
Continuous
370
    -3
390
F
  0
ENDTAB
  0
TABLE
  2
STYLE
  5
3
330
0
100
AcDbSymbolTable
 70
     3
  0
STYLE
  5
11
330
3
100
AcDbSymbolTableRecord
100
AcDbTextStyleTableRecord
  2
Standard
 70
     0
 40
0.0
 41
1.0
 50
0.0
 71
     0
 42
0.2
  3
txt
  4

  0
STYLE
  5
101
330
3
100
AcDbSymbolTableRecord
100
AcDbTextStyleTableRecord
  2
cesky
 70
     0
 40
0.0
 41
1.0
 50
0.0
 71
     0
 42
0.2
  3
simplex.shx
  4

  0
STYLE
  5
102
330
3
100
AcDbSymbolTableRecord
100
AcDbTextStyleTableRecord
  2
DWGDirectTextStyle
 70
     0
 40
0.0
 41
1.0
 50
0.0
 71
     0
 42
0.2
  3
simplex
  4

  0
ENDTAB
  0
TABLE
  2
VIEW
  5
6
330
0
100
AcDbSymbolTable
 70
     1
  0
ENDTAB
  0
TABLE
  2
UCS
  5
7
330
0
100
AcDbSymbolTable
 70
     0
  0
ENDTAB
  0
TABLE
  2
APPID
  5
9
330
0
100
AcDbSymbolTable
 70
     7
  0
APPID
  5
12
330
9
100
AcDbSymbolTableRecord
100
AcDbRegAppTableRecord
  2
ACAD
 70
     0
  0
APPID
  5
10C
330
9
100
AcDbSymbolTableRecord
100
AcDbRegAppTableRecord
  2
ACAD_DSTYLE_DIMBREAK
 70
     0
  0
APPID
  5
1CB
330
9
100
AcDbSymbolTableRecord
100
AcDbRegAppTableRecord
  2
ACAD_DSTYLE_DIM_LINETYPE
 70
     0
  0
APPID
  5
1CC
330
9
100
AcDbSymbolTableRecord
100
AcDbRegAppTableRecord
  2
ACAD_DSTYLE_DIM_EXT1_LINETYPE
 70
     0
  0
APPID
  5
1CD
330
9
100
AcDbSymbolTableRecord
100
AcDbRegAppTableRecord
  2
ACAD_DSTYLE_DIM_EXT2_LINETYPE
 70
     0
  0
APPID
  5
20D
330
9
100
AcDbSymbolTableRecord
100
AcDbRegAppTableRecord
  2
ACAD_MLEADERVER
 70
     0
  0
APPID
  5
3CF
330
9
100
AcDbSymbolTableRecord
100
AcDbRegAppTableRecord
  2
ACAD_NAV_VCDISPLAY
 70
     0
  0
ENDTAB
  0
TABLE
  2
DIMSTYLE
  5
A
330
0
100
AcDbSymbolTable
 70
     2
100
AcDbDimStyleTable
 71
     1
340
27
  0
DIMSTYLE
105
27
330
A
100
AcDbSymbolTableRecord
100
AcDbDimStyleTableRecord
  2
Standard
 70
     0
340
11
1001
ACAD_DSTYLE_DIMBREAK
1070
   391
1040
6.349999999999999
  0
ENDTAB
  0
TABLE
  2
BLOCK_RECORD
  5
1
330
0
100
AcDbSymbolTable
 70
    16
  0
BLOCK_RECORD
  5
1F
102
{ACAD_XDICTIONARY
360
21E
102
}
330
1
100
AcDbSymbolTableRecord
100
AcDbBlockTableRecord
  2
*Model_Space
340
22
  0
BLOCK_RECORD
  5
1B
330
1
100
AcDbSymbolTableRecord
100
AcDbBlockTableRecord
  2
*Paper_Space
340
1E
  0
BLOCK_RECORD
  5
23
330
1
100
AcDbSymbolTableRecord
100
AcDbBlockTableRecord
  2
*Paper_Space0
340
26
  0
BLOCK_RECORD
  5
111
330
1
100
AcDbSymbolTableRecord
100
AcDbBlockTableRecord
  2
*D1
340
0
  0
BLOCK_RECORD
  5
11D
330
1
100
AcDbSymbolTableRecord
100
AcDbBlockTableRecord
  2
_U0
340
0
  0
BLOCK_RECORD
  5
129
330
1
100
AcDbSymbolTableRecord
100
AcDbBlockTableRecord
  2
*D3
340
0
  0
BLOCK_RECORD
  5
136
330
1
100
AcDbSymbolTableRecord
100
AcDbBlockTableRecord
  2
_U1
340
0
  0
BLOCK_RECORD
  5
142
330
1
100
AcDbSymbolTableRecord
100
AcDbBlockTableRecord
  2
*D5
340
0
  0
BLOCK_RECORD
  5
14E
330
1
100
AcDbSymbolTableRecord
100
AcDbBlockTableRecord
  2
_U2
340
0
  0
BLOCK_RECORD
  5
15A
330
1
100
AcDbSymbolTableRecord
100
AcDbBlockTableRecord
  2
*D7
340
0
  0
BLOCK_RECORD
  5
165
330
1
100
AcDbSymbolTableRecord
100
AcDbBlockTableRecord
  2
_U3
340
0
  0
BLOCK_RECORD
  5
170
330
1
100
AcDbSymbolTableRecord
100
AcDbBlockTableRecord
  2
*D9
340
0
  0
BLOCK_RECORD
  5
17E
330
1
100
AcDbSymbolTableRecord
100
AcDbBlockTableRecord
  2
_U4
340
0
  0
BLOCK_RECORD
  5
18B
330
1
100
AcDbSymbolTableRecord
100
AcDbBlockTableRecord
  2
*D11
340
0
  0
BLOCK_RECORD
  5
199
330
1
100
AcDbSymbolTableRecord
100
AcDbBlockTableRecord
  2
_U5
340
0
  0
BLOCK_RECORD
  5
1A6
330
1
100
AcDbSymbolTableRecord
100
AcDbBlockTableRecord
  2
*D13
340
0
  0
BLOCK_RECORD
  5
1B2
330
1
100
AcDbSymbolTableRecord
100
AcDbBlockTableRecord
  2
_U6
340
0
  0
ENDTAB
  0
ENDSEC
  0
SECTION
  2
BLOCKS
  0
BLOCK
  5
20
330
1F
100
AcDbEntity
  8
0
100
AcDbBlockBegin
  2
*Model_Space
 70
     0
 10
0.0
 20
0.0
 30
0.0
  3
*Model_Space
  1

  0
ENDBLK
  5
21
330
1F
100
AcDbEntity
  8
0
100
AcDbBlockEnd
  0
BLOCK
  5
1C
330
1B
100
AcDbEntity
 67
     1
  8
0
100
AcDbBlockBegin
  2
*Paper_Space
 70
     0
 10
0.0
 20
0.0
 30
0.0
  3
*Paper_Space
  1

  0
ENDBLK
  5
1D
330
1B
100
AcDbEntity
 67
     1
  8
0
100
AcDbBlockEnd
  0
BLOCK
  5
24
330
23
100
AcDbEntity
 67
     1
  8
0
100
AcDbBlockBegin
  2
*Paper_Space0
 70
     0
 10
0.0
 20
0.0
 30
0.0
  3
*Paper_Space0
  1

  0
ENDBLK
  5
25
330
23
100
AcDbEntity
 67
     1
  8
0
100
AcDbBlockEnd
  0
BLOCK
  5
112
330
111
100
AcDbEntity
  8
0
100
AcDbBlockBegin
  2
*D1
 70
     1
 10
0.0
 20
0.0
 30
0.0
  3
*D1
  1

  0
LINE
  5
114
330
111
100
AcDbEntity
  8
0
 62
    95
370
    -2
100
AcDbLine
 10
237.144248
 20
243.731161
 30
0.0
 11
237.144248
 21
274.952478
 31
0.0
  0
LINE
  5
115
330
111
100
AcDbEntity
  8
0
 62
    95
370
    -2
100
AcDbLine
 10
324.144248
 20
250.731161
 30
0.0
 11
324.144248
 21
274.952478
 31
0.0
  0
LINE
  5
116
330
111
100
AcDbEntity
  8
0
 62
    95
370
    -2
100
AcDbLine
 10
240.644248
 20
273.952478
 30
0.0
 11
320.644248
 21
273.952478
 31
0.0
  0
SOLID
  5
117
330
111
100
AcDbEntity
  8
0
 62
    95
100
AcDbTrace
 10
240.644248
 20
274.535811
 30
0.0
 11
240.644248
 21
273.369144
 31
0.0
 12
237.144248
 22
273.952478
 32
0.0
 13
237.144248
 23
273.952478
 33
0.0
  0
SOLID
  5
118
330
111
100
AcDbEntity
  8
0
 62
    95
100
AcDbTrace
 10
320.644248
 20
273.369144
 30
0.0
 11
320.644248
 21
274.535811
 31
0.0
 12
324.144248
 22
273.952478
 32
0.0
 13
324.144248
 23
273.952478
 33
0.0
  0
MTEXT
  5
119
330
111
100
AcDbEntity
  8
0
 62
    95
370
    13
100
AcDbMText
 10
280.644248
 20
279.202478
 30
0.0
 40
3.5
 41
0.0
 71
     5
 72
     1
  1
\A1;87
  7
cesky
 73
     1
 44
1.0
  0
POINT
  5
11A
330
111
100
AcDbEntity
  8
Defpoints
 62
     0
100
AcDbPoint
 10
237.144248
 20
243.731161
 30
0.0
  0
POINT
  5
11B
330
111
100
AcDbEntity
  8
Defpoints
 62
     0
100
AcDbPoint
 10
324.144248
 20
250.731161
 30
0.0
  0
POINT
  5
11C
330
111
100
AcDbEntity
  8
Defpoints
 62
     0
100
AcDbPoint
 10
324.144248
 20
273.952478
 30
0.0
  0
ENDBLK
  5
113
330
111
100
AcDbEntity
  8
0
100
AcDbBlockEnd
  0
BLOCK
  5
124
330
11D
100
AcDbEntity
  8
0
100
AcDbBlockBegin
  2
_U0
 70
     0
 10
0.0
 20
0.0
 30
0.0
  3
_U0
  1

  0
ENDBLK
  5
125
330
11D
100
AcDbEntity
  8
0
100
AcDbBlockEnd
  0
BLOCK
  5
12A
330
129
100
AcDbEntity
  8
0
100
AcDbBlockBegin
  2
*D3
 70
     1
 10
0.0
 20
0.0
 30
0.0
  3
*D3
  1

  0
LINE
  5
12C
330
129
100
AcDbEntity
  8
0
 62
   254
370
    -2
100
AcDbLine
 10
324.144248
 20
250.731161
 30
0.0
 11
324.144248
 21
253.287651
 31
0.0
  0
LINE
  5
12D
330
129
100
AcDbEntity
  8
0
 62
   254
370
    -2
100
AcDbLine
 10
319.14451
 20
243.731161
 30
0.0
 11
319.14451
 21
253.287651
 31
0.0
  0
LINE
  5
12E
330
129
100
AcDbEntity
  8
0
 62
   254
370
    -2
100
AcDbLine
 10
327.644248
 20
252.287651
 30
0.0
 11
331.144248
 21
252.287651
 31
0.0
  0
LINE
  5
12F
330
129
100
AcDbEntity
  8
0
 62
   254
370
    -2
100
AcDbLine
 10
315.64451
 20
252.287651
 30
0.0
 11
312.14451
 21
252.287651
 31
0.0
  0
SOLID
  5
130
330
129
100
AcDbEntity
  8
0
 62
   254
100
AcDbTrace
 10
327.644248
 20
252.870985
 30
0.0
 11
327.644248
 21
251.704318
 31
0.0
 12
324.144248
 22
252.287651
 32
0.0
 13
324.144248
 23
252.287651
 33
0.0
  0
SOLID
  5
131
330
129
100
AcDbEntity
  8
0
 62
   254
100
AcDbTrace
 10
315.64451
 20
251.704318
 30
0.0
 11
315.64451
 21
252.870985
 31
0.0
 12
319.14451
 22
252.287651
 32
0.0
 13
319.14451
 23
252.287651
 33
0.0
  0
MTEXT
  5
132
330
129
100
AcDbEntity
  8
0
 62
   254
370
    13
100
AcDbMText
 10
321.644379
 20
257.537651
 30
0.0
 40
3.5
 41
0.0
 71
     5
 72
     1
  1
\A1;5
  7
cesky
 73
     1
 44
1.0
  0
POINT
  5
133
330
129
100
AcDbEntity
  8
Defpoints
 62
     0
100
AcDbPoint
 10
324.144248
 20
250.731161
 30
0.0
  0
POINT
  5
134
330
129
100
AcDbEntity
  8
Defpoints
 62
     0
100
AcDbPoint
 10
319.14451
 20
243.731161
 30
0.0
  0
POINT
  5
135
330
129
100
AcDbEntity
  8
Defpoints
 62
     0
100
AcDbPoint
 10
319.14451
 20
252.287651
 30
0.0
  0
ENDBLK
  5
12B
330
129
100
AcDbEntity
  8
0
100
AcDbBlockEnd
  0
BLOCK
  5
13D
330
136
100
AcDbEntity
  8
0
100
AcDbBlockBegin
  2
_U1
 70
     0
 10
0.0
 20
0.0
 30
0.0
  3
_U1
  1

  0
ENDBLK
  5
13E
330
136
100
AcDbEntity
  8
0
100
AcDbBlockEnd
  0
BLOCK
  5
143
330
142
100
AcDbEntity
  8
0
100
AcDbBlockBegin
  2
*D5
 70
     1
 10
0.0
 20
0.0
 30
0.0
  3
*D5
  1

  0
LINE
  5
145
330
142
100
AcDbEntity
  8
0
 62
   254
370
    -2
100
AcDbLine
 10
302.309338
 20
243.731161
 30
0.0
 11
302.309338
 21
260.433595
 31
0.0
  0
LINE
  5
146
330
142
100
AcDbEntity
  8
0
 62
   254
370
    -2
100
AcDbLine
 10
324.144248
 20
248.731161
 30
0.0
 11
324.144248
 21
260.433595
 31
0.0
  0
LINE
  5
147
330
142
100
AcDbEntity
  8
0
 62
   254
370
    -2
100
AcDbLine
 10
305.809338
 20
259.433595
 30
0.0
 11
320.644248
 21
259.433595
 31
0.0
  0
SOLID
  5
148
330
142
100
AcDbEntity
  8
0
 62
   254
100
AcDbTrace
 10
305.809338
 20
260.016928
 30
0.0
 11
305.809338
 21
258.850261
 31
0.0
 12
302.309338
 22
259.433595
 32
0.0
 13
302.309338
 23
259.433595
 33
0.0
  0
SOLID
  5
149
330
142
100
AcDbEntity
  8
0
 62
   254
100
AcDbTrace
 10
320.644248
 20
258.850261
 30
0.0
 11
320.644248
 21
260.016928
 31
0.0
 12
324.144248
 22
259.433595
 32
0.0
 13
324.144248
 23
259.433595
 33
0.0
  0
MTEXT
  5
14A
330
142
100
AcDbEntity
  8
0
 62
   254
370
    13
100
AcDbMText
 10
313.2267930000001
 20
264.683595
 30
0.0
 40
3.5
 41
0.0
 71
     5
 72
     1
  1
\A1;21.8
  7
cesky
 73
     1
 44
1.0
  0
POINT
  5
14B
330
142
100
AcDbEntity
  8
Defpoints
 62
     0
100
AcDbPoint
 10
302.309338
 20
243.731161
 30
0.0
  0
POINT
  5
14C
330
142
100
AcDbEntity
  8
Defpoints
 62
     0
100
AcDbPoint
 10
324.144248
 20
248.731161
 30
0.0
  0
POINT
  5
14D
330
142
100
AcDbEntity
  8
Defpoints
 62
     0
100
AcDbPoint
 10
324.144248
 20
259.433595
 30
0.0
  0
ENDBLK
  5
144
330
142
100
AcDbEntity
  8
0
100
AcDbBlockEnd
  0
BLOCK
  5
155
330
14E
100
AcDbEntity
  8
0
100
AcDbBlockBegin
  2
_U2
 70
     0
 10
0.0
 20
0.0
 30
0.0
  3
_U2
  1

  0
ENDBLK
  5
156
330
14E
100
AcDbEntity
  8
0
100
AcDbBlockEnd
  0
BLOCK
  5
15B
330
15A
100
AcDbEntity
  8
0
100
AcDbBlockBegin
  2
*D7
 70
     1
 10
0.0
 20
0.0
 30
0.0
  3
*D7
  1

  0
LINE
  5
15D
330
15A
100
AcDbEntity
  8
0
 62
   254
370
    -2
100
AcDbLine
 10
302.309338
 20
243.731161
 30
0.0
 11
338.92357
 21
243.731161
 31
0.0
  0
LINE
  5
15E
330
15A
100
AcDbEntity
  8
0
 62
   254
370
    -2
100
AcDbLine
 10
326.144248
 20
248.731161
 30
0.0
 11
338.92357
 21
248.731161
 31
0.0
  0
LINE
  5
15F
330
15A
100
AcDbEntity
  8
0
 62
   254
370
    -2
100
AcDbLine
 10
337.9235700000001
 20
252.231161
 30
0.0
 11
337.9235700000001
 21
255.731161
 31
0.0
  0
SOLID
  5
160
330
15A
100
AcDbEntity
  8
0
 62
   254
100
AcDbTrace
 10
337.340237
 20
252.231161
 30
0.0
 11
338.506903
 21
252.231161
 31
0.0
 12
337.9235700000001
 22
248.731161
 32
0.0
 13
337.9235700000001
 23
248.731161
 33
0.0
  0
MTEXT
  5
161
330
15A
100
AcDbEntity
  8
0
 62
   254
370
    13
100
AcDbMText
 10
332.67357
 20
230.731161
 30
0.0
 40
3.5
 41
0.0
 71
     5
 72
     1
  1
\A1;10
  7
cesky
 11
0.0
 21
1.0
 31
0.0
 73
     1
 44
1.0
  0
POINT
  5
162
330
15A
100
AcDbEntity
  8
Defpoints
 62
     0
100
AcDbPoint
 10
302.309338
 20
243.731161
 30
0.0
  0
POINT
  5
163
330
15A
100
AcDbEntity
  8
Defpoints
 62
     0
100
AcDbPoint
 10
326.144248
 20
248.731161
 30
0.0
  0
POINT
  5
164
330
15A
100
AcDbEntity
  8
Defpoints
 62
     0
100
AcDbPoint
 10
337.9235700000001
 20
248.731161
 30
0.0
  0
ENDBLK
  5
15C
330
15A
100
AcDbEntity
  8
0
100
AcDbBlockEnd
  0
BLOCK
  5
16B
330
165
100
AcDbEntity
  8
0
100
AcDbBlockBegin
  2
_U3
 70
     0
 10
0.0
 20
0.0
 30
0.0
  3
_U3
  1

  0
ENDBLK
  5
16C
330
165
100
AcDbEntity
  8
0
100
AcDbBlockEnd
  0
BLOCK
  5
171
330
170
100
AcDbEntity
  8
0
100
AcDbBlockBegin
  2
*D9
 70
     1
 10
0.0
 20
0.0
 30
0.0
  3
*D9
  1

  0
LINE
  5
173
330
170
100
AcDbEntity
  8
0
 62
    95
370
    -2
100
AcDbLine
 10
198.286812
 20
249.729911
 30
0.0
 11
181.673209
 21
249.729911
 31
0.0
  0
LINE
  5
174
330
170
100
AcDbEntity
  8
0
 62
    95
370
    -2
100
AcDbLine
 10
205.380428
 20
237.732411
 30
0.0
 11
181.673209
 21
237.732411
 31
0.0
  0
LINE
  5
175
330
170
100
AcDbEntity
  8
0
 62
    95
370
    -2
100
AcDbLine
 10
182.673209
 20
237.732411
 30
0.0
 11
182.673209
 21
218.732411
 31
0.0
  0
LINE
  5
176
330
170
100
AcDbEntity
  8
0
 62
    95
370
    -2
100
AcDbLine
 10
182.673209
 20
253.229911
 30
0.0
 11
182.673209
 21
256.7299109999999
 31
0.0
  0
LINE
  5
177
330
170
100
AcDbEntity
  8
0
 62
    95
370
    -2
100
AcDbLine
 10
182.673209
 20
234.232411
 30
0.0
 11
182.673209
 21
230.732411
 31
0.0
  0
SOLID
  5
178
330
170
100
AcDbEntity
  8
0
 62
    95
100
AcDbTrace
 10
182.089876
 20
253.229911
 30
0.0
 11
183.256543
 21
253.229911
 31
0.0
 12
182.673209
 22
249.729911
 32
0.0
 13
182.673209
 23
249.729911
 33
0.0
  0
SOLID
  5
179
330
170
100
AcDbEntity
  8
0
 62
    95
100
AcDbTrace
 10
183.256543
 20
234.232411
 30
0.0
 11
182.089876
 21
234.232411
 31
0.0
 12
182.673209
 22
237.732411
 32
0.0
 13
182.673209
 23
237.732411
 33
0.0
  0
MTEXT
  5
17A
330
170
100
AcDbEntity
  8
0
 62
    95
370
    13
100
AcDbMText
 10
177.423209
 20
224.732411
 30
0.0
 40
3.5
 41
0.0
 71
     5
 72
     1
  1
\A1;12
  7
cesky
 11
0.0
 21
1.0
 31
0.0
 73
     1
 44
1.0
  0
POINT
  5
17B
330
170
100
AcDbEntity
  8
Defpoints
 62
     0
100
AcDbPoint
 10
198.286812
 20
249.729911
 30
0.0
  0
POINT
  5
17C
330
170
100
AcDbEntity
  8
Defpoints
 62
     0
100
AcDbPoint
 10
205.380428
 20
237.732411
 30
0.0
  0
POINT
  5
17D
330
170
100
AcDbEntity
  8
Defpoints
 62
     0
100
AcDbPoint
 10
182.673209
 20
237.732411
 30
0.0
  0
ENDBLK
  5
172
330
170
100
AcDbEntity
  8
0
100
AcDbBlockEnd
  0
BLOCK
  5
186
330
17E
100
AcDbEntity
  8
0
100
AcDbBlockBegin
  2
_U4
 70
     0
 10
0.0
 20
0.0
 30
0.0
  3
_U4
  1

  0
ENDBLK
  5
187
330
17E
100
AcDbEntity
  8
0
100
AcDbBlockEnd
  0
BLOCK
  5
18C
330
18B
100
AcDbEntity
  8
0
100
AcDbBlockBegin
  2
*D11
 70
     1
 10
0.0
 20
0.0
 30
0.0
  3
*D11
  1

  0
LINE
  5
18E
330
18B
100
AcDbEntity
  8
0
 62
   254
370
    -2
100
AcDbLine
 10
283.962962
 20
247.706161
 30
0.0
 11
298.734086
 21
247.706161
 31
0.0
  0
LINE
  5
18F
330
18B
100
AcDbEntity
  8
0
 62
   254
370
    -2
100
AcDbLine
 10
285.585841
 20
239.756161
 30
0.0
 11
298.734086
 21
239.756161
 31
0.0
  0
LINE
  5
190
330
18B
100
AcDbEntity
  8
0
 62
   254
370
    -2
100
AcDbLine
 10
297.734086
 20
239.756161
 30
0.0
 11
297.734086
 21
223.422828
 31
0.0
  0
LINE
  5
191
330
18B
100
AcDbEntity
  8
0
 62
   254
370
    -2
100
AcDbLine
 10
297.734086
 20
251.206161
 30
0.0
 11
297.734086
 21
254.706161
 31
0.0
  0
LINE
  5
192
330
18B
100
AcDbEntity
  8
0
 62
   254
370
    -2
100
AcDbLine
 10
297.734086
 20
236.256161
 30
0.0
 11
297.734086
 21
232.756161
 31
0.0
  0
SOLID
  5
193
330
18B
100
AcDbEntity
  8
0
 62
   254
100
AcDbTrace
 10
297.150753
 20
251.206161
 30
0.0
 11
298.317419
 21
251.206161
 31
0.0
 12
297.734086
 22
247.706161
 32
0.0
 13
297.734086
 23
247.706161
 33
0.0
  0
SOLID
  5
194
330
18B
100
AcDbEntity
  8
0
 62
   254
100
AcDbTrace
 10
298.317419
 20
236.256161
 30
0.0
 11
297.150753
 21
236.256161
 31
0.0
 12
297.734086
 22
239.756161
 32
0.0
 13
297.734086
 23
239.756161
 33
0.0
  0
MTEXT
  5
195
330
18B
100
AcDbEntity
  8
0
 62
   254
370
    13
100
AcDbMText
 10
292.484086
 20
228.089495
 30
0.0
 40
3.5
 41
0.0
 71
     5
 72
     1
  1
\A1;8
  7
cesky
 11
0.0
 21
1.0
 31
0.0
 73
     1
 44
1.0
  0
POINT
  5
196
330
18B
100
AcDbEntity
  8
Defpoints
 62
     0
100
AcDbPoint
 10
283.962962
 20
247.706161
 30
0.0
  0
POINT
  5
197
330
18B
100
AcDbEntity
  8
Defpoints
 62
     0
100
AcDbPoint
 10
285.585841
 20
239.756161
 30
0.0
  0
POINT
  5
198
330
18B
100
AcDbEntity
  8
Defpoints
 62
     0
100
AcDbPoint
 10
297.734086
 20
239.756161
 30
0.0
  0
ENDBLK
  5
18D
330
18B
100
AcDbEntity
  8
0
100
AcDbBlockEnd
  0
BLOCK
  5
1A1
330
199
100
AcDbEntity
  8
0
100
AcDbBlockBegin
  2
_U5
 70
     0
 10
0.0
 20
0.0
 30
0.0
  3
_U5
  1

  0
ENDBLK
  5
1A2
330
199
100
AcDbEntity
  8
0
100
AcDbBlockEnd
  0
BLOCK
  5
1A7
330
1A6
100
AcDbEntity
  8
0
100
AcDbBlockBegin
  2
*D13
 70
     1
 10
0.0
 20
0.0
 30
0.0
  3
*D13
  1

  0
LINE
  5
1A9
330
1A6
100
AcDbEntity
  8
0
 62
   254
370
    -2
100
AcDbLine
 10
324.144248
 20
253.010213
 30
0.0
 11
324.144248
 21
267.287687
 31
0.0
  0
LINE
  5
1AA
330
1A6
100
AcDbEntity
  8
0
 62
   254
370
    -2
100
AcDbLine
 10
249.14469
 20
249.729911
 30
0.0
 11
249.14469
 21
267.287687
 31
0.0
  0
LINE
  5
1AB
330
1A6
100
AcDbEntity
  8
0
 62
   254
370
    -2
100
AcDbLine
 10
320.644248
 20
266.287687
 30
0.0
 11
252.64469
 21
266.287687
 31
0.0
  0
SOLID
  5
1AC
330
1A6
100
AcDbEntity
  8
0
 62
   254
100
AcDbTrace
 10
320.644248
 20
265.704353
 30
0.0
 11
320.644248
 21
266.87102
 31
0.0
 12
324.144248
 22
266.287687
 32
0.0
 13
324.144248
 23
266.287687
 33
0.0
  0
SOLID
  5
1AD
330
1A6
100
AcDbEntity
  8
0
 62
   254
100
AcDbTrace
 10
252.64469
 20
266.87102
 30
0.0
 11
252.64469
 21
265.704353
 31
0.0
 12
249.14469
 22
266.287687
 32
0.0
 13
249.14469
 23
266.287687
 33
0.0
  0
MTEXT
  5
1AE
330
1A6
100
AcDbEntity
  8
0
 62
   254
370
    13
100
AcDbMText
 10
286.644469
 20
271.537687
 30
0.0
 40
3.5
 41
0.0
 71
     5
 72
     1
  1
\A1;75
  7
cesky
 73
     1
 44
1.0
  0
POINT
  5
1AF
330
1A6
100
AcDbEntity
  8
Defpoints
 62
     0
100
AcDbPoint
 10
324.144248
 20
253.010213
 30
0.0
  0
POINT
  5
1B0
330
1A6
100
AcDbEntity
  8
Defpoints
 62
     0
100
AcDbPoint
 10
249.14469
 20
249.729911
 30
0.0
  0
POINT
  5
1B1
330
1A6
100
AcDbEntity
  8
Defpoints
 62
     0
100
AcDbPoint
 10
249.14469
 20
266.287687
 30
0.0
  0
ENDBLK
  5
1A8
330
1A6
100
AcDbEntity
  8
0
100
AcDbBlockEnd
  0
BLOCK
  5
1B9
330
1B2
100
AcDbEntity
  8
0
100
AcDbBlockBegin
  2
_U6
 70
     0
 10
0.0
 20
0.0
 30
0.0
  3
_U6
  1

  0
ENDBLK
  5
1BA
330
1B2
100
AcDbEntity
  8
0
100
AcDbBlockEnd
  0
ENDSEC
  0
SECTION
  2
ENTITIES
  0
POINT
  5
73
102
{ACAD_REACTORS
330
3A4
102
}
330
1F
100
AcDbEntity
  8
80
100
AcDbPoint
 10
237.144248
 20
243.731161
 30
0.0
  0
POINT
  5
75
330
1F
100
AcDbEntity
  8
SK6
 60
     1
100
AcDbPoint
 10
192.144248
 20
243.731161
 30
0.0
  0
POINT
  5
77
330
1F
100
AcDbEntity
  8
SK6
 60
     1
100
AcDbPoint
 10
302.309338
 20
243.731161
 30
0.0
  0
POINT
  5
78
330
1F
100
AcDbEntity
  8
SK6
 60
     1
100
AcDbPoint
 10
192.144248
 20
243.731161
 30
0.0
  0
POINT
  5
79
330
1F
100
AcDbEntity
  8
SK6
 60
     1
100
AcDbPoint
 10
305.691658
 20
243.731161
 30
0.0
  0
LINE
  5
7A
330
1F
100
AcDbEntity
  8
1
100
AcDbLine
 10
305.691734
 20
247.70554
 30
0.0
 11
305.690658
 21
247.706161
 31
0.0
  0
LINE
  5
7C
330
1F
100
AcDbEntity
  8
1
100
AcDbLine
 10
305.690658
 20
239.756161
 30
0.0
 11
305.691734
 21
239.756782
 31
0.0
  0
LINE
  5
7D
330
1F
100
AcDbEntity
  8
1
100
AcDbLine
 10
302.309338
 20
247.706161
 30
0.0
 11
249.875349
 21
249.537197
 31
0.0
  0
LINE
  5
7E
330
1F
100
AcDbEntity
  8
1
100
AcDbLine
 10
249.875349
 20
237.925126
 30
0.0
 11
302.309338
 21
239.756161
 31
0.0
  0
LINE
  5
7F
330
1F
100
AcDbEntity
  8
1
100
AcDbLine
 10
192.144248
 20
238.710862
 30
0.0
 11
193.838974
 21
237.732411
 31
0.0
  0
LINE
  5
80
330
1F
100
AcDbEntity
  8
1
100
AcDbLine
 10
193.838974
 20
249.729911
 30
0.0
 11
192.144248
 21
248.751461
 31
0.0
  0
LINE
  5
81
330
1F
100
AcDbEntity
  8
1
100
AcDbLine
 10
305.691658
 20
239.756161
 30
0.0
 11
315.5891180000001
 21
239.756161
 31
0.0
  0
LINE
  5
82
330
1F
100
AcDbEntity
  8
1
100
AcDbLine
 10
315.5891180000001
 20
247.706161
 30
0.0
 11
305.691658
 21
247.706161
 31
0.0
  0
LINE
  5
83
330
1F
100
AcDbEntity
  8
1
100
AcDbLine
 10
323.106816
 20
244.844532
 30
0.0
 11
324.136537
 21
243.980494
 31
0.0
  0
LINE
  5
85
330
1F
100
AcDbEntity
  8
1
100
AcDbLine
 10
322.959468
 20
244.613242
 30
0.0
 11
323.106816
 21
244.844532
 31
0.0
  0
LINE
  5
86
330
1F
100
AcDbEntity
  8
1
100
AcDbLine
 10
316.456995
 20
247.945395
 30
0.0
 11
323.106816
 21
244.844532
 31
0.0
  0
LINE
  5
87
330
1F
100
AcDbEntity
  8
1
100
AcDbLine
 10
322.959468
 20
244.613242
 30
0.0
 11
324.102771
 21
243.653897
 31
0.0
  0
LINE
  5
88
330
1F
100
AcDbEntity
  8
1
100
AcDbLine
 10
321.721684
 20
244.956837
 30
0.0
 11
322.017673
 21
244.708472
 31
0.0
  0
LINE
  5
89
330
1F
100
AcDbEntity
  8
1
100
AcDbLine
 10
322.344521
 20
244.434214
 30
0.0
 11
323.669382
 21
243.322524
 31
0.0
  0
LINE
  5
8A
330
1F
100
AcDbEntity
  8
1
100
AcDbLine
 10
322.90721
 20
244.611626
 30
0.0
 11
321.721684
 21
244.956837
 31
0.0
  0
LINE
  5
8B
330
1F
100
AcDbEntity
  8
1
100
AcDbLine
 10
322.90721
 20
244.611626
 30
0.0
 11
316.243183
 21
247.719112
 31
0.0
  0
LINE
  5
8C
330
1F
100
AcDbEntity
  8
1
100
AcDbLine
 10
321.721684
 20
244.956837
 30
0.0
 11
316.471601
 21
247.40499
 31
0.0
  0
LINE
  5
8D
330
1F
100
AcDbEntity
  8
1
100
AcDbLine
 10
305.690658
 20
247.706161
 30
0.0
 11
305.690658
 21
243.731161
 31
0.0
  0
LINE
  5
8E
330
1F
100
AcDbEntity
  8
1
100
AcDbLine
 10
305.690658
 20
243.731161
 30
0.0
 11
305.690658
 21
239.756161
 31
0.0
  0
LINE
  5
8F
330
1F
100
AcDbEntity
  8
1
100
AcDbLine
 10
249.875349
 20
249.537197
 30
0.0
 11
249.875349
 21
237.925126
 31
0.0
  0
LINE
  5
90
330
1F
100
AcDbEntity
  8
1
100
AcDbLine
 10
193.838974
 20
237.732411
 30
0.0
 11
193.838974
 21
249.729911
 31
0.0
  0
LINE
  5
91
330
1F
100
AcDbEntity
  8
1
100
AcDbLine
 10
249.526129
 20
249.613304
 30
0.0
 11
249.526129
 21
243.731161
 31
0.0
  0
LINE
  5
92
330
1F
100
AcDbEntity
  8
1
100
AcDbLine
 10
249.526129
 20
243.731161
 30
0.0
 11
249.526129
 21
237.849019
 31
0.0
  0
LINE
  5
93
330
1F
100
AcDbEntity
  8
1
100
AcDbLine
 10
249.14469
 20
237.732411
 30
0.0
 11
249.14469
 21
249.729911
 31
0.0
  0
LINE
  5
94
330
1F
100
AcDbEntity
  8
1
100
AcDbLine
 10
315.65451
 20
247.675669
 30
0.0
 11
315.65451
 21
247.706161
 31
0.0
  0
LINE
  5
95
330
1F
100
AcDbEntity
  8
1
100
AcDbLine
 10
315.65451
 20
247.627894
 30
0.0
 11
315.65451
 21
247.484058
 31
0.0
  0
LINE
  5
96
330
1F
100
AcDbEntity
  8
1
100
AcDbLine
 10
315.65451
 20
239.978264
 30
0.0
 11
315.65451
 21
239.834429
 31
0.0
  0
LINE
  5
97
330
1F
100
AcDbEntity
  8
1
100
AcDbLine
 10
314.964615
 20
247.625449
 30
0.0
 11
314.964615
 21
247.482014
 31
0.0
  0
LINE
  5
98
330
1F
100
AcDbEntity
  8
1
100
AcDbLine
 10
314.964615
 20
239.980308
 30
0.0
 11
314.964615
 21
239.836874
 31
0.0
  0
LINE
  5
99
330
1F
100
AcDbEntity
  8
1
100
AcDbLine
 10
315.65451
 20
247.627894
 30
0.0
 11
315.65451
 21
247.675669
 31
0.0
  0
LINE
  5
9A
330
1F
100
AcDbEntity
  8
1
100
AcDbLine
 10
315.5891180000001
 20
247.706161
 30
0.0
 11
315.65451
 21
247.675669
 31
0.0
  0
LINE
  5
9B
330
1F
100
AcDbEntity
  8
1
100
AcDbLine
 10
315.65451
 20
247.706161
 30
0.0
 11
315.5891180000001
 21
247.706161
 31
0.0
  0
LINE
  5
9C
330
1F
100
AcDbEntity
  8
1
100
AcDbLine
 10
315.847268
 20
247.487572
 30
0.0
 11
315.65451
 21
247.487572
 31
0.0
  0
LINE
  5
9D
330
1F
100
AcDbEntity
  8
1
100
AcDbLine
 10
315.65451
 20
239.97475
 30
0.0
 11
315.847259
 21
239.97475
 31
0.0
  0
LINE
  5
9E
330
1F
100
AcDbEntity
  8
1
100
AcDbLine
 10
315.5891180000001
 20
239.756161
 30
0.0
 11
315.65451
 21
239.756161
 31
0.0
  0
LINE
  5
9F
330
1F
100
AcDbEntity
  8
1
100
AcDbLine
 10
315.65451
 20
239.756161
 30
0.0
 11
315.65451
 21
239.834429
 31
0.0
  0
LINE
  5
A0
330
1F
100
AcDbEntity
  8
1
100
AcDbLine
 10
319.983128
 20
239.978226
 30
0.0
 11
315.65451
 21
239.978226
 31
0.0
  0
LINE
  5
A1
330
1F
100
AcDbEntity
  8
1
100
AcDbLine
 10
315.65451
 20
247.484097
 30
0.0
 11
316.065337
 21
247.484097
 31
0.0
  0
LINE
  5
A2
330
1F
100
AcDbEntity
  8
1
100
AcDbLine
 10
322.34451
 20
241.598603
 30
0.0
 11
322.34451
 21
244.55607
 31
0.0
  0
LINE
  5
A3
330
1F
100
AcDbEntity
  8
1
100
AcDbLine
 10
322.34451
 20
244.55607
 30
0.0
 11
319.983128
 21
245.657201
 31
0.0
  0
LINE
  5
A4
330
1F
100
AcDbEntity
  8
1
100
AcDbLine
 10
319.983128
 20
242.00938
 30
0.0
 11
319.983128
 21
239.978226
 31
0.0
  0
LINE
  5
A5
330
1F
100
AcDbEntity
  8
1
100
AcDbLine
 10
319.983128
 20
245.657201
 30
0.0
 11
319.983128
 21
245.452943
 31
0.0
  0
LINE
  5
A6
330
1F
100
AcDbEntity
  8
1
100
AcDbLine
 10
316.065337
 20
247.484097
 30
0.0
 11
319.983128
 21
245.657201
 31
0.0
  0
LINE
  5
A7
330
1F
100
AcDbEntity
  8
SK1
100
AcDbLine
 10
192.144248
 20
238.710862
 30
0.0
 11
192.144248
 21
248.751461
 31
0.0
  0
LINE
  5
A8
330
1F
100
AcDbEntity
  8
SK1
100
AcDbLine
 10
192.144248
 20
248.751461
 30
0.0
 11
193.838974
 21
249.729911
 31
0.0
  0
LINE
  5
A9
330
1F
100
AcDbEntity
  8
SK1
100
AcDbLine
 10
249.14469
 20
237.732411
 30
0.0
 11
193.838974
 21
237.732411
 31
0.0
  0
LINE
  5
AA
330
1F
100
AcDbEntity
  8
SK1
100
AcDbLine
 10
193.838974
 20
249.729911
 30
0.0
 11
249.14469
 21
249.729911
 31
0.0
  0
LINE
  5
AB
330
1F
100
AcDbEntity
  8
SK1
100
AcDbLine
 10
193.838974
 20
237.732411
 30
0.0
 11
192.144248
 21
238.710862
 31
0.0
  0
LINE
  5
B0
330
1F
100
AcDbEntity
  8
80
100
AcDbLine
 10
236.144675
 20
243.731161
 30
0.0
 11
238.143822
 21
243.731161
 31
0.0
  0
LINE
  5
B1
330
1F
100
AcDbEntity
  8
1
100
AcDbLine
 10
305.691658
 20
239.756161
 30
0.0
 11
305.691658
 21
243.731161
 31
0.0
  0
LINE
  5
B2
330
1F
100
AcDbEntity
  8
1
100
AcDbLine
 10
305.691658
 20
243.731161
 30
0.0
 11
305.691658
 21
247.706161
 31
0.0
  0
LINE
  5
B3
330
1F
100
AcDbEntity
  8
1
100
AcDbLine
 10
302.309338
 20
239.756161
 30
0.0
 11
302.309338
 21
247.706161
 31
0.0
  0
LINE
  5
B4
330
1F
100
AcDbEntity
  8
1
100
AcDbLine
 10
192.144248
 20
238.710862
 30
0.0
 11
192.144248
 21
248.751461
 31
0.0
  0
LINE
  5
B5
330
1F
100
AcDbEntity
  8
1
100
AcDbLine
 10
305.690658
 20
247.706161
 30
0.0
 11
302.309338
 21
247.706161
 31
0.0
  0
LINE
  5
B6
330
1F
100
AcDbEntity
  8
80
100
AcDbLine
 10
237.144248
 20
242.731588
 30
0.0
 11
237.144248
 21
244.730735
 31
0.0
  0
LINE
  5
B7
330
1F
100
AcDbEntity
  8
1
100
AcDbLine
 10
302.309338
 20
239.756161
 30
0.0
 11
305.690658
 21
239.756161
 31
0.0
  0
LINE
  5
B8
330
1F
100
AcDbEntity
  8
1
100
AcDbLine
 10
193.838974
 20
237.732411
 30
0.0
 11
249.14469
 21
237.732411
 31
0.0
  0
LINE
  5
B9
330
1F
100
AcDbEntity
  8
1
100
AcDbLine
 10
249.14469
 20
249.729911
 30
0.0
 11
193.838974
 21
249.729911
 31
0.0
  0
LINE
  5
BA
330
1F
100
AcDbEntity
  8
81
100
AcDbLine
 10
322.144248
 20
248.731161
 30
0.0
 11
326.144248
 21
248.731161
 31
0.0
  0
LINE
  5
BB
330
1F
100
AcDbEntity
  8
81
100
AcDbLine
 10
324.144248
 20
246.731161
 30
0.0
 11
324.144248
 21
250.731161
 31
0.0
  0
LINE
  5
BE
330
1F
100
AcDbEntity
  8
NOCUT
100
AcDbLine
 10
305.691658
 20
247.706161
 30
0.0
 11
319.983128
 21
247.706161
 31
0.0
  0
LINE
  5
BF
330
1F
100
AcDbEntity
  8
NOCUT
100
AcDbLine
 10
322.34451
 20
246.233941
 30
0.0
 11
322.34451
 21
243.731161
 31
0.0
  0
LINE
  5
C0
330
1F
100
AcDbEntity
  8
NOCUT
100
AcDbLine
 10
312.57656
 20
243.731161
 30
0.0
 11
322.34451
 21
243.731161
 31
0.0
  0
LINE
  5
C1
330
1F
100
AcDbEntity
  8
NOCUT
100
AcDbLine
 10
249.875349
 20
249.537197
 30
0.0
 11
302.309338
 21
247.706161
 31
0.0
  0
LINE
  5
C2
330
1F
100
AcDbEntity
  8
NOCUT
100
AcDbLine
 10
302.309338
 20
247.706161
 30
0.0
 11
305.690658
 21
247.706161
 31
0.0
  0
LINE
  5
C4
330
1F
100
AcDbEntity
  8
NOCUT
100
AcDbLine
 10
192.144248
 20
243.731161
 30
0.0
 11
312.57556
 21
243.731161
 31
0.0
  0
LINE
  5
C5
330
1F
100
AcDbEntity
  8
NOCUT
100
AcDbLine
 10
192.144248
 20
248.751461
 30
0.0
 11
193.838974
 21
249.729911
 31
0.0
  0
LINE
  5
C6
330
1F
100
AcDbEntity
  8
NOCUT
100
AcDbLine
 10
193.838974
 20
249.729911
 30
0.0
 11
249.14469
 21
249.729911
 31
0.0
  0
LINE
  5
C7
330
1F
100
AcDbEntity
  8
NOCUT
100
AcDbLine
 10
192.144248
 20
243.731161
 30
0.0
 11
192.144248
 21
248.751461
 31
0.0
  0
LINE
  5
C8
102
{ACAD_REACTORS
330
1BB
102
}
330
1F
100
AcDbEntity
  8
SK2
100
AcDbLine
 10
192.144248
 20
283.077448
 30
0.0
 11
324.144248
 21
283.077448
 31
0.0
  0
LINE
  5
C9
102
{ACAD_REACTORS
330
1BB
102
}
330
1F
100
AcDbEntity
  8
SK2
100
AcDbLine
 10
324.144248
 20
250.731161
 30
0.0
 11
324.144248
 21
284.077448
 31
0.0
  0
LINE
  5
CA
102
{ACAD_REACTORS
330
1BB
102
}
330
1F
100
AcDbEntity
  8
SK2
100
AcDbLine
 10
192.144248
 20
248.751461
 30
0.0
 11
192.144248
 21
284.077448
 31
0.0
  0
LINE
  5
CB
330
1F
100
AcDbEntity
  8
SK2
 60
     1
100
AcDbLine
 10
324.144248
 20
283.077448
 30
0.0
 11
320.644251
 21
282.460304
 31
0.0
  0
LINE
  5
CC
330
1F
100
AcDbEntity
  8
SK2
 60
     1
100
AcDbLine
 10
320.644251
 20
282.460304
 30
0.0
 11
320.644246
 21
283.694593
 31
0.0
  0
LINE
  5
CD
330
1F
100
AcDbEntity
  8
SK2
 60
     1
100
AcDbLine
 10
320.644246
 20
283.694593
 30
0.0
 11
324.144248
 21
283.077448
 31
0.0
  0
LINE
  5
CE
330
1F
100
AcDbEntity
  8
SK2
 60
     1
100
AcDbLine
 10
192.144248
 20
283.077448
 30
0.0
 11
195.644246
 21
283.694593
 31
0.0
  0
LINE
  5
CF
330
1F
100
AcDbEntity
  8
SK2
 60
     1
100
AcDbLine
 10
195.644246
 20
283.694593
 30
0.0
 11
195.644251
 21
282.460304
 31
0.0
  0
LINE
  5
D0
330
1F
100
AcDbEntity
  8
SK2
 60
     1
100
AcDbLine
 10
195.644251
 20
282.460304
 30
0.0
 11
192.144248
 21
283.077448
 31
0.0
  0
ARC
  5
D6
330
1F
100
AcDbEntity
  8
1
100
AcDbCircle
 10
249.910248
 20
250.536587
 30
0.0
 40
1.0
100
AcDbArc
 50
247.410945
 51
268.0
  0
ARC
  5
D7
330
1F
100
AcDbEntity
  8
1
100
AcDbCircle
 10
249.910248
 20
236.925735
 30
0.0
 40
1.0
100
AcDbArc
 50
92.0
 51
112.589055
  0
ARC
  5
D8
330
1F
100
AcDbEntity
  8
1
100
AcDbCircle
 10
249.621885
 20
250.608709
 30
0.0
 40
1.0
100
AcDbArc
 50
241.497622
 51
264.505166
  0
ARC
  5
D9
330
1F
100
AcDbEntity
  8
1
100
AcDbCircle
 10
249.621885
 20
236.853614
 30
0.0
 40
1.0
100
AcDbArc
 50
95.49483399999999
 51
118.502378
  0
ARC
  5
DA
330
1F
100
AcDbEntity
  8
1
100
AcDbCircle
 10
319.14451
 20
243.731161
 30
0.0
 40
4.998250000000001
100
AcDbArc
 50
125.026545
 51
131.335941
  0
ARC
  5
DB
330
1F
100
AcDbEntity
  8
1
100
AcDbCircle
 10
319.14451
 20
243.731161
 30
0.0
 40
4.543287207167247
100
AcDbArc
 50
126.037905
 51
127.469604
  0
CIRCLE
  5
DC
330
1F
100
AcDbEntity
  8
1
100
AcDbCircle
 10
319.14451
 20
243.731161
 30
0.0
 40
1.502499999999999
  0
ARC
  5
DD
330
1F
100
AcDbEntity
  8
1
100
AcDbCircle
 10
319.14451
 20
243.731161
 30
0.0
 40
4.543287207167247
100
AcDbArc
 50
235.694989
 51
354.8396620000001
  0
ARC
  5
DE
330
1F
100
AcDbEntity
  8
1
100
AcDbCircle
 10
319.14451
 20
243.731161
 30
0.0
 40
4.998250000000001
100
AcDbArc
 50
228.665374
 51
0.007773
  0
CIRCLE
  5
DF
330
1F
100
AcDbEntity
  8
1
100
AcDbCircle
 10
319.14451
 20
243.731161
 30
0.0
 40
1.499999999999984
  0
ARC
  5
E0
330
1F
100
AcDbEntity
  8
1
100
AcDbCircle
 10
319.14451
 20
243.731161
 30
0.0
 40
3.845491678576355
100
AcDbArc
 50
282.596193
 51
326.319537
  0
ARC
  5
E1
330
1F
100
AcDbEntity
  8
1
100
AcDbCircle
 10
319.14451
 20
243.731161
 30
0.0
 40
1.915153335248168
100
AcDbArc
 50
295.969071
 51
64.030929
  0
CIRCLE
  5
E2
330
1F
100
AcDbEntity
  8
1
100
AcDbCircle
 10
319.14451
 20
243.731161
 30
0.0
 40
1.55
  0
ARC
  5
E3
330
1F
100
AcDbEntity
  8
1
100
AcDbCircle
 10
319.14451
 20
243.731161
 30
0.0
 40
4.998250000000001
100
AcDbArc
 50
2.859329
 51
122.526607
  0
ARC
  5
E4
330
1F
100
AcDbEntity
  8
NOCUT
100
AcDbCircle
 10
319.14451
 20
243.731161
 30
0.0
 40
4.062499999999999
100
AcDbArc
 50
38.029626
 51
78.08682399999999
  0
ARC
  5
E5
330
1F
100
AcDbEntity
  8
NOCUT
100
AcDbCircle
 10
249.621885
 20
250.608709
 30
0.0
 40
1.0
100
AcDbArc
 50
241.497622
 51
264.505166
  0
ARC
  5
E6
330
1F
100
AcDbEntity
  8
NOCUT
100
AcDbCircle
 10
249.910248
 20
250.536587
 30
0.0
 40
1.0
100
AcDbArc
 50
247.410945
 51
268.0
  0
ELLIPSE
  5
E7
330
1F
100
AcDbEntity
  8
1
100
AcDbEllipse
 10
321.947705
 20
245.385035
 30
0.0
 11
-1.011137588685512
 21
0.7726875992929556
 31
0.0
210
0.0
220
0.0
230
1.0
 40
0.100127
 41
2.888352724962711
 42
3.150152112745613
  0
ELLIPSE
  5
E8
330
1F
100
AcDbEntity
  8
1
100
AcDbEllipse
 10
322.376732
 20
247.583174
 30
0.0
 11
-4.141025746383143
 21
-4.935082310550538
 31
0.0
210
0.0
220
0.0
230
1.0
 40
0.6251100000000001
 41
1.18353654969233
 42
1.271332932294662
  0
ELLIPSE
  5
E9
330
1F
100
AcDbEntity
  8
1
100
AcDbEllipse
 10
390.719825
 20
243.730392
 30
0.0
 11
-227.7535174174996
 21
0.0002548337367844
 31
0.0
210
0.0
220
0.0
230
1.0
 40
0.017456
 41
5.048258432329052
 42
5.051425979912661
  0
ELLIPSE
  5
EA
330
1F
100
AcDbEntity
  8
1
100
AcDbEllipse
 10
314.940702
 20
243.731162
 30
0.0
 11
-0.0000000011766359
 21
3.974999750352103
 31
0.0
210
0.0
220
0.0
230
1.0
 40
0.017455
 41
5.946799564478236
 42
6.078710553254969
  0
ELLIPSE
  5
EB
330
1F
100
AcDbEntity
  8
1
100
AcDbEllipse
 10
314.940702
 20
243.731161
 30
0.0
 11
0.0
 21
3.974999986917586
 31
0.0
210
0.0
220
0.0
230
1.0
 40
0.017455
 41
3.346067401543711
 42
3.477978386264055
  0
ELLIPSE
  5
EC
330
1F
100
AcDbEntity
  8
1
100
AcDbEllipse
 10
390.741375
 20
243.733003
 30
0.0
 11
-227.7896232302295
 21
-0.0006099909697117
 31
0.0
210
0.0
220
0.0
230
0.9999999999999996
 40
0.017458
 41
1.231714882065829
 42
1.234881977190764
  0
SPLINE
  5
ED
330
1F
100
AcDbEntity
  8
1
100
AcDbSpline
210
0.0
220
0.0
230
1.0
 70
     8
 71
     3
 72
    18
 73
    14
 74
     0
 42
0.000000001
 43
0.0000000001
 40
0.0
 40
0.0
 40
0.0
 40
0.0
 40
0.250000000000004
 40
0.250000000000004
 40
0.3750000000000032
 40
0.3750000000000032
 40
0.5000000000000025
 40
0.5000000000000025
 40
0.7500000000000005
 40
0.7500000000000005
 40
0.8750000000000003
 40
0.8750000000000003
 40
1.0
 40
1.0
 40
1.0
 40
1.0
 10
324.1365368717362
 20
243.9804939614678
 30
0.0
 10
324.1376126712578
 20
243.9589547826864
 30
0.0
 10
324.1385492043034
 20
243.9374060393096
 30
0.0
 10
324.1397449070896
 20
243.9050682702939
 30
0.0
 10
324.1401096706749
 20
243.8942495959261
 30
0.0
 10
324.140762969048
 20
243.8728303870786
 30
0.0
 10
324.1410518404413
 20
243.8622292149343
 30
0.0
 10
324.1418112421291
 20
243.8307593223097
 30
0.0
 10
324.1421744940141
 20
243.81022137422
 30
0.0
 10
324.1425295230435
 20
243.7801547797711
 30
0.0
 10
324.1426162337025
 20
243.7702566032162
 30
0.0
 10
324.1427308208863
 20
243.7507314629559
 30
0.0
 10
324.1427582929812
 20
243.7411269205879
 30
0.0
 10
324.1427595530232
 20
243.7318394269547
 30
0.0
  0
SPLINE
  5
EE
330
1F
100
AcDbEntity
  8
1
100
AcDbSpline
210
0.0
220
0.0
230
1.0
 70
     8
 71
     3
 72
    16
 73
    12
 74
     0
 42
0.000000001
 43
0.0000000001
 40
0.0
 40
0.0
 40
0.0
 40
0.0
 40
0.2499999999999957
 40
0.2499999999999957
 40
0.3749999999999964
 40
0.3749999999999964
 40
0.4999999999999972
 40
0.4999999999999972
 40
0.7499999999999986
 40
0.7499999999999986
 40
1.0
 40
1.0
 40
1.0
 40
1.0
 10
316.2757346019153
 20
247.8241593652194
 30
0.0
 10
316.2886852774092
 20
247.8332364704496
 30
0.0
 10
316.3023847831372
 20
247.8427468514743
 30
0.0
 10
316.3240237782815
 20
247.8575930998804
 30
0.0
 10
316.3314119481714
 20
247.8626339032131
 30
0.0
 10
316.3463194755859
 20
247.8727450909708
 30
0.0
 10
316.353866774287
 20
247.8778347051885
 30
0.0
 10
316.3767815268361
 20
247.8931947808712
 30
0.0
 10
316.3924203992966
 20
247.9035555410611
 30
0.0
 10
316.424419667899
 20
247.9244868815778
 30
0.0
 10
316.4406704787752
 20
247.9349847985167
 30
0.0
 10
316.4569945123206
 20
247.9453950152961
 30
0.0
  0
SPLINE
  5
EF
330
1F
100
AcDbEntity
  8
1
100
AcDbSpline
210
0.0
220
0.0
230
1.0
 70
     8
 71
     3
 72
    18
 73
    14
 74
     0
 42
0.000000001
 43
0.0000000001
 40
0.0
 40
0.0
 40
0.0
 40
0.0
 40
0.2500000000000004
 40
0.2500000000000004
 40
0.3750000000000004
 40
0.3750000000000004
 40
0.5000000000000005
 40
0.5000000000000005
 40
0.7500000000000001
 40
0.7500000000000001
 40
0.875
 40
0.875
 40
1.0
 40
1.0
 40
1.0
 40
1.0
 10
316.243183413043
 20
247.7191122295588
 30
0.0
 10
316.2394615797094
 20
247.7242305212147
 30
0.0
 10
316.2372471691585
 20
247.730325211486
 30
0.0
 10
316.2363052270478
 20
247.7409988703481
 30
0.0
 10
316.2363902768165
 20
247.7448133972546
 30
0.0
 10
316.2374134347309
 20
247.7529868875917
 30
0.0
 10
316.2383505281917
 20
247.7573081720075
 30
0.0
 10
316.2423974502961
 20
247.7707947280269
 30
0.0
 10
316.2467389855586
 20
247.7805447405739
 30
0.0
 10
316.2558263258238
 20
247.7963164875139
 30
0.0
 10
316.2592886877757
 20
247.8017607606921
 30
0.0
 10
316.2669432820192
 20
247.8128050918909
 30
0.0
 10
316.271150218074
 20
247.8184320703801
 30
0.0
 10
316.2757346019154
 20
247.8241593652195
 30
0.0
  0
SPLINE
  5
F0
330
1F
100
AcDbEntity
  8
1
100
AcDbSpline
210
0.0
220
0.0
230
1.0
 70
     8
 71
     3
 72
     8
 73
     4
 74
     0
 42
0.000000001
 43
0.0000000001
 40
0.0
 40
0.0
 40
0.0
 40
0.0
 40
1.0
 40
1.0
 40
1.0
 40
1.0
 10
316.243183413043
 20
247.7191122295588
 30
0.0
 10
316.31932270376
 20
247.6144049357512
 30
0.0
 10
316.395461994748
 20
247.5096976418347
 30
0.0
 10
316.4716012860831
 20
247.4049903477787
 30
0.0
  0
SPLINE
  5
F1
330
1F
100
AcDbEntity
  8
1
100
AcDbSpline
210
0.0
220
0.0
230
1.0
 70
     8
 71
     3
 72
    13
 73
     9
 74
     0
 42
0.000000001
 43
0.0000000001
 40
0.0
 40
0.0
 40
0.0
 40
0.0
 40
0.5000000000000845
 40
0.5000000000000845
 40
0.6250000000000635
 40
0.6250000000000635
 40
0.7500000000000423
 40
1.0
 40
1.0
 40
1.0
 40
1.0
 10
324.1427595530232
 20
243.7318394269548
 30
0.0
 10
324.1377066030587
 20
243.713229871313
 30
0.0
 10
324.1317921743848
 20
243.6970797508163
 30
0.0
 10
324.1232765369477
 20
243.6803824266379
 30
0.0
 10
324.1215174517505
 20
243.6772250722746
 30
0.0
 10
324.1179458413917
 20
243.6713787272692
 30
0.0
 10
324.1124864409152
 20
243.6632686606702
 30
0.0
 10
324.1067332718112
 20
243.6571143524509
 30
0.0
 10
324.1027707657696
 20
243.6538968510578
 30
0.0
  0
SPLINE
  5
F2
330
1F
100
AcDbEntity
  8
1
100
AcDbSpline
210
0.0
220
0.0
230
1.0
 70
     8
 71
     3
 72
    10
 73
     6
 74
     0
 42
0.000000001
 43
0.0000000001
 40
0.0
 40
0.0
 40
0.0
 40
0.0
 40
0.5
 40
0.5
 40
1.0
 40
1.0
 40
1.0
 40
1.0
 10
314.9737772027498
 20
247.4799280907247
 30
0.0
 10
314.9710591018089
 20
247.4799113608996
 30
0.0
 10
314.9683971747675
 20
247.4803061566769
 30
0.0
 10
314.9647018895901
 20
247.4815993933724
 30
0.0
 10
314.9636485211892
 20
247.4824898856081
 30
0.0
 10
314.9636042017293
 20
247.4833777328199
 30
0.0
  0
SPLINE
  5
F3
330
1F
100
AcDbEntity
  8
1
100
AcDbSpline
210
0.0
220
0.0
230
1.0
 70
     8
 71
     3
 72
    10
 73
     6
 74
     0
 42
0.000000001
 43
0.0000000001
 40
0.0
 40
0.0
 40
0.0
 40
0.0
 40
0.5
 40
0.5
 40
1.0
 40
1.0
 40
1.0
 40
1.0
 10
314.9547907364785
 20
247.6233532101747
 30
0.0
 10
314.9547456718817
 20
247.6238885950007
 30
0.0
 10
314.9557403260632
 20
247.6244239748107
 30
0.0
 10
314.9593744488128
 20
247.625205867688
 30
0.0
 10
314.9619720234952
 20
247.6254395162579
 30
0.0
 10
314.9646146893656
 20
247.6254489562887
 30
0.0
  0
SPLINE
  5
F4
330
1F
100
AcDbEntity
  8
1
100
AcDbSpline
210
0.0
220
0.0
230
1.0
 70
    12
 71
     2
 72
     6
 73
     3
 74
     0
 42
0.000000001
 43
0.0000000001
 40
0.0
 40
0.0
 40
0.0
 40
1.0
 40
1.0
 40
1.0
 10
314.9646146893656
 20
247.6254489562887
 30
0.0
 41
0.5000003273690023
 10
315.3094538904698
 20
247.6266807778139
 30
0.0
 41
0.4999996726309977
 10
315.6545095990235
 20
247.6278939864204
 30
0.0
 41
0.5000003273690023
  0
SPLINE
  5
F5
330
1F
100
AcDbEntity
  8
1
100
AcDbSpline
210
0.0
220
0.0
230
1.0
 70
    12
 71
     2
 72
     6
 73
     3
 74
     0
 42
0.000000001
 43
0.0000000001
 40
0.0
 40
0.0
 40
0.0
 40
1.0
 40
1.0
 40
1.0
 10
315.6545095990235
 20
239.8344286339615
 30
0.0
 41
0.5000003272837401
 10
315.3094538904657
 20
239.835641842568
 30
0.0
 41
0.4999996727162599
 10
314.9646146893656
 20
239.8368736640932
 30
0.0
 41
0.5000003272837401
  0
SPLINE
  5
F6
330
1F
100
AcDbEntity
  8
1
100
AcDbSpline
210
0.0
220
0.0
230
1.0
 70
     8
 71
     3
 72
    10
 73
     6
 74
     0
 42
0.000000001
 43
0.0000000001
 40
0.0
 40
0.0
 40
0.0
 40
0.0
 40
0.5
 40
0.5
 40
1.0
 40
1.0
 40
1.0
 40
1.0
 10
314.9646146893656
 20
239.8368736640932
 30
0.0
 10
314.9619786014472
 20
239.8368830806266
 30
0.0
 10
314.9593697116915
 20
239.8371183334148
 30
0.0
 10
314.9557549766733
 20
239.8378949334707
 30
0.0
 10
314.9547452776713
 20
239.8384293420739
 30
0.0
 10
314.9547907364788
 20
239.8389694102115
 30
0.0
  0
SPLINE
  5
F7
330
1F
100
AcDbEntity
  8
1
100
AcDbSpline
210
0.0
220
0.0
230
1.0
 70
     8
 71
     3
 72
    10
 73
     6
 74
     0
 42
0.000000001
 43
0.0000000001
 40
0.0
 40
0.0
 40
0.0
 40
0.0
 40
0.5
 40
0.5
 40
1.0
 40
1.0
 40
1.0
 40
1.0
 10
314.9636042017293
 20
239.978944887562
 30
0.0
 10
314.9636486663711
 20
239.9798356431889
 30
0.0
 10
314.9647011981543
 20
239.9807226248012
 30
0.0
 10
314.9683939061535
 20
239.9820156796312
 30
0.0
 10
314.9710637482153
 20
239.9824112308839
 30
0.0
 10
314.9737772027498
 20
239.9823945296572
 30
0.0
  0
SPLINE
  5
F8
330
1F
100
AcDbEntity
  8
1
100
AcDbSpline
210
0.0
220
0.0
230
1.0
 70
     8
 71
     3
 72
   104
 73
   100
 74
     0
 42
0.000000001
 43
0.0000000001
 40
0.0
 40
0.0
 40
0.0
 40
0.0
 40
0.031250000000004
 40
0.031250000000004
 40
0.0468750000000084
 40
0.0468750000000084
 40
0.0625000000000129
 40
0.0625000000000129
 40
0.0937500000000167
 40
0.1250000000000205
 40
0.1250000000000205
 40
0.1406250000000225
 40
0.1406250000000225
 40
0.1484375000000234
 40
0.1484375000000234
 40
0.1562500000000244
 40
0.1562500000000244
 40
0.1875000000000231
 40
0.2187500000000217
 40
0.2187500000000217
 40
0.2343750000000211
 40
0.2343750000000211
 40
0.2500000000000204
 40
0.2500000000000204
 40
0.2812500000000146
 40
0.2812500000000146
 40
0.3125000000000088
 40
0.3125000000000088
 40
0.3203125000000074
 40
0.3203125000000074
 40
0.3281250000000061
 40
0.3437500000000033
 40
0.3437500000000033
 40
0.3749999999999978
 40
0.3749999999999978
 40
0.3906249999999964
 40
0.3906249999999964
 40
0.3984374999999957
 40
0.3984374999999957
 40
0.4062499999999951
 40
0.4062499999999951
 40
0.4374999999999964
 40
0.4374999999999964
 40
0.4687499999999978
 40
0.4687499999999978
 40
0.4843749999999985
 40
0.4843749999999985
 40
0.4921874999999992
 40
0.4921874999999992
 40
0.4999999999999997
 40
0.4999999999999997
 40
0.5312500000000019
 40
0.5312500000000019
 40
0.5468750000000029
 40
0.5468750000000029
 40
0.554687500000004
 40
0.554687500000004
 40
0.5625000000000052
 40
0.5625000000000052
 40
0.5937500000000096
 40
0.5937500000000096
 40
0.6093750000000108
 40
0.6093750000000108
 40
0.6171875000000115
 40
0.6171875000000115
 40
0.6250000000000121
 40
0.6250000000000121
 40
0.6562500000000119
 40
0.6562500000000119
 40
0.6875000000000118
 40
0.6875000000000118
 40
0.7031250000000118
 40
0.7031250000000118
 40
0.7187500000000117
 40
0.7187500000000117
 40
0.7500000000000116
 40
0.7500000000000116
 40
0.7812500000000115
 40
0.7812500000000115
 40
0.8125000000000111
 40
0.8125000000000111
 40
0.843750000000011
 40
0.843750000000011
 40
0.8593750000000085
 40
0.8593750000000085
 40
0.8671875000000095
 40
0.8671875000000095
 40
0.8750000000000108
 40
0.8750000000000108
 40
0.9062500000000108
 40
0.9375000000000104
 40
0.9375000000000104
 40
0.9531250000000104
 40
0.9531250000000104
 40
0.9609375000000078
 40
0.9609375000000078
 40
0.9687500000000051
 40
0.9687500000000051
 40
1.0
 40
1.0
 40
1.0
 40
1.0
 10
319.9831282549095
 20
242.0093799513907
 30
0.0
 10
319.9074711654412
 20
241.978497745646
 30
0.0
 10
319.8299852253967
 20
241.9518684978245
 30
0.0
 10
319.7109154847164
 20
241.9183188111514
 30
0.0
 10
319.670750860776
 20
241.9082045646132
 30
0.0
 10
319.5894403087081
 20
241.8901573958654
 30
0.0
 10
319.548174438713
 20
241.8822111345252
 30
0.0
 10
319.4245523727189
 20
241.8619956942701
 30
0.0
 10
319.2593400031941
 20
241.8444331408251
 30
0.0
 10
319.0933749633847
 20
241.8451117056361
 30
0.0
 10
318.9686146664528
 20
241.8525679061175
 30
0.0
 10
318.9269800543202
 20
241.8562143397552
 30
0.0
 10
318.864454927668
 20
241.8634691947065
 30
0.0
 10
318.8435990352807
 20
241.8661869271235
 30
0.0
 10
318.8021637893588
 20
241.8721788009085
 30
0.0
 10
318.7815464004306
 20
241.8754569762131
 30
0.0
 10
318.6789522113188
 20
241.8932413994186
 30
0.0
 10
318.5179454568396
 20
241.9305817540741
 30
0.0
 10
318.3629564269664
 20
241.985344885058
 30
0.0
 10
318.2489624077068
 20
242.0331461315762
 30
0.0
 10
318.2112405176942
 20
242.0502589113347
 30
0.0
 10
318.137413149842
 20
242.0863721167903
 30
0.0
 10
318.1012278325019
 20
242.1053988170499
 30
0.0
 10
317.9947967872712
 20
242.1653662620004
 30
0.0
 10
317.9266669236753
 20
242.2091813682678
 30
0.0
 10
317.7959583028164
 20
242.3046751113427
 30
0.0
 10
317.7333781810622
 20
242.3563507223262
 30
0.0
 10
317.6587527054065
 20
242.4262594578857
 30
0.0
 10
317.6440384070698
 20
242.4404815067531
 30
0.0
 10
317.6151666760858
 20
242.4692743608205
 30
0.0
 10
317.5726321334427
 20
242.5130453732344
 30
0.0
 10
317.5323963331091
 20
242.5585620473006
 30
0.0
 10
317.4549757682631
 20
242.6519527409385
 30
0.0
 10
317.4074149660564
 20
242.7173448802217
 30
0.0
 10
317.3423611412921
 20
242.8204432247584
 30
0.0
 10
317.3217280726481
 20
242.8556470775957
 30
0.0
 10
317.2924187457713
 20
242.9097769454131
 30
0.0
 10
317.282922629342
 20
242.9280411352171
 30
0.0
 10
317.264491887506
 20
242.9650254742294
 30
0.0
 10
317.2555384537286
 20
242.9837876538697
 30
0.0
 10
317.2124668867199
 20
243.0782242023307
 30
0.0
 10
317.1835403775882
 20
243.1554155201407
 30
0.0
 10
317.1366499596721
 20
243.3131073929074
 30
0.0
 10
317.1186845688208
 20
243.3936073345163
 30
0.0
 10
317.1003369572107
 20
243.5169794643536
 30
0.0
 10
317.0956592973888
 20
243.5585418543251
 30
0.0
 10
317.0908971395698
 20
243.6215742910954
 30
0.0
 10
317.0896902506222
 20
243.6426714881152
 30
0.0
 10
317.0880531844097
 20
243.684678096917
 30
0.0
 10
317.0876188513915
 20
243.7056376389052
 30
0.0
 10
317.0873407818113
 20
243.8102196073634
 30
0.0
 10
317.0931524075586
 20
243.8931973639875
 30
0.0
 10
317.110711152785
 20
244.0166593660766
 30
0.0
 10
317.1180426372782
 20
244.0576454232187
 30
0.0
 10
317.1312762502536
 20
244.1188715115779
 30
0.0
 10
317.136060495363
 20
244.1392380107282
 30
0.0
 10
317.1463819872741
 20
244.1798860562419
 30
0.0
 10
317.1519123906627
 20
244.2001339803002
 30
0.0
 10
317.1812006740872
 20
244.3003370646347
 30
0.0
 10
317.2099950709069
 20
244.3778156772642
 30
0.0
 10
317.2607412246705
 20
244.4903174446593
 30
0.0
 10
317.2789208528576
 20
244.5271962827852
 30
0.0
 10
317.3080679094456
 20
244.581601223096
 30
0.0
 10
317.3180968081602
 20
244.599583859889
 30
0.0
 10
317.3387812068852
 20
244.6352462117384
 30
0.0
 10
317.3494510016247
 20
244.6529485757098
 30
0.0
 10
317.4042050549675
 20
244.7404396445308
 30
0.0
 10
317.4521075947934
 20
244.806615841409
 30
0.0
 10
317.5556020181089
 20
244.9320321687403
 30
0.0
 10
317.6111967851223
 20
244.9912688005659
 30
0.0
 10
317.7003325631611
 20
245.0751278855471
 30
0.0
 10
317.7311002483134
 20
245.1023197987142
 30
0.0
 10
317.7939501807302
 20
245.1545176235004
 30
0.0
 10
317.8260561821237
 20
245.1795575590743
 30
0.0
 10
317.9243816622782
 20
245.2516210467272
 30
0.0
 10
317.9926000625877
 20
245.2956015398381
 30
0.0
 10
318.1344034156413
 20
245.3757296764681
 30
0.0
 10
318.208033696439
 20
245.4118963159189
 30
0.0
 10
318.3607873673638
 20
245.4761818123236
 30
0.0
 10
318.4384844034095
 20
245.5037053204042
 30
0.0
 10
318.5964889407604
 20
245.5499188701014
 30
0.0
 10
318.6767967783539
 20
245.5686072914541
 30
0.0
 10
318.7992728941259
 20
245.5899862895656
 30
0.0
 10
318.8404347710573
 20
245.5960004283752
 30
0.0
 10
318.9026966429121
 20
245.6033197692252
 30
0.0
 10
318.9235371619979
 20
245.6054756883728
 30
0.0
 10
318.9653943673179
 20
245.6092114877852
 30
0.0
 10
318.9864373541737
 20
245.6107920404166
 30
0.0
 10
319.0913409788943
 20
245.6171920297097
 30
0.0
 10
319.2582396205662
 20
245.6179666409694
 30
0.0
 10
319.4233088403898
 20
245.6004693012929
 30
0.0
 10
319.5464261353973
 20
245.5804269945831
 30
0.0
 10
319.5873508987025
 20
245.5725898229341
 30
0.0
 10
319.6485644942367
 20
245.559060615516
 30
0.0
 10
319.6689682711593
 20
245.5542472769468
 30
0.0
 10
319.7094589306999
 20
245.5440875011417
 30
0.0
 10
319.7295704549298
 20
245.5387364721935
 30
0.0
 10
319.8294713953971
 20
245.5106415615724
 30
0.0
 10
319.9072980947744
 20
245.483895519853
 30
0.0
 10
319.9831282549095
 20
245.4529426689913
 30
0.0
  0
LINE
  5
FE
330
1F
100
AcDbEntity
  8
4
100
AcDbLine
 10
190.144248
 20
243.731161
 30
0.0
 11
324.809338
 21
243.731161
 31
0.0
  0
LINE
  5
FF
330
1F
100
AcDbEntity
  8
SK4
100
AcDbLine
 10
190.144248
 20
243.731161
 30
0.0
 11
325.191658
 21
243.731161
 31
0.0
  0
LINE
  5
103
330
1F
100
AcDbEntity
  8
SK2
 60
     1
100
AcDbLine
 10
324.144248
 20
283.077448
 30
0.0
 11
320.644251
 21
282.460304
 31
0.0
  0
LINE
  5
104
330
1F
100
AcDbEntity
  8
SK2
 60
     1
100
AcDbLine
 10
320.644251
 20
282.460304
 30
0.0
 11
320.644246
 21
283.694593
 31
0.0
  0
LINE
  5
105
330
1F
100
AcDbEntity
  8
SK2
 60
     1
100
AcDbLine
 10
320.644246
 20
283.694593
 30
0.0
 11
324.144248
 21
283.077448
 31
0.0
  0
LINE
  5
107
330
1F
100
AcDbEntity
  8
SK2
 60
     1
100
AcDbLine
 10
192.144248
 20
283.077448
 30
0.0
 11
195.644246
 21
283.694593
 31
0.0
  0
LINE
  5
108
330
1F
100
AcDbEntity
  8
SK2
 60
     1
100
AcDbLine
 10
195.644246
 20
283.694593
 30
0.0
 11
195.644251
 21
282.460304
 31
0.0
  0
LINE
  5
109
330
1F
100
AcDbEntity
  8
SK2
 60
     1
100
AcDbLine
 10
195.644251
 20
282.460304
 30
0.0
 11
192.144248
 21
283.077448
 31
0.0
  0
MTEXT
  5
10B
330
1F
100
AcDbEntity
  8
SK6
100
AcDbMText
 10
240.776045
 20
177.7324139999999
 30
0.0
 40
3.5
 41
0.0
 71
     7
 72
     5
  1
\W0.7136;PPH-10/02-QC12-132HSCW\P\P\P\P\P\P\P\P 
  7
cesky
 73
     1
 44
0.8433729999999998
  0
MTEXT
  5
220
330
1F
100
AcDbEntity
  8
2
100
AcDbMText
 10
321.092379
 20
252.161818
 30
0.0
 40
3.5
 41
0.0
 71
     7
 72
     5
  1
\W0.6094;5
  7
cesky
 73
     2
 44
0.8433729999999998
  0
LINE
  5
221
330
1F
100
AcDbEntity
  8
2
100
AcDbLine
 10
324.144248
 20
250.731161
 30
0.0
 11
324.144248
 21
253.287651
 31
0.0
  0
LINE
  5
222
330
1F
100
AcDbEntity
  8
2
100
AcDbLine
 10
319.14451
 20
243.731161
 30
0.0
 11
319.14451
 21
253.287651
 31
0.0
  0
LINE
  5
223
330
1F
100
AcDbEntity
  8
2
100
AcDbLine
 10
332.894248
 20
252.287651
 30
0.0
 11
310.39451
 21
252.287651
 31
0.0
  0
SOLID
  5
224
330
1F
100
AcDbEntity
  8
2
100
AcDbTrace
 10
324.144248
 20
252.287651
 30
0.0
 11
327.644246
 21
252.904796
 31
0.0
 12
327.644251
 22
251.670507
 32
0.0
 13
327.644251
 23
251.670507
 33
0.0
  0
SOLID
  5
225
330
1F
100
AcDbEntity
  8
2
100
AcDbTrace
 10
319.14451
 20
252.287651
 30
0.0
 11
315.644512
 21
251.670507
 31
0.0
 12
315.644507
 22
252.904796
 32
0.0
 13
315.644507
 23
252.904796
 33
0.0
  0
MTEXT
  5
226
330
1F
100
AcDbEntity
  8
2
100
AcDbMText
 10
308.887293
 20
259.307762
 30
0.0
 40
3.5
 41
0.0
 71
     7
 72
     5
  1
\W0.9023;21,8
  7
cesky
 73
     2
 44
0.8433729999999998
  0
LINE
  5
227
330
1F
100
AcDbEntity
  8
2
100
AcDbLine
 10
302.309338
 20
243.731161
 30
0.0
 11
302.309338
 21
260.433595
 31
0.0
  0
LINE
  5
228
330
1F
100
AcDbEntity
  8
2
100
AcDbLine
 10
324.144248
 20
250.731161
 30
0.0
 11
324.144248
 21
260.433595
 31
0.0
  0
LINE
  5
229
330
1F
100
AcDbEntity
  8
2
100
AcDbLine
 10
302.309338
 20
259.433595
 30
0.0
 11
324.144248
 21
259.433595
 31
0.0
  0
SOLID
  5
22A
330
1F
100
AcDbEntity
  8
2
100
AcDbTrace
 10
302.309338
 20
259.433595
 30
0.0
 11
305.809336
 21
260.050739
 31
0.0
 12
305.80934
 22
258.81645
 32
0.0
 13
305.80934
 23
258.81645
 33
0.0
  0
SOLID
  5
22B
330
1F
100
AcDbEntity
  8
2
100
AcDbTrace
 10
324.144248
 20
259.433595
 30
0.0
 11
320.644251
 21
258.81645
 31
0.0
 12
320.644246
 22
260.050739
 32
0.0
 13
320.644246
 23
260.050739
 33
0.0
  0
MTEXT
  5
22C
330
1F
100
AcDbEntity
  8
2
100
AcDbMText
 10
337.736153
 20
242.744492
 30
0.0
 40
3.5
 41
0.0
 71
     7
 72
     5
  1
\W0.7984;10
  7
cesky
 11
0.0000000000000001
 21
1.0
 31
0.0
 73
     2
 44
0.8433729999999998
  0
MTEXT
  5
22D
330
1F
100
AcDbEntity
  8
2
100
AcDbMText
 10
337.736153
 20
236.006992
 30
0.0
 40
3.5
 41
0.0
 71
     7
 72
     5
  1
\W3.0115;\H2.63;%%c\H3.50;
  7
cesky
 11
0.0000000000000001
 21
1.0
 31
0.0
 73
     2
 44
0.8433729999999998
  0
LINE
  5
22E
330
1F
100
AcDbEntity
  8
2
100
AcDbLine
 10
326.144248
 20
248.731161
 30
0.0
 11
338.92357
 21
248.731161
 31
0.0
  0
LINE
  5
22F
330
1F
100
AcDbEntity
  8
2
100
AcDbLine
 10
337.9235700000001
 20
257.481161
 30
0.0
 11
337.9235700000001
 21
248.731161
 31
0.0
  0
SOLID
  5
230
330
1F
100
AcDbEntity
  8
2
100
AcDbTrace
 10
337.9235700000001
 20
248.731161
 30
0.0
 11
337.306425
 21
252.231159
 31
0.0
 12
338.540714
 22
252.231164
 32
0.0
 13
338.540714
 23
252.231164
 33
0.0
  0
MTEXT
  5
231
330
1F
100
AcDbEntity
  8
2
100
AcDbMText
 10
297.546669
 20
231.938661
 30
0.0
 40
3.5
 41
0.0
 71
     7
 72
     5
  1
\W0.6094;8
  7
cesky
 11
0.0000000000000001
 21
1.0
 31
0.0
 73
     2
 44
0.8433729999999998
  0
MTEXT
  5
232
330
1F
100
AcDbEntity
  8
2
100
AcDbMText
 10
297.546669
 20
225.201161
 30
0.0
 40
3.5
 41
0.0
 71
     7
 72
     5
  1
\W3.0115;\H2.63;%%c\H3.50;
  7
cesky
 11
0.0000000000000001
 21
1.0
 31
0.0
 73
     2
 44
0.8433729999999998
  0
LINE
  5
233
330
1F
100
AcDbEntity
  8
2
100
AcDbLine
 10
302.309338
 20
247.706161
 30
0.0
 11
296.734086
 21
247.706161
 31
0.0
  0
LINE
  5
234
330
1F
100
AcDbEntity
  8
2
100
AcDbLine
 10
302.309338
 20
239.756161
 30
0.0
 11
296.734086
 21
239.756161
 31
0.0
  0
LINE
  5
235
330
1F
100
AcDbEntity
  8
2
100
AcDbLine
 10
297.734086
 20
225.043661
 30
0.0
 11
297.734086
 21
256.456161
 31
0.0
  0
SOLID
  5
236
330
1F
100
AcDbEntity
  8
2
100
AcDbTrace
 10
297.734086
 20
247.706161
 30
0.0
 11
297.116942
 21
251.206159
 31
0.0
 12
298.35123
 22
251.206164
 32
0.0
 13
298.35123
 23
251.206164
 33
0.0
  0
SOLID
  5
237
330
1F
100
AcDbEntity
  8
2
100
AcDbTrace
 10
297.734086
 20
239.756161
 30
0.0
 11
298.35123
 21
236.256164
 31
0.0
 12
297.116942
 22
236.256159
 32
0.0
 13
297.116942
 23
236.256159
 33
0.0
  0
MTEXT
  5
238
330
1F
100
AcDbEntity
  8
2
100
AcDbMText
 10
284.829969
 20
266.161853
 30
0.0
 40
3.5
 41
0.0
 71
     7
 72
     5
  1
\W0.7045;75
  7
cesky
 73
     2
 44
0.8433729999999998
  0
LINE
  5
239
330
1F
100
AcDbEntity
  8
2
100
AcDbLine
 10
249.14469
 20
249.729911
 30
0.0
 11
249.14469
 21
267.287687
 31
0.0
  0
LINE
  5
23A
330
1F
100
AcDbEntity
  8
2
100
AcDbLine
 10
324.144248
 20
250.731161
 30
0.0
 11
324.144248
 21
267.287687
 31
0.0
  0
LINE
  5
23B
330
1F
100
AcDbEntity
  8
2
100
AcDbLine
 10
249.14469
 20
266.287687
 30
0.0
 11
324.144248
 21
266.287687
 31
0.0
  0
SOLID
  5
23C
330
1F
100
AcDbEntity
  8
2
100
AcDbTrace
 10
249.14469
 20
266.287687
 30
0.0
 11
252.644688
 21
266.904831
 31
0.0
 12
252.644692
 22
265.670542
 32
0.0
 13
252.644692
 23
265.670542
 33
0.0
  0
SOLID
  5
23D
330
1F
100
AcDbEntity
  8
2
100
AcDbTrace
 10
324.144248
 20
266.287687
 30
0.0
 11
320.644251
 21
265.670542
 31
0.0
 12
320.644246
 22
266.904831
 32
0.0
 13
320.644246
 23
266.904831
 33
0.0
  0
TEXT
  5
23E
330
1F
100
AcDbEntity
  8
SK2
100
AcDbText
 10
255.067248
 20
284.1182816666667
 30
0.0
 40
3.5
  1
132
 41
0.7809000000000001
  7
cesky
100
AcDbText
  0
LINE
  5
23F
330
1F
100
AcDbEntity
  8
SK2
100
AcDbLine
 10
320.6442460925314
 20
283.6743276933135
 30
0.0
 11
320.6614733895403
 21
283.6915549903223
 31
0.0
  0
LINE
  5
240
330
1F
100
AcDbEntity
  8
SK2
100
AcDbLine
 10
320.6442461947887
 20
283.6464890015954
 30
0.0
 11
320.6851392555237
 21
283.6873820623304
 31
0.0
  0
LINE
  5
241
330
1F
100
AcDbEntity
  8
SK2
100
AcDbLine
 10
320.6442462970459
 20
283.6186503098773
 30
0.0
 11
320.7088051215071
 21
283.6832091343384
 31
0.0
  0
LINE
  5
242
330
1F
100
AcDbEntity
  8
SK2
100
AcDbLine
 10
320.6442463993032
 20
283.5908116181593
 30
0.0
 11
320.7324709874904
 21
283.6790362063466
 31
0.0
  0
LINE
  5
243
330
1F
100
AcDbEntity
  8
SK2
100
AcDbLine
 10
320.6442465015604
 20
283.5629729264412
 30
0.0
 11
320.7561368534738
 21
283.6748632783546
 31
0.0
  0
LINE
  5
244
330
1F
100
AcDbEntity
  8
SK2
100
AcDbLine
 10
320.6442466038176
 20
283.5351342347231
 30
0.0
 11
320.7798027194572
 21
283.6706903503627
 31
0.0
  0
LINE
  5
245
330
1F
100
AcDbEntity
  8
SK2
100
AcDbLine
 10
320.6442467060749
 20
283.507295543005
 30
0.0
 11
320.8034685854406
 21
283.6665174223708
 31
0.0
  0
LINE
  5
246
330
1F
100
AcDbEntity
  8
SK2
100
AcDbLine
 10
320.6442468083321
 20
283.4794568512869
 30
0.0
 11
320.827134451424
 21
283.6623444943788
 31
0.0
  0
LINE
  5
247
330
1F
100
AcDbEntity
  8
SK2
100
AcDbLine
 10
320.6442469105893
 20
283.4516181595688
 30
0.0
 11
320.8508003174074
 21
283.6581715663869
 31
0.0
  0
LINE
  5
248
330
1F
100
AcDbEntity
  8
SK2
100
AcDbLine
 10
320.6442470128465
 20
283.4237794678507
 30
0.0
 11
320.8744661833908
 21
283.653998638395
 31
0.0
  0
LINE
  5
249
330
1F
100
AcDbEntity
  8
SK2
100
AcDbLine
 10
320.6442471151037
 20
283.3959407761326
 30
0.0
 11
320.8981320493742
 21
283.6498257104031
 31
0.0
  0
LINE
  5
24A
330
1F
100
AcDbEntity
  8
SK2
100
AcDbLine
 10
320.644247217361
 20
283.3681020844145
 30
0.0
 11
320.9217979153576
 21
283.6456527824111
 31
0.0
  0
LINE
  5
24B
330
1F
100
AcDbEntity
  8
SK2
100
AcDbLine
 10
320.6442473196182
 20
283.3402633926965
 30
0.0
 11
320.9454637813409
 21
283.6414798544192
 31
0.0
  0
LINE
  5
24C
330
1F
100
AcDbEntity
  8
SK2
100
AcDbLine
 10
320.6442474218754
 20
283.3124247009783
 30
0.0
 11
320.9691296473243
 21
283.6373069264272
 31
0.0
  0
LINE
  5
24D
330
1F
100
AcDbEntity
  8
SK2
100
AcDbLine
 10
320.6442475241326
 20
283.2845860092602
 30
0.0
 11
320.9927955133077
 21
283.6331339984353
 31
0.0
  0
LINE
  5
24E
330
1F
100
AcDbEntity
  8
SK2
100
AcDbLine
 10
320.6442476263898
 20
283.2567473175421
 30
0.0
 11
321.016461379291
 21
283.6289610704434
 31
0.0
  0
LINE
  5
24F
330
1F
100
AcDbEntity
  8
SK2
100
AcDbLine
 10
320.644247728647
 20
283.2289086258241
 30
0.0
 11
321.0401272452744
 21
283.6247881424514
 31
0.0
  0
LINE
  5
250
330
1F
100
AcDbEntity
  8
SK2
100
AcDbLine
 10
320.6442478309043
 20
283.201069934106
 30
0.0
 11
321.0637931112578
 21
283.6206152144594
 31
0.0
  0
LINE
  5
251
330
1F
100
AcDbEntity
  8
SK2
100
AcDbLine
 10
320.6442479331615
 20
283.1732312423879
 30
0.0
 11
321.0874589772412
 21
283.6164422864676
 31
0.0
  0
LINE
  5
252
330
1F
100
AcDbEntity
  8
SK2
100
AcDbLine
 10
320.6442480354187
 20
283.1453925506697
 30
0.0
 11
321.1111248432246
 21
283.6122693584757
 31
0.0
  0
LINE
  5
253
330
1F
100
AcDbEntity
  8
SK2
100
AcDbLine
 10
320.644248137676
 20
283.1175538589517
 30
0.0
 11
321.134790709208
 21
283.6080964304837
 31
0.0
  0
LINE
  5
254
330
1F
100
AcDbEntity
  8
SK2
100
AcDbLine
 10
320.6442482399332
 20
283.0897151672336
 30
0.0
 11
321.1584565751914
 21
283.6039235024918
 31
0.0
  0
LINE
  5
255
330
1F
100
AcDbEntity
  8
SK2
100
AcDbLine
 10
320.6442483421904
 20
283.0618764755156
 30
0.0
 11
321.1821224411747
 21
283.5997505744999
 31
0.0
  0
LINE
  5
256
330
1F
100
AcDbEntity
  8
SK2
100
AcDbLine
 10
320.6442484444476
 20
283.0340377837975
 30
0.0
 11
321.2057883071582
 21
283.595577646508
 31
0.0
  0
LINE
  5
257
330
1F
100
AcDbEntity
  8
SK2
100
AcDbLine
 10
320.6442485467048
 20
283.0061990920794
 30
0.0
 11
321.2294541731415
 21
283.591404718516
 31
0.0
  0
LINE
  5
258
330
1F
100
AcDbEntity
  8
SK2
100
AcDbLine
 10
320.6442486489621
 20
282.9783604003613
 30
0.0
 11
321.2531200391249
 21
283.5872317905241
 31
0.0
  0
LINE
  5
259
330
1F
100
AcDbEntity
  8
SK2
100
AcDbLine
 10
320.6442487512193
 20
282.9505217086432
 30
0.0
 11
321.2767859051083
 21
283.5830588625321
 31
0.0
  0
LINE
  5
25A
330
1F
100
AcDbEntity
  8
SK2
100
AcDbLine
 10
320.6442488534765
 20
282.9226830169251
 30
0.0
 11
321.3004517710917
 21
283.5788859345403
 31
0.0
  0
LINE
  5
25B
330
1F
100
AcDbEntity
  8
SK2
100
AcDbLine
 10
320.6442489557337
 20
282.894844325207
 30
0.0
 11
321.324117637075
 21
283.5747130065483
 31
0.0
  0
LINE
  5
25C
330
1F
100
AcDbEntity
  8
SK2
100
AcDbLine
 10
320.644249057991
 20
282.8670056334889
 30
0.0
 11
321.3477835030584
 21
283.5705400785564
 31
0.0
  0
LINE
  5
25D
330
1F
100
AcDbEntity
  8
SK2
100
AcDbLine
 10
320.6442491602483
 20
282.8391669417708
 30
0.0
 11
321.3714493690418
 21
283.5663671505644
 31
0.0
  0
LINE
  5
25E
330
1F
100
AcDbEntity
  8
SK2
100
AcDbLine
 10
320.6442492625054
 20
282.8113282500527
 30
0.0
 11
321.3951152350252
 21
283.5621942225725
 31
0.0
  0
LINE
  5
25F
330
1F
100
AcDbEntity
  8
SK2
100
AcDbLine
 10
320.6442493647627
 20
282.7834895583346
 30
0.0
 11
321.4187811010086
 21
283.5580212945806
 31
0.0
  0
LINE
  5
260
330
1F
100
AcDbEntity
  8
SK2
100
AcDbLine
 10
320.6442494670199
 20
282.7556508666165
 30
0.0
 11
321.442446966992
 21
283.5538483665886
 31
0.0
  0
LINE
  5
261
330
1F
100
AcDbEntity
  8
SK2
100
AcDbLine
 10
320.6442495692771
 20
282.7278121748984
 30
0.0
 11
321.4661128329753
 21
283.5496754385967
 31
0.0
  0
LINE
  5
262
330
1F
100
AcDbEntity
  8
SK2
100
AcDbLine
 10
320.6442496715343
 20
282.6999734831803
 30
0.0
 11
321.4897786989587
 21
283.5455025106048
 31
0.0
  0
LINE
  5
263
330
1F
100
AcDbEntity
  8
SK2
100
AcDbLine
 10
320.6442497737916
 20
282.6721347914623
 30
0.0
 11
321.5134445649421
 21
283.5413295826129
 31
0.0
  0
LINE
  5
264
330
1F
100
AcDbEntity
  8
SK2
100
AcDbLine
 10
320.6442498760488
 20
282.6442960997442
 30
0.0
 11
321.5371104309256
 21
283.537156654621
 31
0.0
  0
LINE
  5
265
330
1F
100
AcDbEntity
  8
SK2
100
AcDbLine
 10
320.644249978306
 20
282.6164574080261
 30
0.0
 11
321.560776296909
 21
283.532983726629
 31
0.0
  0
LINE
  5
266
330
1F
100
AcDbEntity
  8
SK2
100
AcDbLine
 10
320.6442500805632
 20
282.588618716308
 30
0.0
 11
321.5844421628923
 21
283.5288107986371
 31
0.0
  0
LINE
  5
267
330
1F
100
AcDbEntity
  8
SK2
100
AcDbLine
 10
320.6442501828204
 20
282.5607800245899
 30
0.0
 11
321.6081080288757
 21
283.5246378706451
 31
0.0
  0
LINE
  5
268
330
1F
100
AcDbEntity
  8
SK2
100
AcDbLine
 10
320.6442502850777
 20
282.5329413328718
 30
0.0
 11
321.6317738948591
 21
283.5204649426533
 31
0.0
  0
LINE
  5
269
330
1F
100
AcDbEntity
  8
SK2
100
AcDbLine
 10
320.6442503873349
 20
282.5051026411537
 30
0.0
 11
321.6554397608424
 21
283.5162920146613
 31
0.0
  0
LINE
  5
26A
330
1F
100
AcDbEntity
  8
SK2
100
AcDbLine
 10
320.6442504895921
 20
282.4772639494357
 30
0.0
 11
321.6791056268259
 21
283.5121190866694
 31
0.0
  0
LINE
  5
26B
330
1F
100
AcDbEntity
  8
SK2
100
AcDbLine
 10
320.6574579258016
 20
282.4626325916699
 30
0.0
 11
321.7027714928092
 21
283.5079461586774
 31
0.0
  0
LINE
  5
26C
330
1F
100
AcDbEntity
  8
SK2
100
AcDbLine
 10
320.6912562865384
 20
282.4685921584314
 30
0.0
 11
321.7264373587926
 21
283.5037732306855
 31
0.0
  0
LINE
  5
26D
330
1F
100
AcDbEntity
  8
SK2
100
AcDbLine
 10
320.7250546472753
 20
282.4745517251928
 30
0.0
 11
321.750103224776
 21
283.4996003026936
 31
0.0
  0
LINE
  5
26E
330
1F
100
AcDbEntity
  8
SK2
100
AcDbLine
 10
320.7588530080121
 20
282.4805112919544
 30
0.0
 11
321.7737690907594
 21
283.4954273747016
 31
0.0
  0
LINE
  5
26F
330
1F
100
AcDbEntity
  8
SK2
100
AcDbLine
 10
320.7926513687489
 20
282.4864708587158
 30
0.0
 11
321.7974349567428
 21
283.4912544467098
 31
0.0
  0
LINE
  5
270
330
1F
100
AcDbEntity
  8
SK2
100
AcDbLine
 10
320.8264497294857
 20
282.4924304254774
 30
0.0
 11
321.8211008227261
 21
283.4870815187178
 31
0.0
  0
LINE
  5
271
330
1F
100
AcDbEntity
  8
SK2
100
AcDbLine
 10
320.8602480902225
 20
282.4983899922388
 30
0.0
 11
321.8447666887096
 21
283.4829085907259
 31
0.0
  0
LINE
  5
272
330
1F
100
AcDbEntity
  8
SK2
100
AcDbLine
 10
320.8940464509594
 20
282.5043495590004
 30
0.0
 11
321.8684325546929
 21
283.4787356627339
 31
0.0
  0
LINE
  5
273
330
1F
100
AcDbEntity
  8
SK2
100
AcDbLine
 10
320.9278448116961
 20
282.5103091257618
 30
0.0
 11
321.8920984206762
 21
283.474562734742
 31
0.0
  0
LINE
  5
274
330
1F
100
AcDbEntity
  8
SK2
100
AcDbLine
 10
320.961643172433
 20
282.5162686925233
 30
0.0
 11
321.9157642866596
 21
283.47038980675
 31
0.0
  0
LINE
  5
275
330
1F
100
AcDbEntity
  8
SK2
100
AcDbLine
 10
320.9954415331698
 20
282.5222282592849
 30
0.0
 11
321.9394301526431
 21
283.4662168787581
 31
0.0
  0
LINE
  5
276
330
1F
100
AcDbEntity
  8
SK2
100
AcDbLine
 10
321.0292398939066
 20
282.5281878260463
 30
0.0
 11
321.9630960186265
 21
283.4620439507662
 31
0.0
  0
LINE
  5
277
330
1F
100
AcDbEntity
  8
SK2
100
AcDbLine
 10
321.0630382546434
 20
282.5341473928078
 30
0.0
 11
321.9867618846098
 21
283.4578710227743
 31
0.0
  0
LINE
  5
278
330
1F
100
AcDbEntity
  8
SK2
100
AcDbLine
 10
321.0968366153802
 20
282.5401069595693
 30
0.0
 11
322.0104277505932
 21
283.4536980947823
 31
0.0
  0
LINE
  5
279
330
1F
100
AcDbEntity
  8
SK2
100
AcDbLine
 10
321.130634976117
 20
282.5460665263308
 30
0.0
 11
322.0340936165765
 21
283.4495251667904
 31
0.0
  0
LINE
  5
27A
330
1F
100
AcDbEntity
  8
SK2
100
AcDbLine
 10
321.1644333368538
 20
282.5520260930923
 30
0.0
 11
322.05775948256
 21
283.4453522387985
 31
0.0
  0
LINE
  5
27B
330
1F
100
AcDbEntity
  8
SK2
100
AcDbLine
 10
321.1982316975906
 20
282.5579856598538
 30
0.0
 11
322.0814253485433
 21
283.4411793108065
 31
0.0
  0
LINE
  5
27C
330
1F
100
AcDbEntity
  8
SK2
100
AcDbLine
 10
321.2320300583274
 20
282.5639452266154
 30
0.0
 11
322.1050912145268
 21
283.4370063828146
 31
0.0
  0
LINE
  5
27D
330
1F
100
AcDbEntity
  8
SK2
100
AcDbLine
 10
321.2658284190644
 20
282.5699047933769
 30
0.0
 11
322.1287570805101
 21
283.4328334548228
 31
0.0
  0
LINE
  5
27E
330
1F
100
AcDbEntity
  8
SK2
100
AcDbLine
 10
321.2996267798011
 20
282.5758643601384
 30
0.0
 11
322.1524229464935
 21
283.4286605268308
 31
0.0
  0
LINE
  5
27F
330
1F
100
AcDbEntity
  8
SK2
100
AcDbLine
 10
321.3334251405379
 20
282.5818239268999
 30
0.0
 11
322.1760888124769
 21
283.4244875988389
 31
0.0
  0
LINE
  5
280
330
1F
100
AcDbEntity
  8
SK2
100
AcDbLine
 10
321.3672235012747
 20
282.5877834936614
 30
0.0
 11
322.1997546784603
 21
283.4203146708469
 31
0.0
  0
LINE
  5
281
330
1F
100
AcDbEntity
  8
SK2
100
AcDbLine
 10
321.4010218620116
 20
282.5937430604229
 30
0.0
 11
322.2234205444437
 21
283.416141742855
 31
0.0
  0
LINE
  5
282
330
1F
100
AcDbEntity
  8
SK2
100
AcDbLine
 10
321.4348202227484
 20
282.5997026271844
 30
0.0
 11
322.2470864104271
 21
283.411968814863
 31
0.0
  0
LINE
  5
283
330
1F
100
AcDbEntity
  8
SK2
100
AcDbLine
 10
321.4686185834852
 20
282.6056621939459
 30
0.0
 11
322.2707522764105
 21
283.4077958868711
 31
0.0
  0
LINE
  5
284
330
1F
100
AcDbEntity
  8
SK2
100
AcDbLine
 10
321.502416944222
 20
282.6116217607074
 30
0.0
 11
322.2944181423939
 21
283.4036229588792
 31
0.0
  0
LINE
  5
285
330
1F
100
AcDbEntity
  8
SK2
100
AcDbLine
 10
321.5362153049588
 20
282.6175813274688
 30
0.0
 11
322.3180840083772
 21
283.3994500308873
 31
0.0
  0
LINE
  5
286
330
1F
100
AcDbEntity
  8
SK2
100
AcDbLine
 10
321.5700136656956
 20
282.6235408942303
 30
0.0
 11
322.3417498743606
 21
283.3952771028953
 31
0.0
  0
LINE
  5
287
330
1F
100
AcDbEntity
  8
SK2
100
AcDbLine
 10
321.6038120264324
 20
282.6295004609918
 30
0.0
 11
322.365415740344
 21
283.3911041749034
 31
0.0
  0
LINE
  5
288
330
1F
100
AcDbEntity
  8
SK2
100
AcDbLine
 10
321.6376103871692
 20
282.6354600277533
 30
0.0
 11
322.3890816063273
 21
283.3869312469115
 31
0.0
  0
LINE
  5
289
330
1F
100
AcDbEntity
  8
SK2
100
AcDbLine
 10
321.6714087479061
 20
282.6414195945149
 30
0.0
 11
322.4127474723108
 21
283.3827583189195
 31
0.0
  0
LINE
  5
28A
330
1F
100
AcDbEntity
  8
SK2
100
AcDbLine
 10
321.7052071086428
 20
282.6473791612763
 30
0.0
 11
322.4364133382942
 21
283.3785853909276
 31
0.0
  0
LINE
  5
28B
330
1F
100
AcDbEntity
  8
SK2
100
AcDbLine
 10
321.7390054693797
 20
282.6533387280378
 30
0.0
 11
322.4600792042775
 21
283.3744124629356
 31
0.0
  0
LINE
  5
28C
330
1F
100
AcDbEntity
  8
SK2
100
AcDbLine
 10
321.7728038301165
 20
282.6592982947993
 30
0.0
 11
322.4837450702609
 21
283.3702395349438
 31
0.0
  0
LINE
  5
28D
330
1F
100
AcDbEntity
  8
SK2
100
AcDbLine
 10
321.8066021908533
 20
282.6652578615608
 30
0.0
 11
322.5074109362443
 21
283.3660666069518
 31
0.0
  0
LINE
  5
28E
330
1F
100
AcDbEntity
  8
SK2
100
AcDbLine
 10
321.8404005515901
 20
282.6712174283223
 30
0.0
 11
322.5310768022276
 21
283.3618936789599
 31
0.0
  0
LINE
  5
28F
330
1F
100
AcDbEntity
  8
SK2
100
AcDbLine
 10
321.874198912327
 20
282.6771769950839
 30
0.0
 11
322.554742668211
 21
283.3577207509679
 31
0.0
  0
LINE
  5
290
330
1F
100
AcDbEntity
  8
SK2
100
AcDbLine
 10
321.9079972730638
 20
282.6831365618454
 30
0.0
 11
322.5784085341944
 21
283.353547822976
 31
0.0
  0
LINE
  5
291
330
1F
100
AcDbEntity
  8
SK2
100
AcDbLine
 10
321.9417956338006
 20
282.6890961286068
 30
0.0
 11
322.6020744001778
 21
283.3493748949841
 31
0.0
  0
LINE
  5
292
330
1F
100
AcDbEntity
  8
SK2
100
AcDbLine
 10
321.9755939945375
 20
282.6950556953684
 30
0.0
 11
322.6257402661612
 21
283.3452019669922
 31
0.0
  0
LINE
  5
293
330
1F
100
AcDbEntity
  8
SK2
100
AcDbLine
 10
322.0093923552742
 20
282.7010152621299
 30
0.0
 11
322.6494061321446
 21
283.3410290390002
 31
0.0
  0
LINE
  5
294
330
1F
100
AcDbEntity
  8
SK2
100
AcDbLine
 10
322.0431907160111
 20
282.7069748288914
 30
0.0
 11
322.673071998128
 21
283.3368561110083
 31
0.0
  0
LINE
  5
295
330
1F
100
AcDbEntity
  8
SK2
100
AcDbLine
 10
322.0769890767479
 20
282.7129343956529
 30
0.0
 11
322.6967378641114
 21
283.3326831830165
 31
0.0
  0
LINE
  5
296
330
1F
100
AcDbEntity
  8
SK2
100
AcDbLine
 10
322.1107874374847
 20
282.7188939624144
 30
0.0
 11
322.7204037300948
 21
283.3285102550245
 31
0.0
  0
LINE
  5
297
330
1F
100
AcDbEntity
  8
SK2
100
AcDbLine
 10
322.1445857982215
 20
282.7248535291758
 30
0.0
 11
322.7440695960782
 21
283.3243373270325
 31
0.0
  0
LINE
  5
298
330
1F
100
AcDbEntity
  8
SK2
100
AcDbLine
 10
322.1783841589583
 20
282.7308130959374
 30
0.0
 11
322.7677354620616
 21
283.3201643990406
 31
0.0
  0
LINE
  5
299
330
1F
100
AcDbEntity
  8
SK2
100
AcDbLine
 10
322.2121825196952
 20
282.7367726626988
 30
0.0
 11
322.791401328045
 21
283.3159914710487
 31
0.0
  0
LINE
  5
29A
330
1F
100
AcDbEntity
  8
SK2
100
AcDbLine
 10
322.245980880432
 20
282.7427322294604
 30
0.0
 11
322.8150671940283
 21
283.3118185430568
 31
0.0
  0
LINE
  5
29B
330
1F
100
AcDbEntity
  8
SK2
100
AcDbLine
 10
322.2797792411687
 20
282.7486917962218
 30
0.0
 11
322.8387330600117
 21
283.3076456150648
 31
0.0
  0
LINE
  5
29C
330
1F
100
AcDbEntity
  8
SK2
100
AcDbLine
 10
322.3135776019055
 20
282.7546513629834
 30
0.0
 11
322.862398925995
 21
283.3034726870729
 31
0.0
  0
LINE
  5
29D
330
1F
100
AcDbEntity
  8
SK2
100
AcDbLine
 10
322.3473759626423
 20
282.7606109297448
 30
0.0
 11
322.8860647919784
 21
283.2992997590809
 31
0.0
  0
LINE
  5
29E
330
1F
100
AcDbEntity
  8
SK2
100
AcDbLine
 10
322.3811743233792
 20
282.7665704965064
 30
0.0
 11
322.9097306579618
 21
283.295126831089
 31
0.0
  0
LINE
  5
29F
330
1F
100
AcDbEntity
  8
SK2
100
AcDbLine
 10
322.414972684116
 20
282.7725300632679
 30
0.0
 11
322.9333965239452
 21
283.2909539030971
 31
0.0
  0
LINE
  5
2A0
330
1F
100
AcDbEntity
  8
SK2
100
AcDbLine
 10
322.4487710448528
 20
282.7784896300293
 30
0.0
 11
322.9570623899286
 21
283.2867809751052
 31
0.0
  0
LINE
  5
2A1
330
1F
100
AcDbEntity
  8
SK2
100
AcDbLine
 10
322.4825694055896
 20
282.7844491967908
 30
0.0
 11
322.980728255912
 21
283.2826080471132
 31
0.0
  0
LINE
  5
2A2
330
1F
100
AcDbEntity
  8
SK2
100
AcDbLine
 10
322.5163677663264
 20
282.7904087635523
 30
0.0
 11
323.0043941218954
 21
283.2784351191213
 31
0.0
  0
LINE
  5
2A3
330
1F
100
AcDbEntity
  8
SK2
100
AcDbLine
 10
322.5501661270632
 20
282.7963683303138
 30
0.0
 11
323.0280599878788
 21
283.2742621911294
 31
0.0
  0
LINE
  5
2A4
330
1F
100
AcDbEntity
  8
SK2
100
AcDbLine
 10
322.5839644878001
 20
282.8023278970753
 30
0.0
 11
323.0517258538621
 21
283.2700892631375
 31
0.0
  0
LINE
  5
2A5
330
1F
100
AcDbEntity
  8
SK2
100
AcDbLine
 10
322.6177628485369
 20
282.8082874638369
 30
0.0
 11
323.0753917198456
 21
283.2659163351456
 31
0.0
  0
LINE
  5
2A6
330
1F
100
AcDbEntity
  8
SK2
100
AcDbLine
 10
322.6515612092736
 20
282.8142470305984
 30
0.0
 11
323.0990575858289
 21
283.2617434071536
 31
0.0
  0
LINE
  5
2A7
330
1F
100
AcDbEntity
  8
SK2
100
AcDbLine
 10
322.6853595700106
 20
282.8202065973599
 30
0.0
 11
323.1227234518124
 21
283.2575704791617
 31
0.0
  0
LINE
  5
2A8
330
1F
100
AcDbEntity
  8
SK2
100
AcDbLine
 10
322.7191579307473
 20
282.8261661641214
 30
0.0
 11
323.1463893177957
 21
283.2533975511697
 31
0.0
  0
LINE
  5
2A9
330
1F
100
AcDbEntity
  8
SK2
100
AcDbLine
 10
322.7529562914842
 20
282.8321257308829
 30
0.0
 11
323.1700551837791
 21
283.2492246231778
 31
0.0
  0
LINE
  5
2AA
330
1F
100
AcDbEntity
  8
SK2
100
AcDbLine
 10
322.7867546522209
 20
282.8380852976444
 30
0.0
 11
323.1937210497625
 21
283.2450516951858
 31
0.0
  0
LINE
  5
2AB
330
1F
100
AcDbEntity
  8
SK2
100
AcDbLine
 10
322.8205530129578
 20
282.8440448644059
 30
0.0
 11
323.2173869157459
 21
283.240878767194
 31
0.0
  0
LINE
  5
2AC
330
1F
100
AcDbEntity
  8
SK2
100
AcDbLine
 10
322.8543513736946
 20
282.8500044311674
 30
0.0
 11
323.2410527817292
 21
283.236705839202
 31
0.0
  0
LINE
  5
2AD
330
1F
100
AcDbEntity
  8
SK2
100
AcDbLine
 10
322.8881497344314
 20
282.8559639979289
 30
0.0
 11
323.2647186477127
 21
283.2325329112101
 31
0.0
  0
LINE
  5
2AE
330
1F
100
AcDbEntity
  8
SK2
100
AcDbLine
 10
322.9219480951682
 20
282.8619235646904
 30
0.0
 11
323.288384513696
 21
283.2283599832181
 31
0.0
  0
LINE
  5
2AF
330
1F
100
AcDbEntity
  8
SK2
100
AcDbLine
 10
322.955746455905
 20
282.8678831314519
 30
0.0
 11
323.3120503796794
 21
283.2241870552262
 31
0.0
  0
LINE
  5
2B0
330
1F
100
AcDbEntity
  8
SK2
100
AcDbLine
 10
322.9895448166419
 20
282.8738426982134
 30
0.0
 11
323.3357162456627
 21
283.2200141272343
 31
0.0
  0
LINE
  5
2B1
330
1F
100
AcDbEntity
  8
SK2
100
AcDbLine
 10
323.0233431773786
 20
282.8798022649749
 30
0.0
 11
323.3593821116461
 21
283.2158411992423
 31
0.0
  0
LINE
  5
2B2
330
1F
100
AcDbEntity
  8
SK2
100
AcDbLine
 10
323.0571415381155
 20
282.8857618317364
 30
0.0
 11
323.3830479776295
 21
283.2116682712505
 31
0.0
  0
LINE
  5
2B3
330
1F
100
AcDbEntity
  8
SK2
100
AcDbLine
 10
323.0909398988523
 20
282.8917213984979
 30
0.0
 11
323.4067138436129
 21
283.2074953432585
 31
0.0
  0
LINE
  5
2B4
330
1F
100
AcDbEntity
  8
SK2
100
AcDbLine
 10
323.1247382595891
 20
282.8976809652593
 30
0.0
 11
323.4303797095963
 21
283.2033224152666
 31
0.0
  0
LINE
  5
2B5
330
1F
100
AcDbEntity
  8
SK2
100
AcDbLine
 10
323.1585366203259
 20
282.9036405320209
 30
0.0
 11
323.4540455755797
 21
283.1991494872746
 31
0.0
  0
LINE
  5
2B6
330
1F
100
AcDbEntity
  8
SK2
100
AcDbLine
 10
323.1923349810628
 20
282.9096000987823
 30
0.0
 11
323.4777114415631
 21
283.1949765592827
 31
0.0
  0
LINE
  5
2B7
330
1F
100
AcDbEntity
  8
SK2
100
AcDbLine
 10
323.2261333417995
 20
282.9155596655439
 30
0.0
 11
323.5013773075465
 21
283.1908036312908
 31
0.0
  0
LINE
  5
2B8
330
1F
100
AcDbEntity
  8
SK2
100
AcDbLine
 10
323.2599317025364
 20
282.9215192323054
 30
0.0
 11
323.5250431735299
 21
283.1866307032989
 31
0.0
  0
LINE
  5
2B9
330
1F
100
AcDbEntity
  8
SK2
100
AcDbLine
 10
323.2937300632732
 20
282.9274787990669
 30
0.0
 11
323.5487090395133
 21
283.1824577753069
 31
0.0
  0
LINE
  5
2BA
330
1F
100
AcDbEntity
  8
SK2
100
AcDbLine
 10
323.3275284240101
 20
282.9334383658284
 30
0.0
 11
323.5723749054966
 21
283.178284847315
 31
0.0
  0
LINE
  5
2BB
330
1F
100
AcDbEntity
  8
SK2
100
AcDbLine
 10
323.3613267847468
 20
282.9393979325898
 30
0.0
 11
323.59604077148
 21
283.1741119193231
 31
0.0
  0
LINE
  5
2BC
330
1F
100
AcDbEntity
  8
SK2
100
AcDbLine
 10
323.3951251454837
 20
282.9453574993514
 30
0.0
 11
323.6197066374634
 21
283.1699389913311
 31
0.0
  0
LINE
  5
2BD
330
1F
100
AcDbEntity
  8
SK2
100
AcDbLine
 10
323.4289235062204
 20
282.9513170661128
 30
0.0
 11
323.6433725034468
 21
283.1657660633392
 31
0.0
  0
LINE
  5
2BE
330
1F
100
AcDbEntity
  8
SK2
100
AcDbLine
 10
323.4627218669573
 20
282.9572766328744
 30
0.0
 11
323.6670383694301
 21
283.1615931353472
 31
0.0
  0
LINE
  5
2BF
330
1F
100
AcDbEntity
  8
SK2
100
AcDbLine
 10
323.4965202276941
 20
282.9632361996359
 30
0.0
 11
323.6907042354136
 21
283.1574202073554
 31
0.0
  0
LINE
  5
2C0
330
1F
100
AcDbEntity
  8
SK2
100
AcDbLine
 10
323.5303185884309
 20
282.9691957663974
 30
0.0
 11
323.714370101397
 21
283.1532472793634
 31
0.0
  0
LINE
  5
2C1
330
1F
100
AcDbEntity
  8
SK2
100
AcDbLine
 10
323.5641169491677
 20
282.9751553331588
 30
0.0
 11
323.7380359673803
 21
283.1490743513715
 31
0.0
  0
LINE
  5
2C2
330
1F
100
AcDbEntity
  8
SK2
100
AcDbLine
 10
323.5979153099045
 20
282.9811148999204
 30
0.0
 11
323.7617018333637
 21
283.1449014233795
 31
0.0
  0
LINE
  5
2C3
330
1F
100
AcDbEntity
  8
SK2
100
AcDbLine
 10
323.6317136706413
 20
282.9870744666818
 30
0.0
 11
323.785367699347
 21
283.1407284953876
 31
0.0
  0
LINE
  5
2C4
330
1F
100
AcDbEntity
  8
SK2
100
AcDbLine
 10
323.6655120313781
 20
282.9930340334434
 30
0.0
 11
323.8090335653304
 21
283.1365555673956
 31
0.0
  0
LINE
  5
2C5
330
1F
100
AcDbEntity
  8
SK2
100
AcDbLine
 10
323.699310392115
 20
282.9989936002048
 30
0.0
 11
323.8326994313138
 21
283.1323826394037
 31
0.0
  0
LINE
  5
2C6
330
1F
100
AcDbEntity
  8
SK2
100
AcDbLine
 10
323.7331087528517
 20
283.0049531669664
 30
0.0
 11
323.8563652972973
 21
283.1282097114118
 31
0.0
  0
LINE
  5
2C7
330
1F
100
AcDbEntity
  8
SK2
100
AcDbLine
 10
323.7669071135886
 20
283.0109127337279
 30
0.0
 11
323.8800311632806
 21
283.1240367834199
 31
0.0
  0
LINE
  5
2C8
330
1F
100
AcDbEntity
  8
SK2
100
AcDbLine
 10
323.8007054743254
 20
283.0168723004894
 30
0.0
 11
323.903697029264
 21
283.119863855428
 31
0.0
  0
LINE
  5
2C9
330
1F
100
AcDbEntity
  8
SK2
100
AcDbLine
 10
323.8345038350623
 20
283.0228318672509
 30
0.0
 11
323.9273628952474
 21
283.1156909274361
 31
0.0
  0
LINE
  5
2CA
330
1F
100
AcDbEntity
  8
SK2
100
AcDbLine
 10
323.868302195799
 20
283.0287914340124
 30
0.0
 11
323.9510287612308
 21
283.1115179994441
 31
0.0
  0
LINE
  5
2CB
330
1F
100
AcDbEntity
  8
SK2
100
AcDbLine
 10
323.9021005565358
 20
283.0347510007739
 30
0.0
 11
323.9746946272142
 21
283.1073450714522
 31
0.0
  0
LINE
  5
2CC
330
1F
100
AcDbEntity
  8
SK2
100
AcDbLine
 10
323.9358989172727
 20
283.0407105675354
 30
0.0
 11
323.9983604931976
 21
283.1031721434603
 31
0.0
  0
LINE
  5
2CD
330
1F
100
AcDbEntity
  8
SK2
100
AcDbLine
 10
323.9696972780095
 20
283.0466701342969
 30
0.0
 11
324.022026359181
 21
283.0989992154684
 31
0.0
  0
LINE
  5
2CE
330
1F
100
AcDbEntity
  8
SK2
100
AcDbLine
 10
324.0034956387463
 20
283.0526297010584
 30
0.0
 11
324.0456922251643
 21
283.0948262874764
 31
0.0
  0
LINE
  5
2CF
330
1F
100
AcDbEntity
  8
SK2
100
AcDbLine
 10
324.0372939994831
 20
283.0585892678199
 30
0.0
 11
324.0693580911477
 21
283.0906533594845
 31
0.0
  0
LINE
  5
2D0
330
1F
100
AcDbEntity
  8
SK2
100
AcDbLine
 10
324.07109236022
 20
283.0645488345814
 30
0.0
 11
324.0930239571311
 21
283.0864804314925
 31
0.0
  0
LINE
  5
2D1
330
1F
100
AcDbEntity
  8
SK2
100
AcDbLine
 10
324.1048907209568
 20
283.0705084013429
 30
0.0
 11
324.1166898231145
 21
283.0823075035007
 31
0.0
  0
LINE
  5
2D2
330
1F
100
AcDbEntity
  8
SK2
100
AcDbLine
 10
324.1386890816936
 20
283.0764679681044
 30
0.0
 11
324.1403556890979
 21
283.0781345755087
 31
0.0
  0
LINE
  5
2D3
330
1F
100
AcDbEntity
  8
SK2
100
AcDbLine
 10
192.1541934781495
 20
283.0756946015259
 30
0.0
 11
192.1584514933668
 21
283.0799526167432
 31
0.0
  0
LINE
  5
2D4
330
1F
100
AcDbEntity
  8
SK2
100
AcDbLine
 10
192.1778593441329
 20
283.071521673534
 30
0.0
 11
192.1922498541036
 21
283.0859121835047
 31
0.0
  0
LINE
  5
2D5
330
1F
100
AcDbEntity
  8
SK2
100
AcDbLine
 10
192.2015252101163
 20
283.067348745542
 30
0.0
 11
192.2260482148404
 21
283.0918717502662
 31
0.0
  0
LINE
  5
2D6
330
1F
100
AcDbEntity
  8
SK2
100
AcDbLine
 10
192.2251910760997
 20
283.0631758175501
 30
0.0
 11
192.2598465755772
 21
283.0978313170277
 31
0.0
  0
LINE
  5
2D7
330
1F
100
AcDbEntity
  8
SK2
100
AcDbLine
 10
192.2488569420831
 20
283.0590028895582
 30
0.0
 11
192.293644936314
 21
283.1037908837891
 31
0.0
  0
LINE
  5
2D8
330
1F
100
AcDbEntity
  8
SK2
100
AcDbLine
 10
192.2725228080665
 20
283.0548299615663
 30
0.0
 11
192.3274432970508
 21
283.1097504505506
 31
0.0
  0
LINE
  5
2D9
330
1F
100
AcDbEntity
  8
SK2
100
AcDbLine
 10
192.2961886740498
 20
283.0506570335743
 30
0.0
 11
192.3612416577876
 21
283.1157100173122
 31
0.0
  0
LINE
  5
2DA
330
1F
100
AcDbEntity
  8
SK2
100
AcDbLine
 10
192.3198545400332
 20
283.0464841055824
 30
0.0
 11
192.3950400185244
 21
283.1216695840737
 31
0.0
  0
LINE
  5
2DB
330
1F
100
AcDbEntity
  8
SK2
100
AcDbLine
 10
192.3435204060166
 20
283.0423111775905
 30
0.0
 11
192.4288383792613
 21
283.1276291508352
 31
0.0
  0
LINE
  5
2DC
330
1F
100
AcDbEntity
  8
SK2
100
AcDbLine
 10
192.367186272
 20
283.0381382495986
 30
0.0
 11
192.4626367399981
 21
283.1335887175967
 31
0.0
  0
LINE
  5
2DD
330
1F
100
AcDbEntity
  8
SK2
100
AcDbLine
 10
192.3908521379833
 20
283.0339653216066
 30
0.0
 11
192.4964351007349
 21
283.1395482843582
 31
0.0
  0
LINE
  5
2DE
330
1F
100
AcDbEntity
  8
SK2
100
AcDbLine
 10
192.4145180039668
 20
283.0297923936147
 30
0.0
 11
192.5302334614718
 21
283.1455078511197
 31
0.0
  0
LINE
  5
2DF
330
1F
100
AcDbEntity
  8
SK2
100
AcDbLine
 10
192.4381838699501
 20
283.0256194656227
 30
0.0
 11
192.5640318222086
 21
283.1514674178812
 31
0.0
  0
LINE
  5
2E0
330
1F
100
AcDbEntity
  8
SK2
100
AcDbLine
 10
192.4618497359335
 20
283.0214465376308
 30
0.0
 11
192.5978301829454
 21
283.1574269846427
 31
0.0
  0
LINE
  5
2E1
330
1F
100
AcDbEntity
  8
SK2
100
AcDbLine
 10
192.4855156019169
 20
283.0172736096389
 30
0.0
 11
192.6316285436822
 21
283.1633865514042
 31
0.0
  0
LINE
  5
2E2
330
1F
100
AcDbEntity
  8
SK2
100
AcDbLine
 10
192.5091814679003
 20
283.013100681647
 30
0.0
 11
192.665426904419
 21
283.1693461181657
 31
0.0
  0
LINE
  5
2E3
330
1F
100
AcDbEntity
  8
SK2
100
AcDbLine
 10
192.5328473338837
 20
283.008927753655
 30
0.0
 11
192.6992252651558
 21
283.1753056849272
 31
0.0
  0
LINE
  5
2E4
330
1F
100
AcDbEntity
  8
SK2
100
AcDbLine
 10
192.556513199867
 20
283.0047548256631
 30
0.0
 11
192.7330236258926
 21
283.1812652516887
 31
0.0
  0
LINE
  5
2E5
330
1F
100
AcDbEntity
  8
SK2
100
AcDbLine
 10
192.5801790658504
 20
283.0005818976712
 30
0.0
 11
192.7668219866294
 21
283.1872248184502
 31
0.0
  0
LINE
  5
2E6
330
1F
100
AcDbEntity
  8
SK2
100
AcDbLine
 10
192.6038449318338
 20
282.9964089696792
 30
0.0
 11
192.8006203473663
 21
283.1931843852117
 31
0.0
  0
LINE
  5
2E7
330
1F
100
AcDbEntity
  8
SK2
100
AcDbLine
 10
192.6275107978172
 20
282.9922360416873
 30
0.0
 11
192.8344187081031
 21
283.1991439519732
 31
0.0
  0
LINE
  5
2E8
330
1F
100
AcDbEntity
  8
SK2
100
AcDbLine
 10
192.6511766638006
 20
282.9880631136954
 30
0.0
 11
192.8682170688398
 21
283.2051035187347
 31
0.0
  0
LINE
  5
2E9
330
1F
100
AcDbEntity
  8
SK2
100
AcDbLine
 10
192.674842529784
 20
282.9838901857034
 30
0.0
 11
192.9020154295767
 21
283.2110630854962
 31
0.0
  0
LINE
  5
2EA
330
1F
100
AcDbEntity
  8
SK2
100
AcDbLine
 10
192.6985083957674
 20
282.9797172577115
 30
0.0
 11
192.9358137903135
 21
283.2170226522577
 31
0.0
  0
LINE
  5
2EB
330
1F
100
AcDbEntity
  8
SK2
100
AcDbLine
 10
192.7221742617507
 20
282.9755443297196
 30
0.0
 11
192.9696121510503
 21
283.2229822190192
 31
0.0
  0
LINE
  5
2EC
330
1F
100
AcDbEntity
  8
SK2
100
AcDbLine
 10
192.7458401277342
 20
282.9713714017277
 30
0.0
 11
193.0034105117871
 21
283.2289417857806
 31
0.0
  0
LINE
  5
2ED
330
1F
100
AcDbEntity
  8
SK2
100
AcDbLine
 10
192.7695059937175
 20
282.9671984737358
 30
0.0
 11
193.037208872524
 21
283.2349013525422
 31
0.0
  0
LINE
  5
2EE
330
1F
100
AcDbEntity
  8
SK2
100
AcDbLine
 10
192.7931718597009
 20
282.9630255457438
 30
0.0
 11
193.0710072332608
 21
283.2408609193036
 31
0.0
  0
LINE
  5
2EF
330
1F
100
AcDbEntity
  8
SK2
100
AcDbLine
 10
192.8168377256843
 20
282.9588526177519
 30
0.0
 11
193.1048055939976
 21
283.2468204860652
 31
0.0
  0
LINE
  5
2F0
330
1F
100
AcDbEntity
  8
SK2
100
AcDbLine
 10
192.8405035916677
 20
282.9546796897599
 30
0.0
 11
193.1386039547344
 21
283.2527800528266
 31
0.0
  0
LINE
  5
2F1
330
1F
100
AcDbEntity
  8
SK2
100
AcDbLine
 10
192.8641694576511
 20
282.9505067617681
 30
0.0
 11
193.1724023154712
 21
283.2587396195882
 31
0.0
  0
LINE
  5
2F2
330
1F
100
AcDbEntity
  8
SK2
100
AcDbLine
 10
192.8878353236344
 20
282.9463338337761
 30
0.0
 11
193.2062006762081
 21
283.2646991863498
 31
0.0
  0
LINE
  5
2F3
330
1F
100
AcDbEntity
  8
SK2
100
AcDbLine
 10
192.9115011896178
 20
282.9421609057841
 30
0.0
 11
193.2399990369449
 21
283.2706587531112
 31
0.0
  0
LINE
  5
2F4
330
1F
100
AcDbEntity
  8
SK2
100
AcDbLine
 10
192.9351670556012
 20
282.9379879777922
 30
0.0
 11
193.2737973976817
 21
283.2766183198728
 31
0.0
  0
LINE
  5
2F5
330
1F
100
AcDbEntity
  8
SK2
100
AcDbLine
 10
192.9588329215846
 20
282.9338150498003
 30
0.0
 11
193.3075957584185
 21
283.2825778866342
 31
0.0
  0
LINE
  5
2F6
330
1F
100
AcDbEntity
  8
SK2
100
AcDbLine
 10
192.982498787568
 20
282.9296421218083
 30
0.0
 11
193.3413941191553
 21
283.2885374533957
 31
0.0
  0
LINE
  5
2F7
330
1F
100
AcDbEntity
  8
SK2
100
AcDbLine
 10
193.0061646535514
 20
282.9254691938165
 30
0.0
 11
193.3751924798921
 21
283.2944970201572
 31
0.0
  0
LINE
  5
2F8
330
1F
100
AcDbEntity
  8
SK2
100
AcDbLine
 10
193.0298305195347
 20
282.9212962658246
 30
0.0
 11
193.408990840629
 21
283.3004565869188
 31
0.0
  0
LINE
  5
2F9
330
1F
100
AcDbEntity
  8
SK2
100
AcDbLine
 10
193.0534963855181
 20
282.9171233378326
 30
0.0
 11
193.4427892013657
 21
283.3064161536802
 31
0.0
  0
LINE
  5
2FA
330
1F
100
AcDbEntity
  8
SK2
100
AcDbLine
 10
193.0771622515015
 20
282.9129504098406
 30
0.0
 11
193.4765875621025
 21
283.3123757204417
 31
0.0
  0
LINE
  5
2FB
330
1F
100
AcDbEntity
  8
SK2
100
AcDbLine
 10
193.1008281174849
 20
282.9087774818487
 30
0.0
 11
193.5103859228394
 21
283.3183352872032
 31
0.0
  0
LINE
  5
2FC
330
1F
100
AcDbEntity
  8
SK2
100
AcDbLine
 10
193.1244939834683
 20
282.9046045538568
 30
0.0
 11
193.5441842835762
 21
283.3242948539647
 31
0.0
  0
LINE
  5
2FD
330
1F
100
AcDbEntity
  8
SK2
100
AcDbLine
 10
193.1481598494517
 20
282.9004316258649
 30
0.0
 11
193.577982644313
 21
283.3302544207262
 31
0.0
  0
LINE
  5
2FE
330
1F
100
AcDbEntity
  8
SK2
100
AcDbLine
 10
193.1718257154351
 20
282.8962586978729
 30
0.0
 11
193.6117810050498
 21
283.3362139874877
 31
0.0
  0
LINE
  5
2FF
330
1F
100
AcDbEntity
  8
SK2
100
AcDbLine
 10
193.1954915814184
 20
282.892085769881
 30
0.0
 11
193.6455793657866
 21
283.3421735542492
 31
0.0
  0
LINE
  5
300
330
1F
100
AcDbEntity
  8
SK2
100
AcDbLine
 10
193.2191574474019
 20
282.8879128418891
 30
0.0
 11
193.6793777265235
 21
283.3481331210107
 31
0.0
  0
LINE
  5
301
330
1F
100
AcDbEntity
  8
SK2
100
AcDbLine
 10
193.2428233133853
 20
282.8837399138972
 30
0.0
 11
193.7131760872603
 21
283.3540926877722
 31
0.0
  0
LINE
  5
302
330
1F
100
AcDbEntity
  8
SK2
100
AcDbLine
 10
193.2664891793686
 20
282.8795669859052
 30
0.0
 11
193.7469744479971
 21
283.3600522545337
 31
0.0
  0
LINE
  5
303
330
1F
100
AcDbEntity
  8
SK2
100
AcDbLine
 10
193.2901550453519
 20
282.8753940579133
 30
0.0
 11
193.7807728087339
 21
283.3660118212952
 31
0.0
  0
LINE
  5
304
330
1F
100
AcDbEntity
  8
SK2
100
AcDbLine
 10
193.3138209113353
 20
282.8712211299214
 30
0.0
 11
193.8145711694708
 21
283.3719713880567
 31
0.0
  0
LINE
  5
305
330
1F
100
AcDbEntity
  8
SK2
100
AcDbLine
 10
193.3374867773187
 20
282.8670482019294
 30
0.0
 11
193.8483695302075
 21
283.3779309548182
 31
0.0
  0
LINE
  5
306
330
1F
100
AcDbEntity
  8
SK2
100
AcDbLine
 10
193.3611526433021
 20
282.8628752739375
 30
0.0
 11
193.8821678909444
 21
283.3838905215797
 31
0.0
  0
LINE
  5
307
330
1F
100
AcDbEntity
  8
SK2
100
AcDbLine
 10
193.3848185092855
 20
282.8587023459456
 30
0.0
 11
193.9159662516812
 21
283.3898500883412
 31
0.0
  0
LINE
  5
308
330
1F
100
AcDbEntity
  8
SK2
100
AcDbLine
 10
193.4084843752689
 20
282.8545294179536
 30
0.0
 11
193.949764612418
 21
283.3958096551027
 31
0.0
  0
LINE
  5
309
330
1F
100
AcDbEntity
  8
SK2
100
AcDbLine
 10
193.4321502412523
 20
282.8503564899617
 30
0.0
 11
193.9835629731548
 21
283.4017692218642
 31
0.0
  0
LINE
  5
30A
330
1F
100
AcDbEntity
  8
SK2
100
AcDbLine
 10
193.4558161072356
 20
282.8461835619697
 30
0.0
 11
194.0173613338916
 21
283.4077287886257
 31
0.0
  0
LINE
  5
30B
330
1F
100
AcDbEntity
  8
SK2
100
AcDbLine
 10
193.479481973219
 20
282.8420106339779
 30
0.0
 11
194.0511596946284
 21
283.4136883553872
 31
0.0
  0
LINE
  5
30C
330
1F
100
AcDbEntity
  8
SK2
100
AcDbLine
 10
193.5031478392024
 20
282.8378377059859
 30
0.0
 11
194.0849580553653
 21
283.4196479221487
 31
0.0
  0
LINE
  5
30D
330
1F
100
AcDbEntity
  8
SK2
100
AcDbLine
 10
193.5268137051858
 20
282.833664777994
 30
0.0
 11
194.1187564161021
 21
283.4256074889103
 31
0.0
  0
LINE
  5
30E
330
1F
100
AcDbEntity
  8
SK2
100
AcDbLine
 10
193.5504795711691
 20
282.829491850002
 30
0.0
 11
194.1525547768389
 21
283.4315670556717
 31
0.0
  0
LINE
  5
30F
330
1F
100
AcDbEntity
  8
SK2
100
AcDbLine
 10
193.5741454371526
 20
282.8253189220101
 30
0.0
 11
194.1863531375757
 21
283.4375266224333
 31
0.0
  0
LINE
  5
310
330
1F
100
AcDbEntity
  8
SK2
100
AcDbLine
 10
193.597811303136
 20
282.8211459940182
 30
0.0
 11
194.2201514983125
 21
283.4434861891947
 31
0.0
  0
LINE
  5
311
330
1F
100
AcDbEntity
  8
SK2
100
AcDbLine
 10
193.6214771691193
 20
282.8169730660263
 30
0.0
 11
194.2539498590493
 21
283.4494457559563
 31
0.0
  0
LINE
  5
312
330
1F
100
AcDbEntity
  8
SK2
100
AcDbLine
 10
193.6451430351027
 20
282.8128001380344
 30
0.0
 11
194.2877482197862
 21
283.4554053227178
 31
0.0
  0
LINE
  5
313
330
1F
100
AcDbEntity
  8
SK2
100
AcDbLine
 10
193.6688089010861
 20
282.8086272100424
 30
0.0
 11
194.321546580523
 21
283.4613648894792
 31
0.0
  0
LINE
  5
314
330
1F
100
AcDbEntity
  8
SK2
100
AcDbLine
 10
193.6924747670695
 20
282.8044542820505
 30
0.0
 11
194.3553449412598
 21
283.4673244562408
 31
0.0
  0
LINE
  5
315
330
1F
100
AcDbEntity
  8
SK2
100
AcDbLine
 10
193.7161406330529
 20
282.8002813540586
 30
0.0
 11
194.3891433019966
 21
283.4732840230022
 31
0.0
  0
LINE
  5
316
330
1F
100
AcDbEntity
  8
SK2
100
AcDbLine
 10
193.7398064990363
 20
282.7961084260667
 30
0.0
 11
194.4229416627334
 21
283.4792435897638
 31
0.0
  0
LINE
  5
317
330
1F
100
AcDbEntity
  8
SK2
100
AcDbLine
 10
193.7634723650197
 20
282.7919354980748
 30
0.0
 11
194.4567400234702
 21
283.4852031565252
 31
0.0
  0
LINE
  5
318
330
1F
100
AcDbEntity
  8
SK2
100
AcDbLine
 10
193.787138231003
 20
282.7877625700828
 30
0.0
 11
194.490538384207
 21
283.4911627232867
 31
0.0
  0
LINE
  5
319
330
1F
100
AcDbEntity
  8
SK2
100
AcDbLine
 10
193.8108040969865
 20
282.7835896420909
 30
0.0
 11
194.5243367449439
 21
283.4971222900482
 31
0.0
  0
LINE
  5
31A
330
1F
100
AcDbEntity
  8
SK2
100
AcDbLine
 10
193.8344699629699
 20
282.7794167140989
 30
0.0
 11
194.5581351056807
 21
283.5030818568098
 31
0.0
  0
LINE
  5
31B
330
1F
100
AcDbEntity
  8
SK2
100
AcDbLine
 10
193.8581358289532
 20
282.775243786107
 30
0.0
 11
194.5919334664175
 21
283.5090414235712
 31
0.0
  0
LINE
  5
31C
330
1F
100
AcDbEntity
  8
SK2
100
AcDbLine
 10
193.8818016949366
 20
282.7710708581151
 30
0.0
 11
194.6257318271543
 21
283.5150009903328
 31
0.0
  0
LINE
  5
31D
330
1F
100
AcDbEntity
  8
SK2
100
AcDbLine
 10
193.90546756092
 20
282.7668979301232
 30
0.0
 11
194.6595301878911
 21
283.5209605570942
 31
0.0
  0
LINE
  5
31E
330
1F
100
AcDbEntity
  8
SK2
100
AcDbLine
 10
193.9291334269034
 20
282.7627250021312
 30
0.0
 11
194.6933285486279
 21
283.5269201238558
 31
0.0
  0
LINE
  5
31F
330
1F
100
AcDbEntity
  8
SK2
100
AcDbLine
 10
193.9527992928868
 20
282.7585520741392
 30
0.0
 11
194.7271269093647
 21
283.5328796906172
 31
0.0
  0
LINE
  5
320
330
1F
100
AcDbEntity
  8
SK2
100
AcDbLine
 10
193.9764651588701
 20
282.7543791461474
 30
0.0
 11
194.7609252701015
 21
283.5388392573788
 31
0.0
  0
LINE
  5
321
330
1F
100
AcDbEntity
  8
SK2
100
AcDbLine
 10
194.0001310248535
 20
282.7502062181554
 30
0.0
 11
194.7947236308384
 21
283.5447988241402
 31
0.0
  0
LINE
  5
322
330
1F
100
AcDbEntity
  8
SK2
100
AcDbLine
 10
194.023796890837
 20
282.7460332901635
 30
0.0
 11
194.8285219915752
 21
283.5507583909017
 31
0.0
  0
LINE
  5
323
330
1F
100
AcDbEntity
  8
SK2
100
AcDbLine
 10
194.0474627568203
 20
282.7418603621715
 30
0.0
 11
194.862320352312
 21
283.5567179576633
 31
0.0
  0
LINE
  5
324
330
1F
100
AcDbEntity
  8
SK2
100
AcDbLine
 10
194.0711286228037
 20
282.7376874341796
 30
0.0
 11
194.8961187130489
 21
283.5626775244248
 31
0.0
  0
LINE
  5
325
330
1F
100
AcDbEntity
  8
SK2
100
AcDbLine
 10
194.094794488787
 20
282.7335145061876
 30
0.0
 11
194.9299170737857
 21
283.5686370911863
 31
0.0
  0
LINE
  5
326
330
1F
100
AcDbEntity
  8
SK2
100
AcDbLine
 10
194.1184603547705
 20
282.7293415781958
 30
0.0
 11
194.9637154345224
 21
283.5745966579478
 31
0.0
  0
LINE
  5
327
330
1F
100
AcDbEntity
  8
SK2
100
AcDbLine
 10
194.1421262207538
 20
282.7251686502038
 30
0.0
 11
194.9975137952593
 21
283.5805562247093
 31
0.0
  0
LINE
  5
328
330
1F
100
AcDbEntity
  8
SK2
100
AcDbLine
 10
194.1657920867372
 20
282.7209957222119
 30
0.0
 11
195.0313121559961
 21
283.5865157914708
 31
0.0
  0
LINE
  5
329
330
1F
100
AcDbEntity
  8
SK2
100
AcDbLine
 10
194.1894579527206
 20
282.71682279422
 30
0.0
 11
195.0651105167329
 21
283.5924753582322
 31
0.0
  0
LINE
  5
32A
330
1F
100
AcDbEntity
  8
SK2
100
AcDbLine
 10
194.213123818704
 20
282.7126498662281
 30
0.0
 11
195.0989088774697
 21
283.5984349249937
 31
0.0
  0
LINE
  5
32B
330
1F
100
AcDbEntity
  8
SK2
100
AcDbLine
 10
194.2367896846874
 20
282.7084769382361
 30
0.0
 11
195.1327072382065
 21
283.6043944917552
 31
0.0
  0
LINE
  5
32C
330
1F
100
AcDbEntity
  8
SK2
100
AcDbLine
 10
194.2604555506708
 20
282.7043040102442
 30
0.0
 11
195.1665055989433
 21
283.6103540585167
 31
0.0
  0
LINE
  5
32D
330
1F
100
AcDbEntity
  8
SK2
100
AcDbLine
 10
194.2841214166542
 20
282.7001310822522
 30
0.0
 11
195.2003039596802
 21
283.6163136252783
 31
0.0
  0
LINE
  5
32E
330
1F
100
AcDbEntity
  8
SK2
100
AcDbLine
 10
194.3077872826375
 20
282.6959581542603
 30
0.0
 11
195.234102320417
 21
283.6222731920397
 31
0.0
  0
LINE
  5
32F
330
1F
100
AcDbEntity
  8
SK2
100
AcDbLine
 10
194.3314531486209
 20
282.6917852262684
 30
0.0
 11
195.2679006811538
 21
283.6282327588013
 31
0.0
  0
LINE
  5
330
330
1F
100
AcDbEntity
  8
SK2
100
AcDbLine
 10
194.3551190146042
 20
282.6876122982764
 30
0.0
 11
195.3016990418906
 21
283.6341923255627
 31
0.0
  0
LINE
  5
331
330
1F
100
AcDbEntity
  8
SK2
100
AcDbLine
 10
194.3787848805877
 20
282.6834393702845
 30
0.0
 11
195.3354974026274
 21
283.6401518923243
 31
0.0
  0
LINE
  5
332
330
1F
100
AcDbEntity
  8
SK2
100
AcDbLine
 10
194.402450746571
 20
282.6792664422925
 30
0.0
 11
195.3692957633642
 21
283.6461114590857
 31
0.0
  0
LINE
  5
333
330
1F
100
AcDbEntity
  8
SK2
100
AcDbLine
 10
194.4261166125544
 20
282.6750935143007
 30
0.0
 11
195.4030941241011
 21
283.6520710258473
 31
0.0
  0
LINE
  5
334
330
1F
100
AcDbEntity
  8
SK2
100
AcDbLine
 10
194.4497824785378
 20
282.6709205863087
 30
0.0
 11
195.4368924848378
 21
283.6580305926087
 31
0.0
  0
LINE
  5
335
330
1F
100
AcDbEntity
  8
SK2
100
AcDbLine
 10
194.4734483445212
 20
282.6667476583168
 30
0.0
 11
195.4706908455747
 21
283.6639901593703
 31
0.0
  0
LINE
  5
336
330
1F
100
AcDbEntity
  8
SK2
100
AcDbLine
 10
194.4971142105046
 20
282.6625747303249
 30
0.0
 11
195.5044892063115
 21
283.6699497261318
 31
0.0
  0
LINE
  5
337
330
1F
100
AcDbEntity
  8
SK2
100
AcDbLine
 10
194.520780076488
 20
282.658401802333
 30
0.0
 11
195.5382875670484
 21
283.6759092928933
 31
0.0
  0
LINE
  5
338
330
1F
100
AcDbEntity
  8
SK2
100
AcDbLine
 10
194.5444459424714
 20
282.654228874341
 30
0.0
 11
195.5720859277851
 21
283.6818688596548
 31
0.0
  0
LINE
  5
339
330
1F
100
AcDbEntity
  8
SK2
100
AcDbLine
 10
194.5681118084548
 20
282.6500559463491
 30
0.0
 11
195.605884288522
 21
283.6878284264163
 31
0.0
  0
LINE
  5
33A
330
1F
100
AcDbEntity
  8
SK2
100
AcDbLine
 10
194.5917776744381
 20
282.6458830183572
 30
0.0
 11
195.6396826492588
 21
283.6937879931778
 31
0.0
  0
LINE
  5
33B
330
1F
100
AcDbEntity
  8
SK2
100
AcDbLine
 10
194.6154435404216
 20
282.6417100903653
 30
0.0
 11
195.6442461065449
 21
283.6705126564886
 31
0.0
  0
LINE
  5
33C
330
1F
100
AcDbEntity
  8
SK2
100
AcDbLine
 10
194.6391094064049
 20
282.6375371623733
 30
0.0
 11
195.6442462088021
 21
283.6426739647705
 31
0.0
  0
LINE
  5
33D
330
1F
100
AcDbEntity
  8
SK2
100
AcDbLine
 10
194.6627752723883
 20
282.6333642343814
 30
0.0
 11
195.6442463110593
 21
283.6148352730524
 31
0.0
  0
LINE
  5
33E
330
1F
100
AcDbEntity
  8
SK2
100
AcDbLine
 10
194.6864411383717
 20
282.6291913063894
 30
0.0
 11
195.6442464133166
 21
283.5869965813344
 31
0.0
  0
LINE
  5
33F
330
1F
100
AcDbEntity
  8
SK2
100
AcDbLine
 10
194.7101070043551
 20
282.6250183783975
 30
0.0
 11
195.6442465155738
 21
283.5591578896162
 31
0.0
  0
LINE
  5
340
330
1F
100
AcDbEntity
  8
SK2
100
AcDbLine
 10
194.7337728703385
 20
282.6208454504056
 30
0.0
 11
195.644246617831
 21
283.5313191978982
 31
0.0
  0
LINE
  5
341
330
1F
100
AcDbEntity
  8
SK2
100
AcDbLine
 10
194.7574387363219
 20
282.6166725224137
 30
0.0
 11
195.6442467200883
 21
283.5034805061801
 31
0.0
  0
LINE
  5
342
330
1F
100
AcDbEntity
  8
SK2
100
AcDbLine
 10
194.7811046023053
 20
282.6124995944218
 30
0.0
 11
195.6442468223455
 21
283.475641814462
 31
0.0
  0
LINE
  5
343
330
1F
100
AcDbEntity
  8
SK2
100
AcDbLine
 10
194.8047704682886
 20
282.6083266664298
 30
0.0
 11
195.6442469246027
 21
283.4478031227439
 31
0.0
  0
LINE
  5
344
330
1F
100
AcDbEntity
  8
SK2
100
AcDbLine
 10
194.828436334272
 20
282.6041537384378
 30
0.0
 11
195.6442470268599
 21
283.4199644310258
 31
0.0
  0
LINE
  5
345
330
1F
100
AcDbEntity
  8
SK2
100
AcDbLine
 10
194.8521022002554
 20
282.5999808104459
 30
0.0
 11
195.6442471291171
 21
283.3921257393077
 31
0.0
  0
LINE
  5
346
330
1F
100
AcDbEntity
  8
SK2
100
AcDbLine
 10
194.8757680662388
 20
282.5958078824541
 30
0.0
 11
195.6442472313744
 21
283.3642870475896
 31
0.0
  0
LINE
  5
347
330
1F
100
AcDbEntity
  8
SK2
100
AcDbLine
 10
194.8994339322221
 20
282.5916349544621
 30
0.0
 11
195.6442473336316
 21
283.3364483558715
 31
0.0
  0
LINE
  5
348
330
1F
100
AcDbEntity
  8
SK2
100
AcDbLine
 10
194.9230997982056
 20
282.5874620264702
 30
0.0
 11
195.6442474358889
 21
283.3086096641535
 31
0.0
  0
LINE
  5
349
330
1F
100
AcDbEntity
  8
SK2
100
AcDbLine
 10
194.9467656641889
 20
282.5832890984782
 30
0.0
 11
195.644247538146
 21
283.2807709724353
 31
0.0
  0
LINE
  5
34A
330
1F
100
AcDbEntity
  8
SK2
100
AcDbLine
 10
194.9704315301723
 20
282.5791161704863
 30
0.0
 11
195.6442476404033
 21
283.2529322807173
 31
0.0
  0
LINE
  5
34B
330
1F
100
AcDbEntity
  8
SK2
100
AcDbLine
 10
194.9940973961557
 20
282.5749432424944
 30
0.0
 11
195.6442477426605
 21
283.2250935889992
 31
0.0
  0
LINE
  5
34C
330
1F
100
AcDbEntity
  8
SK2
100
AcDbLine
 10
195.0177632621391
 20
282.5707703145024
 30
0.0
 11
195.6442478449177
 21
283.1972548972811
 31
0.0
  0
LINE
  5
34D
330
1F
100
AcDbEntity
  8
SK2
100
AcDbLine
 10
195.0414291281225
 20
282.5665973865105
 30
0.0
 11
195.6442479471749
 21
283.169416205563
 31
0.0
  0
LINE
  5
34E
330
1F
100
AcDbEntity
  8
SK2
100
AcDbLine
 10
195.0650949941058
 20
282.5624244585186
 30
0.0
 11
195.6442480494322
 21
283.1415775138449
 31
0.0
  0
LINE
  5
34F
330
1F
100
AcDbEntity
  8
SK2
100
AcDbLine
 10
195.0887608600893
 20
282.5582515305267
 30
0.0
 11
195.6442481516894
 21
283.1137388221268
 31
0.0
  0
LINE
  5
350
330
1F
100
AcDbEntity
  8
SK2
100
AcDbLine
 10
195.1124267260726
 20
282.5540786025347
 30
0.0
 11
195.6442482539466
 21
283.0859001304087
 31
0.0
  0
LINE
  5
351
330
1F
100
AcDbEntity
  8
SK2
100
AcDbLine
 10
195.136092592056
 20
282.5499056745428
 30
0.0
 11
195.6442483562038
 21
283.0580614386906
 31
0.0
  0
LINE
  5
352
330
1F
100
AcDbEntity
  8
SK2
100
AcDbLine
 10
195.1597584580394
 20
282.5457327465508
 30
0.0
 11
195.644248458461
 21
283.0302227469725
 31
0.0
  0
LINE
  5
353
330
1F
100
AcDbEntity
  8
SK2
100
AcDbLine
 10
195.1834243240228
 20
282.5415598185589
 30
0.0
 11
195.6442485607183
 21
283.0023840552544
 31
0.0
  0
LINE
  5
354
330
1F
100
AcDbEntity
  8
SK2
100
AcDbLine
 10
195.2070901900061
 20
282.5373868905669
 30
0.0
 11
195.6442486629755
 21
282.9745453635364
 31
0.0
  0
LINE
  5
355
330
1F
100
AcDbEntity
  8
SK2
100
AcDbLine
 10
195.2307560559895
 20
282.5332139625751
 30
0.0
 11
195.6442487652327
 21
282.9467066718183
 31
0.0
  0
LINE
  5
356
330
1F
100
AcDbEntity
  8
SK2
100
AcDbLine
 10
195.2544219219729
 20
282.5290410345831
 30
0.0
 11
195.64424886749
 21
282.9188679801002
 31
0.0
  0
LINE
  5
357
330
1F
100
AcDbEntity
  8
SK2
100
AcDbLine
 10
195.2780877879563
 20
282.5248681065912
 30
0.0
 11
195.6442489697472
 21
282.8910292883821
 31
0.0
  0
LINE
  5
358
330
1F
100
AcDbEntity
  8
SK2
100
AcDbLine
 10
195.3017536539397
 20
282.5206951785993
 30
0.0
 11
195.6442490720044
 21
282.863190596664
 31
0.0
  0
LINE
  5
359
330
1F
100
AcDbEntity
  8
SK2
100
AcDbLine
 10
195.3254195199231
 20
282.5165222506074
 30
0.0
 11
195.6442491742616
 21
282.8353519049459
 31
0.0
  0
LINE
  5
35A
330
1F
100
AcDbEntity
  8
SK2
100
AcDbLine
 10
195.3490853859065
 20
282.5123493226154
 30
0.0
 11
195.6442492765189
 21
282.8075132132278
 31
0.0
  0
LINE
  5
35B
330
1F
100
AcDbEntity
  8
SK2
100
AcDbLine
 10
195.3727512518898
 20
282.5081763946234
 30
0.0
 11
195.6442493787761
 21
282.7796745215097
 31
0.0
  0
LINE
  5
35C
330
1F
100
AcDbEntity
  8
SK2
100
AcDbLine
 10
195.3964171178732
 20
282.5040034666316
 30
0.0
 11
195.6442494810333
 21
282.7518358297916
 31
0.0
  0
LINE
  5
35D
330
1F
100
AcDbEntity
  8
SK2
100
AcDbLine
 10
195.4200829838566
 20
282.4998305386396
 30
0.0
 11
195.6442495832905
 21
282.7239971380735
 31
0.0
  0
LINE
  5
35E
330
1F
100
AcDbEntity
  8
SK2
100
AcDbLine
 10
195.44374884984
 20
282.4956576106477
 30
0.0
 11
195.6442496855478
 21
282.6961584463555
 31
0.0
  0
LINE
  5
35F
330
1F
100
AcDbEntity
  8
SK2
100
AcDbLine
 10
195.4674147158234
 20
282.4914846826558
 30
0.0
 11
195.644249787805
 21
282.6683197546373
 31
0.0
  0
LINE
  5
360
330
1F
100
AcDbEntity
  8
SK2
100
AcDbLine
 10
195.4910805818068
 20
282.4873117546638
 30
0.0
 11
195.6442498900622
 21
282.6404810629193
 31
0.0
  0
LINE
  5
361
330
1F
100
AcDbEntity
  8
SK2
100
AcDbLine
 10
195.5147464477902
 20
282.483138826672
 30
0.0
 11
195.6442499923194
 21
282.6126423712011
 31
0.0
  0
LINE
  5
362
330
1F
100
AcDbEntity
  8
SK2
100
AcDbLine
 10
195.5384123137735
 20
282.47896589868
 30
0.0
 11
195.6442500945766
 21
282.584803679483
 31
0.0
  0
LINE
  5
363
330
1F
100
AcDbEntity
  8
SK2
100
AcDbLine
 10
195.5620781797569
 20
282.474792970688
 30
0.0
 11
195.6442501968339
 21
282.556964987765
 31
0.0
  0
LINE
  5
364
330
1F
100
AcDbEntity
  8
SK2
100
AcDbLine
 10
195.5857440457403
 20
282.4706200426961
 30
0.0
 11
195.6442502990911
 21
282.5291262960469
 31
0.0
  0
LINE
  5
365
330
1F
100
AcDbEntity
  8
SK2
100
AcDbLine
 10
195.6094099117237
 20
282.4664471147043
 30
0.0
 11
195.6442504013483
 21
282.5012876043288
 31
0.0
  0
LINE
  5
366
330
1F
100
AcDbEntity
  8
SK2
100
AcDbLine
 10
195.6330757777071
 20
282.4622741867123
 30
0.0
 11
195.6442505036056
 21
282.4734489126107
 31
0.0
  0
MTEXT
  5
367
330
1F
100
AcDbEntity
  8
SK2
100
AcDbMText
 10
278.829748
 20
273.826644
 30
0.0
 40
3.5
 41
0.0
 71
     7
 72
     5
  1
\W0.7045;87
  7
cesky
 73
     2
 44
0.8433729999999998
  0
LINE
  5
368
330
1F
100
AcDbEntity
  8
SK2
100
AcDbLine
 10
237.144248
 20
244.730735
 30
0.0
 11
237.144248
 21
274.952478
 31
0.0
  0
LINE
  5
369
330
1F
100
AcDbEntity
  8
SK2
100
AcDbLine
 10
324.144248
 20
250.731161
 30
0.0
 11
324.144248
 21
274.952478
 31
0.0
  0
LINE
  5
36A
330
1F
100
AcDbEntity
  8
SK2
100
AcDbLine
 10
237.144248
 20
273.952478
 30
0.0
 11
324.144248
 21
273.952478
 31
0.0
  0
SOLID
  5
36B
330
1F
100
AcDbEntity
  8
SK2
100
AcDbTrace
 10
237.144248
 20
273.952478
 30
0.0
 11
240.644246
 21
274.5696220000001
 31
0.0
 12
240.644251
 22
273.335333
 32
0.0
 13
240.644251
 23
273.335333
 33
0.0
  0
SOLID
  5
36C
330
1F
100
AcDbEntity
  8
SK2
100
AcDbTrace
 10
324.144248
 20
273.952478
 30
0.0
 11
320.644251
 21
273.335333
 31
0.0
 12
320.644246
 22
274.5696220000001
 32
0.0
 13
320.644246
 23
274.5696220000001
 33
0.0
  0
MTEXT
  5
36D
330
1F
100
AcDbEntity
  8
SK2
100
AcDbMText
 10
182.485793
 20
227.389911
 30
0.0
 40
3.5
 41
0.0
 71
     7
 72
     5
  1
\W0.7984;12
  7
cesky
 11
0.0000000000000001
 21
1.0
 31
0.0
 73
     2
 44
0.8433729999999998
  0
MTEXT
  5
36E
330
1F
100
AcDbEntity
  8
SK2
100
AcDbMText
 10
182.485793
 20
220.652411
 30
0.0
 40
3.5
 41
0.0
 71
     7
 72
     5
  1
\W3.0115;\H2.63;%%c\H3.50;
  7
cesky
 11
0.0000000000000001
 21
1.0
 31
0.0
 73
     2
 44
0.8433729999999998
  0
LINE
  5
36F
330
1F
100
AcDbEntity
  8
SK2
100
AcDbLine
 10
193.838974
 20
249.729911
 30
0.0
 11
181.673209
 21
249.729911
 31
0.0
  0
LINE
  5
370
330
1F
100
AcDbEntity
  8
SK2
100
AcDbLine
 10
193.838974
 20
237.732411
 30
0.0
 11
181.673209
 21
237.732411
 31
0.0
  0
LINE
  5
371
330
1F
100
AcDbEntity
  8
SK2
100
AcDbLine
 10
182.673209
 20
249.729911
 30
0.0
 11
182.673209
 21
220.494911
 31
0.0
  0
SOLID
  5
372
330
1F
100
AcDbEntity
  8
SK2
100
AcDbTrace
 10
182.673209
 20
249.729911
 30
0.0
 11
183.290354
 21
246.229914
 31
0.0
 12
182.056065
 22
246.229909
 32
0.0
 13
182.056065
 23
246.229909
 33
0.0
  0
SOLID
  5
373
330
1F
100
AcDbEntity
  8
SK2
100
AcDbTrace
 10
182.673209
 20
237.732411
 30
0.0
 11
182.056065
 21
241.232409
 31
0.0
 12
183.290354
 22
241.232414
 32
0.0
 13
183.290354
 23
241.232414
 33
0.0
  0
LINE
  5
379
330
1F
100
AcDbEntity
  8
CUT
100
AcDbLine
 10
324.14276
 20
243.731161
 30
0.0
 11
315.64951
 21
243.731161
 31
0.0
  0
LINE
  5
37A
330
1F
100
AcDbEntity
  8
CUT
100
AcDbLine
 10
324.1425094559794
 20
243.781166
 30
0.0
 11
324.14276
 21
243.731161
 31
0.0
  0
LINE
  5
37B
330
1F
100
AcDbEntity
  8
CUT
100
AcDbLine
 10
315.64951
 20
243.731161
 30
0.0
 11
315.64951
 21
247.304672
 31
0.0
  0
ARC
  5
38C
330
1F
100
AcDbEntity
  8
CUT
100
AcDbCircle
 10
319.2862966989828
 20
243.7359633576684
 30
0.0
 40
4.856423130256462
100
AcDbArc
 50
0.5333056772097877
 51
2.891502613268041
  0
ARC
  5
391
330
1F
100
AcDbEntity
  8
CUT
100
AcDbCircle
 10
321.0385507720793
 20
240.9361582736595
 30
0.0
 40
8.374555751207358
100
AcDbArc
 50
124.1021697237338
 51
124.6613385359494
  0
ARC
  5
392
330
1F
100
AcDbEntity
  8
CUT
100
AcDbCircle
 10
319.2499476003804
 20
243.5721568551518
 30
0.0
 40
5.189030010198798
100
AcDbArc
 50
122.5640336565437
 51
124.0678618574417
  0
LINE
  5
393
330
1F
100
AcDbEntity
  8
CUT
100
AcDbLine
 10
316.4569945123206
 20
247.9454217104563
 30
0.0
 11
316.4569945123206
 21
247.9454217104563
 31
0.0
  0
ARC
  5
394
330
1F
100
AcDbEntity
  8
CUT
100
AcDbCircle
 10
319.1443764322534
 20
243.7309033543838
 30
0.0
 40
4.998418405581271
100
AcDbArc
 50
2.867366791667681
 51
122.5235658845937
  0
LINE
  5
395
330
1F
100
AcDbEntity
  8
CUT
100
AcDbLine
 10
315.6495095990235
 20
247.3046719177728
 30
0.0
 11
315.6495095990235
 21
247.3046719177728
 31
0.0
  0
ARC
  5
396
330
1F
100
AcDbEntity
  8
CUT
100
AcDbCircle
 10
319.1445252892566
 20
243.7311424072439
 30
0.0
 40
4.998524566069101
100
AcDbArc
 50
125.024558626811
 51
134.3636136688713
  0
ENDSEC
  0
SECTION
  2
OBJECTS
  0
DICTIONARY
  5
C
330
0
100
AcDbDictionary
281
     1
  3
ACAD_CIP_PREVIOUS_PRODUCT_INFO
350
21D
  3
ACAD_COLOR
350
217
  3
ACAD_DETAILVIEWSTYLE
350
213
  3
ACAD_GROUP
350
D
  3
ACAD_IMAGE_DICT
350
D1
  3
ACAD_IMAGE_VARS
350
21C
  3
ACAD_LAYOUT
350
1A
  3
ACAD_MATERIAL
350
43
  3
ACAD_MLEADERSTYLE
350
6B
  3
ACAD_MLINESTYLE
350
17
  3
ACAD_PLOTSETTINGS
350
19
  3
ACAD_PLOTSTYLENAME
350
E
  3
ACAD_SCALELIST
350
47
  3
ACAD_SECTIONVIEWSTYLE
350
214
  3
ACAD_TABLESTYLE
350
69
  3
ACAD_VISUALSTYLE
350
2A
  3
ACDB_RECOMPOSE_DATA
350
3D1
  3
AcDbVariableDictionary
350
1D0
  3
AcDsDecomposeData
350
3D7
  0
DICTIONARY
  5
3C6
330
2
100
AcDbDictionary
280
     1
281
     1
  3
ACAD_LAYERSTATES
360
3C7
  0
DICTIONARY
  5
3AB
330
10
100
AcDbDictionary
280
     1
281
     1
  3
ADSK_XREC_LAYER_RECONCILED
360
3AC
  0
DICTIONARY
  5
3AD
330
397
100
AcDbDictionary
280
     1
281
     1
  3
ADSK_XREC_LAYER_RECONCILED
360
3AE
  0
DICTIONARY
  5
3AF
330
398
100
AcDbDictionary
280
     1
281
     1
  3
ADSK_XREC_LAYER_RECONCILED
360
3B0
  0
DICTIONARY
  5
3B1
330
399
100
AcDbDictionary
280
     1
281
     1
  3
ADSK_XREC_LAYER_RECONCILED
360
3B2
  0
DICTIONARY
  5
3B3
330
39B
100
AcDbDictionary
280
     1
281
     1
  3
ADSK_XREC_LAYER_RECONCILED
360
3B4
  0
DICTIONARY
  5
3B5
330
39C
100
AcDbDictionary
280
     1
281
     1
  3
ADSK_XREC_LAYER_RECONCILED
360
3B6
  0
DICTIONARY
  5
3B7
330
39E
100
AcDbDictionary
280
     1
281
     1
  3
ADSK_XREC_LAYER_RECONCILED
360
3B8
  0
DICTIONARY
  5
3B9
330
39F
100
AcDbDictionary
280
     1
281
     1
  3
ADSK_XREC_LAYER_RECONCILED
360
3BA
  0
DICTIONARY
  5
3BB
330
3A0
100
AcDbDictionary
280
     1
281
     1
  3
ADSK_XREC_LAYER_RECONCILED
360
3BC
  0
DICTIONARY
  5
3BD
330
3A1
100
AcDbDictionary
280
     1
281
     1
  3
ADSK_XREC_LAYER_RECONCILED
360
3BE
  0
DICTIONARY
  5
3BF
330
3A2
100
AcDbDictionary
280
     1
281
     1
  3
ADSK_XREC_LAYER_RECONCILED
360
3C0
  0
DICTIONARY
  5
3C1
330
3A3
100
AcDbDictionary
280
     1
281
     1
  3
ADSK_XREC_LAYER_RECONCILED
360
3C2
  0
DICTIONARY
  5
21E
330
1F
100
AcDbDictionary
280
     1
281
     1
  3
ACAD_SORTENTS
360
21F
  0
XRECORD
  5
21D
102
{ACAD_REACTORS
330
C
102
}
330
C
100
AcDbXrecord
280
     1
300
ACD
300
2019
300

  0
DICTIONARY
  5
217
102
{ACAD_REACTORS
330
C
102
}
330
C
100
AcDbDictionary
281
     1
  0
DICTIONARY
  5
213
102
{ACAD_REACTORS
330
C
102
}
330
C
100
AcDbDictionary
281
     1
  3
Metric50
350
219
  0
DICTIONARY
  5
D
102
{ACAD_REACTORS
330
C
102
}
330
C
100
AcDbDictionary
281
     1
  3
ANNOTATION
350
1BB
  3
NULOVY_BOD
350
3A4
  0
DICTIONARY
  5
D1
102
{ACAD_REACTORS
330
C
102
}
330
C
100
AcDbDictionary
281
     1
  3
PPH-10-02-QC12-132HSCW_112229648ndi000_00_2D_DormerPramet_jpg
350
D2
  0
RASTERVARIABLES
  5
21C
102
{ACAD_REACTORS
330
C
102
}
330
C
100
AcDbRasterVariables
 90
        0
 70
     1
 71
     1
 72
     1
  0
DICTIONARY
  5
1A
102
{ACAD_REACTORS
330
C
102
}
330
C
100
AcDbDictionary
281
     1
  3
Layout1
350
1E
  3
Layout2
350
26
  3
Model
350
22
  0
DICTIONARY
  5
43
102
{ACAD_REACTORS
330
C
102
}
330
C
100
AcDbDictionary
281
     1
  3
ByBlock
350
45
  3
ByLayer
350
44
  3
Global
350
46
  0
DICTIONARY
  5
6B
102
{ACAD_REACTORS
330
C
102
}
330
C
100
AcDbDictionary
281
     1
  3
Standard
350
6C
  0
DICTIONARY
  5
17
102
{ACAD_REACTORS
330
C
102
}
330
C
100
AcDbDictionary
281
     1
  3
Standard
350
18
  0
DICTIONARY
  5
19
102
{ACAD_REACTORS
330
C
102
}
330
C
100
AcDbDictionary
281
     1
  0
ACDBDICTIONARYWDFLT
  5
E
102
{ACAD_REACTORS
330
C
102
}
330
C
100
AcDbDictionary
281
     1
  3
Normal
350
F
100
AcDbDictionaryWithDefault
340
F
  0
DICTIONARY
  5
47
102
{ACAD_REACTORS
330
C
102
}
330
C
100
AcDbDictionary
281
     1
  3
A0
350
48
  3
A1
350
49
  3
A2
350
4A
  3
A3
350
4B
  3
A4
350
4C
  3
A5
350
4D
  3
A6
350
4E
  3
A7
350
4F
  3
A8
350
50
  3
A9
350
51
  3
B0
350
52
  3
B1
350
53
  3
B2
350
54
  3
B3
350
55
  3
B4
350
56
  3
B5
350
57
  3
B6
350
58
  3
B7
350
59
  3
B8
350
5A
  3
B9
350
5B
  3
C0
350
5C
  3
C1
350
5D
  3
C2
350
5E
  3
C3
350
5F
  3
C4
350
60
  3
C5
350
61
  3
C6
350
62
  3
C7
350
63
  3
C8
350
64
  3
C9
350
65
  3
D0
350
66
  3
D1
350
67
  3
D2
350
68
  0
DICTIONARY
  5
214
102
{ACAD_REACTORS
330
C
102
}
330
C
100
AcDbDictionary
281
     1
  3
Metric50
350
218
  0
DICTIONARY
  5
69
102
{ACAD_REACTORS
330
C
102
}
330
C
100
AcDbDictionary
281
     1
  3
Standard
350
6A
  0
DICTIONARY
  5
2A
102
{ACAD_REACTORS
330
C
102
}
330
C
100
AcDbDictionary
281
     1
  3
2dWireframe
350
2F
  3
Basic
350
32
  3
Brighten
350
36
  3
ColorChange
350
3A
  3
Conceptual
350
34
  3
Dim
350
35
  3
EdgeColorOff
350
3D
  3
Facepattern
350
39
  3
Flat
350
2B
  3
FlatWithEdges
350
2C
  3
Gouraud
350
2D
  3
GouraudWithEdges
350
2E
  3
Hidden
350
31
  3
JitterOff
350
3B
  3
Linepattern
350
38
  3
OverhangOff
350
3C
  3
Realistic
350
33
  3
Shaded
350
42
  3
Shaded with edges
350
41
  3
Shades of Gray
350
3E
  3
Sketchy
350
3F
  3
Thicken
350
37
  3
Wireframe
350
30
  3
X-Ray
350
40
  0
XRECORD
  5
3D1
102
{ACAD_REACTORS
330
C
102
}
330
C
100
AcDbXrecord
280
     1
 90
        1
330
6A
  0
DICTIONARY
  5
1D0
102
{ACAD_REACTORS
330
C
102
}
330
C
100
AcDbDictionary
281
     1
  3
CANNOSCALE
350
1D1
  3
CMLEADERSTYLE
350
212
  3
CTABLESTYLE
350
211
  3
CVIEWDETAILSTYLE
350
3CC
  3
CVIEWSECTIONSTYLE
350
3CD
  3
MSLTSCALE
350
1D2
  3
XCLIPFRAME
350
3CE
  0
DICTIONARY
  5
3D7
102
{ACAD_REACTORS
330
C
102
}
330
C
100
AcDbDictionary
281
     1
  3
AcDsRecords
350
3D9
  3
AcDsSchemas
350
3D8
1001
ACAD
1070
     2
  0
DICTIONARY
  5
3C7
102
{ACAD_REACTORS
330
3C6
102
}
330
3C6
100
AcDbDictionary
281
     1
  0
XRECORD
  5
3AC
102
{ACAD_REACTORS
330
3AB
102
}
330
3AB
100
AcDbXrecord
280
     1
290
     1
  0
XRECORD
  5
3AE
102
{ACAD_REACTORS
330
3AD
102
}
330
3AD
100
AcDbXrecord
280
     1
290
     1
  0
XRECORD
  5
3B0
102
{ACAD_REACTORS
330
3AF
102
}
330
3AF
100
AcDbXrecord
280
     1
290
     1
  0
XRECORD
  5
3B2
102
{ACAD_REACTORS
330
3B1
102
}
330
3B1
100
AcDbXrecord
280
     1
290
     1
  0
XRECORD
  5
3B4
102
{ACAD_REACTORS
330
3B3
102
}
330
3B3
100
AcDbXrecord
280
     1
290
     1
  0
XRECORD
  5
3B6
102
{ACAD_REACTORS
330
3B5
102
}
330
3B5
100
AcDbXrecord
280
     1
290
     1
  0
XRECORD
  5
3B8
102
{ACAD_REACTORS
330
3B7
102
}
330
3B7
100
AcDbXrecord
280
     1
290
     1
  0
XRECORD
  5
3BA
102
{ACAD_REACTORS
330
3B9
102
}
330
3B9
100
AcDbXrecord
280
     1
290
     1
  0
XRECORD
  5
3BC
102
{ACAD_REACTORS
330
3BB
102
}
330
3BB
100
AcDbXrecord
280
     1
290
     1
  0
XRECORD
  5
3BE
102
{ACAD_REACTORS
330
3BD
102
}
330
3BD
100
AcDbXrecord
280
     1
290
     1
  0
XRECORD
  5
3C0
102
{ACAD_REACTORS
330
3BF
102
}
330
3BF
100
AcDbXrecord
280
     1
290
     1
  0
XRECORD
  5
3C2
102
{ACAD_REACTORS
330
3C1
102
}
330
3C1
100
AcDbXrecord
280
     1
290
     1
  0
SORTENTSTABLE
  5
21F
102
{ACAD_REACTORS
330
21E
102
}
330
21E
100
AcDbSortentsTable
330
1F
331
103
  5
104
331
104
  5
105
331
105
  5
107
331
107
  5
2B1
331
108
  5
2B2
331
109
  5
2B3
331
10B
  5
348
331
220
  5
34F
331
221
  5
350
331
222
  5
351
331
223
  5
352
331
224
  5
353
331
225
  5
354
331
226
  5
355
331
227
  5
356
331
228
  5
357
331
229
  5
358
331
22A
  5
359
331
22B
  5
35A
331
22C
  5
35B
331
22D
  5
35C
331
22E
  5
35D
331
22F
  5
35E
331
230
  5
35F
331
231
  5
367
331
232
  5
368
331
233
  5
369
331
234
  5
36A
331
235
  5
36B
331
236
  5
36C
331
237
  5
36D
331
238
  5
36E
331
239
  5
36F
331
23A
  5
370
331
23B
  5
371
331
23C
  5
372
331
23D
  5
373
331
23E
  5
103
331
23F
  5
108
331
240
  5
109
331
241
  5
10B
331
242
  5
16D
331
243
  5
220
331
244
  5
221
331
245
  5
222
331
246
  5
223
331
247
  5
224
331
248
  5
225
331
249
  5
226
331
24A
  5
227
331
24B
  5
228
331
24C
  5
229
331
24D
  5
22A
331
24E
  5
22B
331
24F
  5
22C
331
250
  5
22D
331
251
  5
22E
331
252
  5
22F
331
253
  5
231
331
254
  5
232
331
255
  5
233
331
256
  5
234
331
257
  5
235
331
258
  5
236
331
259
  5
237
331
25A
  5
238
331
25B
  5
239
331
25C
  5
23A
331
25D
  5
23B
331
25E
  5
23C
331
25F
  5
23D
331
260
  5
23E
331
261
  5
23F
331
262
  5
240
331
263
  5
241
331
264
  5
242
331
265
  5
243
331
266
  5
244
331
267
  5
245
331
268
  5
246
331
269
  5
247
331
26A
  5
248
331
26B
  5
249
331
26C
  5
24A
331
26D
  5
24B
331
26E
  5
24C
331
26F
  5
24D
331
270
  5
24E
331
271
  5
24F
331
272
  5
250
331
273
  5
251
331
274
  5
252
331
275
  5
253
331
276
  5
254
331
277
  5
255
331
278
  5
256
331
279
  5
257
331
27A
  5
258
331
27B
  5
259
331
27C
  5
25A
331
27D
  5
25B
331
27E
  5
25C
331
27F
  5
25D
331
280
  5
25E
331
281
  5
25F
331
282
  5
260
331
283
  5
261
331
284
  5
262
331
285
  5
263
331
286
  5
264
331
287
  5
265
331
288
  5
266
331
289
  5
267
331
28A
  5
268
331
28B
  5
269
331
28C
  5
26A
331
28D
  5
26B
331
28E
  5
26C
331
28F
  5
26D
331
290
  5
26E
331
291
  5
26F
331
292
  5
270
331
293
  5
271
331
294
  5
272
331
295
  5
273
331
296
  5
274
331
297
  5
275
331
298
  5
276
331
299
  5
277
331
29A
  5
278
331
29B
  5
279
331
29C
  5
27A
331
29D
  5
27B
331
29E
  5
27C
331
29F
  5
27D
331
2A0
  5
27E
331
2A1
  5
27F
331
2A2
  5
280
331
2A3
  5
281
331
2A4
  5
282
331
2A5
  5
283
331
2A6
  5
284
331
2A7
  5
285
331
2A8
  5
286
331
2A9
  5
287
331
2AA
  5
288
331
2AB
  5
289
331
2AC
  5
28A
331
2AD
  5
28B
331
2AE
  5
28C
331
2AF
  5
28D
331
2B0
  5
28E
331
2B1
  5
28F
331
2B2
  5
290
331
2B3
  5
291
331
2B4
  5
292
331
2B5
  5
293
331
2B6
  5
294
331
2B7
  5
295
331
2B8
  5
296
331
2B9
  5
297
331
2BA
  5
298
331
2BB
  5
299
331
2BC
  5
29A
331
2BD
  5
29B
331
2BE
  5
29C
331
2BF
  5
29D
331
2C0
  5
29E
331
2C1
  5
29F
331
2C2
  5
2A0
331
2C3
  5
2A1
331
2C4
  5
2A2
331
2C5
  5
2A3
331
2C6
  5
2A4
331
2C7
  5
2A5
331
2C8
  5
2A6
331
2C9
  5
2A7
331
2CA
  5
2A8
331
2CB
  5
2A9
331
2CC
  5
2AA
331
2CD
  5
2AB
331
2CE
  5
2AC
331
2CF
  5
2AD
331
2D0
  5
2AE
331
2D1
  5
2AF
331
2D2
  5
2B0
331
2D3
  5
2B4
331
2D4
  5
2B5
331
2D5
  5
2B6
331
2D6
  5
2B7
331
2D7
  5
2B8
331
2D8
  5
2B9
331
2D9
  5
2BA
331
2DA
  5
2BB
331
2DB
  5
2BC
331
2DC
  5
2BD
331
2DD
  5
2BE
331
2DE
  5
2BF
331
2DF
  5
2C0
331
2E0
  5
2C1
331
2E1
  5
2C2
331
2E2
  5
2C3
331
2E3
  5
2C4
331
2E4
  5
2C5
331
2E5
  5
2C6
331
2E6
  5
2C7
331
2E7
  5
2C8
331
2E8
  5
2C9
331
2E9
  5
2CA
331
2EA
  5
2CB
331
2EB
  5
2CC
331
2EC
  5
2CD
331
2ED
  5
2CE
331
2EE
  5
2CF
331
2EF
  5
2D0
331
2F0
  5
2D1
331
2F1
  5
2D2
331
2F2
  5
2D3
331
2F3
  5
2D4
331
2F4
  5
2D5
331
2F5
  5
2D6
331
2F6
  5
2D7
331
2F7
  5
2D8
331
2F8
  5
2D9
331
2F9
  5
2DA
331
2FA
  5
2DB
331
2FB
  5
2DC
331
2FC
  5
2DD
331
2FD
  5
2DE
331
2FE
  5
2DF
331
2FF
  5
2E0
331
300
  5
2E1
331
301
  5
2E2
331
302
  5
2E3
331
303
  5
2E4
331
304
  5
2E5
331
305
  5
2E6
331
306
  5
2E7
331
307
  5
2E8
331
308
  5
2E9
331
309
  5
2EA
331
30A
  5
2EB
331
30B
  5
2EC
331
30C
  5
2ED
331
30D
  5
2EE
331
30E
  5
2EF
331
30F
  5
2F0
331
310
  5
2F1
331
311
  5
2F2
331
312
  5
2F3
331
313
  5
2F4
331
314
  5
2F5
331
315
  5
2F6
331
316
  5
2F7
331
317
  5
2F8
331
318
  5
2F9
331
319
  5
2FA
331
31A
  5
2FB
331
31B
  5
2FC
331
31C
  5
2FD
331
31D
  5
2FE
331
31E
  5
2FF
331
31F
  5
300
331
320
  5
301
331
321
  5
302
331
322
  5
303
331
323
  5
304
331
324
  5
305
331
325
  5
306
331
326
  5
307
331
327
  5
308
331
328
  5
309
331
329
  5
30A
331
32A
  5
30B
331
32B
  5
30C
331
32C
  5
30D
331
32D
  5
30E
331
32E
  5
30F
331
32F
  5
310
331
330
  5
311
331
331
  5
312
331
332
  5
313
331
333
  5
314
331
334
  5
315
331
335
  5
316
331
336
  5
317
331
337
  5
318
331
338
  5
319
331
339
  5
31A
331
33A
  5
31B
331
33B
  5
31C
331
33C
  5
31D
331
33D
  5
31E
331
33E
  5
31F
331
33F
  5
320
331
340
  5
321
331
341
  5
322
331
342
  5
323
331
343
  5
324
331
344
  5
325
331
345
  5
326
331
346
  5
327
331
347
  5
328
331
348
  5
329
331
349
  5
32A
331
34A
  5
32B
331
34B
  5
32C
331
34C
  5
32D
331
34D
  5
32E
331
34E
  5
32F
331
34F
  5
330
331
350
  5
331
331
351
  5
332
331
352
  5
333
331
353
  5
334
331
354
  5
335
331
355
  5
336
331
356
  5
337
331
357
  5
338
331
358
  5
339
331
359
  5
33A
331
35A
  5
33B
331
35B
  5
33C
331
35C
  5
33D
331
35D
  5
33E
331
35E
  5
33F
331
35F
  5
340
331
360
  5
341
331
361
  5
342
331
362
  5
343
331
363
  5
344
331
364
  5
345
331
365
  5
346
331
366
  5
347
331
367
  5
349
331
368
  5
34A
331
369
  5
34B
331
36A
  5
34C
331
36B
  5
34D
331
36C
  5
34E
331
36D
  5
360
331
36E
  5
361
331
36F
  5
362
331
370
  5
363
331
371
  5
364
331
372
  5
365
331
373
  5
366
331
379
  5
394
331
37A
  5
395
331
37B
  5
396
331
38C
  5
389
331
391
  5
38E
331
392
  5
38F
331
393
  5
390
331
394
  5
391
331
395
  5
392
331
396
  5
393
  0
ACDBDETAILVIEWSTYLE
  5
219
102
{ACAD_XDICTIONARY
360
40D
102
}
102
{ACAD_REACTORS
330
213
102
}
330
213
100
AcDbModelDocViewStyle
 70
     0
  3
Metric50
290
     0
100
AcDbDetailViewStyle
 70
     0
 71
     0
 90
        3
 71
     1
340
11
 62
   256
 40
5.0
340
0
 62
   256
 40
5.0
300

 40
0.0
280
     1
 71
     2
340
16
 90
       25
 62
   256
 71
     3
340
11
 62
   256
 40
5.0
 90
        0
 40
15.0
 90
        1
300
%<\AcVar ViewDetailId>% (%<\AcVar ViewScale \f "%sn">%)
 71
     4
340
16
 90
       25
 62
   256
340
16
 90
       25
 62
   256
280
     0
  0
GROUP
  5
1BB
102
{ACAD_REACTORS
330
D
102
}
330
D
100
AcDbGroup
300

 70
     0
 71
     1
340
C8
340
C9
340
CA
  0
GROUP
  5
3A4
102
{ACAD_REACTORS
330
D
102
}
330
D
100
AcDbGroup
300

 70
     0
 71
     1
340
73
  0
IMAGEDEF
  5
D2
102
{ACAD_REACTORS
330
D1
330
D5
102
}
330
D1
100
AcDbRasterImageDef
 90
        0
  1
C:\Users\pp0701\Desktop\zakaznik data\PPH-10-02-QC12-132HSCW_112229648ndi000_00_2D_DormerPramet.jpg
 10
2089.0
 20
531.0
 11
0.0004786979415989
 21
0.0004786979415989
280
     1
281
     0
  0
LAYOUT
  5
1E
102
{ACAD_REACTORS
330
1A
102
}
330
1A
100
AcDbPlotSettings
  1

  2
none_device
  4

  6

 40
0.0
 41
0.0
 42
0.0
 43
0.0
 44
0.0
 45
0.0
 46
0.0
 47
0.0
 48
0.0
 49
0.0
140
0.0
141
0.0
142
1.0
143
1.0
 70
   688
 72
     0
 73
     0
 74
     5
  7

 75
    16
147
1.0
 76
     0
 77
     2
 78
   300
148
0.0
149
0.0
100
AcDbLayout
  1
Layout1
 70
     1
 71
     1
 10
-0.5
 20
-0.5
 11
5.0
 21
5.0
 12
0.0
 22
0.0
 32
0.0
 14
-0.5
 24
-0.5
 34
-0.5
 15
5.0
 25
5.0
 35
5.0
146
0.0
 13
0.0
 23
0.0
 33
0.0
 16
1.0
 26
0.0
 36
0.0
 17
0.0
 27
1.0
 37
0.0
 76
     0
330
1B
  0
LAYOUT
  5
26
102
{ACAD_REACTORS
330
1A
102
}
330
1A
100
AcDbPlotSettings
  1

  2
none_device
  4

  6

 40
0.0
 41
0.0
 42
0.0
 43
0.0
 44
0.0
 45
0.0
 46
0.0
 47
0.0
 48
0.0
 49
0.0
140
0.0
141
0.0
142
1.0
143
1.0
 70
   688
 72
     0
 73
     0
 74
     5
  7

 75
    16
147
1.0
 76
     0
 77
     2
 78
   300
148
0.0
149
0.0
100
AcDbLayout
  1
Layout2
 70
     1
 71
     2
 10
0.0
 20
0.0
 11
0.0
 21
0.0
 12
0.0
 22
0.0
 32
0.0
 14
0.0
 24
0.0
 34
0.0
 15
0.0
 25
0.0
 35
0.0
146
0.0
 13
0.0
 23
0.0
 33
0.0
 16
1.0
 26
0.0
 36
0.0
 17
0.0
 27
1.0
 37
0.0
 76
     0
330
23
  0
LAYOUT
  5
22
102
{ACAD_REACTORS
330
1A
102
}
330
1A
100
AcDbPlotSettings
  1

  2
none_device
  4
Letter_(8.50_x_11.00_Inches)
  6

 40
6.349999999999999
 41
6.349999999999999
 42
6.350005
 43
6.350005
 44
215.9
 45
279.4
 46
0.0
 47
0.0
 48
0.0
 49
0.0
140
0.0
141
0.0
142
1.0
143
1.0
 70
  1712
 72
     0
 73
     0
 74
     0
  7

 75
     0
147
1.0
 76
     0
 77
     2
 78
   300
148
0.0
149
0.0
100
AcDbLayout
  1
Model
 70
     1
 71
     0
 10
-0.5
 20
-0.5
 11
5.0
 21
5.0
 12
0.0
 22
0.0
 32
0.0
 14
-0.5
 24
-0.5
 34
-0.5
 15
5.0
 25
5.0
 35
5.0
146
0.0
 13
0.0
 23
0.0
 33
0.0
 16
1.0
 26
0.0
 36
0.0
 17
0.0
 27
1.0
 37
0.0
 76
     0
330
1F
331
29
  0
MATERIAL
  5
45
102
{ACAD_XDICTIONARY
360
206
102
}
102
{ACAD_REACTORS
330
43
102
}
330
43
100
AcDbMaterial
  1
ByBlock
  0
MATERIAL
  5
44
102
{ACAD_XDICTIONARY
360
204
102
}
102
{ACAD_REACTORS
330
43
102
}
330
43
100
AcDbMaterial
  1
ByLayer
  0
MATERIAL
  5
46
102
{ACAD_XDICTIONARY
360
208
102
}
102
{ACAD_REACTORS
330
43
102
}
330
43
100
AcDbMaterial
  1
Global
  0
MLEADERSTYLE
  5
6C
102
{ACAD_REACTORS
330
6B
102
}
330
6B
100
AcDbMLeaderStyle
170
     2
171
     1
172
     0
 90
        2
 40
0.0
 41
0.0
173
     1
 91
-1056964608
340
14
 92
       -2
290
     1
 42
0.09
291
     1
 43
0.36
  3
Standard
 44
0.18
300

342
11
174
     1
178
     6
175
     1
176
     0
 93
-1056964608
 45
0.18
292
     0
297
     0
 46
0.18
 94
-1056964608
 47
1.0
 49
1.0
140
1.0
293
     1
141
0.0
294
     1
177
     0
142
1.0
295
     0
296
     0
143
0.125
1001
ACAD_MLEADERVER
1070
     2
  0
MLINESTYLE
  5
18
102
{ACAD_REACTORS
330
17
102
}
330
17
100
AcDbMlineStyle
  2
STANDARD
 70
     0
  3

 62
   256
 51
90.0
 52
90.0
 71
     2
 49
0.5
 62
   256
  6
BYLAYER
 49
-0.5
 62
   256
  6
BYLAYER
  0
ACDBPLACEHOLDER
  5
F
102
{ACAD_REACTORS
330
E
102
}
330
E
  0
SCALE
  5
48
102
{ACAD_REACTORS
330
47
102
}
330
47
100
AcDbScale
 70
     0
300
1:1
140
1.0
141
1.0
290
     1
  0
SCALE
  5
49
102
{ACAD_REACTORS
330
47
102
}
330
47
100
AcDbScale
 70
     0
300
1:2
140
1.0
141
2.0
290
     0
  0
SCALE
  5
4A
102
{ACAD_REACTORS
330
47
102
}
330
47
100
AcDbScale
 70
     0
300
1:4
140
1.0
141
4.0
290
     0
  0
SCALE
  5
4B
102
{ACAD_REACTORS
330
47
102
}
330
47
100
AcDbScale
 70
     0
300
1:5
140
1.0
141
5.0
290
     0
  0
SCALE
  5
4C
102
{ACAD_REACTORS
330
47
102
}
330
47
100
AcDbScale
 70
     0
300
1:8
140
1.0
141
8.0
290
     0
  0
SCALE
  5
4D
102
{ACAD_REACTORS
330
47
102
}
330
47
100
AcDbScale
 70
     0
300
1:10
140
1.0
141
10.0
290
     0
  0
SCALE
  5
4E
102
{ACAD_REACTORS
330
47
102
}
330
47
100
AcDbScale
 70
     0
300
1:16
140
1.0
141
16.0
290
     0
  0
SCALE
  5
4F
102
{ACAD_REACTORS
330
47
102
}
330
47
100
AcDbScale
 70
     0
300
1:20
140
1.0
141
20.0
290
     0
  0
SCALE
  5
50
102
{ACAD_REACTORS
330
47
102
}
330
47
100
AcDbScale
 70
     0
300
1:30
140
1.0
141
30.0
290
     0
  0
SCALE
  5
51
102
{ACAD_REACTORS
330
47
102
}
330
47
100
AcDbScale
 70
     0
300
1:40
140
1.0
141
40.0
290
     0
  0
SCALE
  5
52
102
{ACAD_REACTORS
330
47
102
}
330
47
100
AcDbScale
 70
     0
300
1:50
140
1.0
141
50.0
290
     0
  0
SCALE
  5
53
102
{ACAD_REACTORS
330
47
102
}
330
47
100
AcDbScale
 70
     0
300
1:100
140
1.0
141
100.0
290
     0
  0
SCALE
  5
54
102
{ACAD_REACTORS
330
47
102
}
330
47
100
AcDbScale
 70
     0
300
2:1
140
2.0
141
1.0
290
     0
  0
SCALE
  5
55
102
{ACAD_REACTORS
330
47
102
}
330
47
100
AcDbScale
 70
     0
300
4:1
140
4.0
141
1.0
290
     0
  0
SCALE
  5
56
102
{ACAD_REACTORS
330
47
102
}
330
47
100
AcDbScale
 70
     0
300
8:1
140
8.0
141
1.0
290
     0
  0
SCALE
  5
57
102
{ACAD_REACTORS
330
47
102
}
330
47
100
AcDbScale
 70
     0
300
10:1
140
10.0
141
1.0
290
     0
  0
SCALE
  5
58
102
{ACAD_REACTORS
330
47
102
}
330
47
100
AcDbScale
 70
     0
300
100:1
140
100.0
141
1.0
290
     0
  0
SCALE
  5
59
102
{ACAD_REACTORS
330
47
102
}
330
47
100
AcDbScale
 70
     0
300
1/128" = 1'-0"
140
0.007812
141
12.0
290
     0
  0
SCALE
  5
5A
102
{ACAD_REACTORS
330
47
102
}
330
47
100
AcDbScale
 70
     0
300
1/64" = 1'-0"
140
0.015625
141
12.0
290
     0
  0
SCALE
  5
5B
102
{ACAD_REACTORS
330
47
102
}
330
47
100
AcDbScale
 70
     0
300
1/32" = 1'-0"
140
0.03125
141
12.0
290
     0
  0
SCALE
  5
5C
102
{ACAD_REACTORS
330
47
102
}
330
47
100
AcDbScale
 70
     0
300
1/16" = 1'-0"
140
0.0625
141
12.0
290
     0
  0
SCALE
  5
5D
102
{ACAD_REACTORS
330
47
102
}
330
47
100
AcDbScale
 70
     0
300
3/32" = 1'-0"
140
0.09375
141
12.0
290
     0
  0
SCALE
  5
5E
102
{ACAD_REACTORS
330
47
102
}
330
47
100
AcDbScale
 70
     0
300
1/8" = 1'-0"
140
0.125
141
12.0
290
     0
  0
SCALE
  5
5F
102
{ACAD_REACTORS
330
47
102
}
330
47
100
AcDbScale
 70
     0
300
3/16" = 1'-0"
140
0.1875
141
12.0
290
     0
  0
SCALE
  5
60
102
{ACAD_REACTORS
330
47
102
}
330
47
100
AcDbScale
 70
     0
300
1/4" = 1'-0"
140
0.25
141
12.0
290
     0
  0
SCALE
  5
61
102
{ACAD_REACTORS
330
47
102
}
330
47
100
AcDbScale
 70
     0
300
3/8" = 1'-0"
140
0.375
141
12.0
290
     0
  0
SCALE
  5
62
102
{ACAD_REACTORS
330
47
102
}
330
47
100
AcDbScale
 70
     0
300
1/2" = 1'-0"
140
0.5
141
12.0
290
     0
  0
SCALE
  5
63
102
{ACAD_REACTORS
330
47
102
}
330
47
100
AcDbScale
 70
     0
300
3/4" = 1'-0"
140
0.75
141
12.0
290
     0
  0
SCALE
  5
64
102
{ACAD_REACTORS
330
47
102
}
330
47
100
AcDbScale
 70
     0
300
1" = 1'-0"
140
1.0
141
12.0
290
     0
  0
SCALE
  5
65
102
{ACAD_REACTORS
330
47
102
}
330
47
100
AcDbScale
 70
     0
300
1-1/2" = 1'-0"
140
1.5
141
12.0
290
     0
  0
SCALE
  5
66
102
{ACAD_REACTORS
330
47
102
}
330
47
100
AcDbScale
 70
     0
300
3" = 1'-0"
140
3.0
141
12.0
290
     0
  0
SCALE
  5
67
102
{ACAD_REACTORS
330
47
102
}
330
47
100
AcDbScale
 70
     0
300
6" = 1'-0"
140
6.0
141
12.0
290
     0
  0
SCALE
  5
68
102
{ACAD_REACTORS
330
47
102
}
330
47
100
AcDbScale
 70
     0
300
1'-0" = 1'-0"
140
12.0
141
12.0
290
     0
  0
ACDBSECTIONVIEWSTYLE
  5
218
102
{ACAD_XDICTIONARY
360
40B
102
}
102
{ACAD_REACTORS
330
214
102
}
330
214
100
AcDbModelDocViewStyle
 70
     0
  3
Metric50
290
     0
100
AcDbSectionViewStyle
 70
     0
 71
     0
 90
      102
 71
     1
340
11
 62
   256
 40
5.0
340
0
340
0
 62
   256
 40
5.0
300
I, O, Q, S, X, Z
 40
10.0
 90
        0
 40
2.5
 90
        0
 71
     2
340
16
 90
       25
 62
   256
340
16
 90
       50
 62
   256
 40
5.0
 40
2.5
 40
5.0
 71
     3
340
11
 62
   256
 40
5.0
 90
        0
 40
15.0
 90
        1
300
%<\AcVar ViewSectionStartId>%-%<\AcVar ViewSectionEndId>% (%<\AcVar ViewScale \f "%sn">%)
 71
     4
 62
   256
 62
   257
300
ANSI31
 40
1.0
 90
        0
290
     0
290
     0
 90
        6
 40
0.0
 40
1.570796326794896
 40
0.2617993877991494
 40
1.308996938995747
 40
-0.2617993877991494
 40
1.832595714594046
  0
TABLESTYLE
  5
6A
102
{ACAD_XDICTIONARY
360
20A
102
}
102
{ACAD_REACTORS
330
69
102
}
330
69
100
AcDbTableStyle
  3
Standard
 70
     0
 71
     0
 40
0.06
 41
0.06
280
     0
281
     0
  7
Standard
140
0.18
170
     2
 62
     0
 63
     7
283
     0
274
    -2
284
     1
 64
     0
275
    -2
285
     1
 65
     0
276
    -2
286
     1
 66
     0
277
    -2
287
     1
 67
     0
278
    -2
288
     1
 68
     0
279
    -2
289
     1
 69
     0
  7
Standard
140
0.25
170
     5
 62
     0
 63
     7
283
     0
274
    -2
284
     1
 64
     0
275
    -2
285
     1
 65
     0
276
    -2
286
     1
 66
     0
277
    -2
287
     1
 67
     0
278
    -2
288
     1
 68
     0
279
    -2
289
     1
 69
     0
  7
Standard
140
0.18
170
     5
 62
     0
 63
     7
283
     0
274
    -2
284
     1
 64
     0
275
    -2
285
     1
 65
     0
276
    -2
286
     1
 66
     0
277
    -2
287
     1
 67
     0
278
    -2
288
     1
 68
     0
279
    -2
289
     1
 69
     0
  0
VISUALSTYLE
  5
2F
102
{ACAD_XDICTIONARY
360
3E2
102
}
102
{ACAD_REACTORS
330
2A
102
}
330
2A
100
AcDbVisualStyle
  2

 70
     4
 71
     0
 72
     2
 73
     0
 90
        0
 40
-0.6
 41
-30.0
 62
     5
 63
     7
421
 16777215
 74
     1
 91
        4
 64
     7
 65
   257
 75
     1
175
     1
 42
1.0
 92
        0
 66
   257
 43
1.0
 76
     1
 77
     6
 78
     2
 67
     7
 79
     5
170
     0
171
     0
290
     0
174
     0
 93
        1
 44
0.0
173
     0
291
     0
 45
0.0
1001
ACAD
1000
AcDbSavedByObjectVersion
1070
     0
  0
VISUALSTYLE
  5
32
102
{ACAD_XDICTIONARY
360
3E8
102
}
102
{ACAD_REACTORS
330
2A
102
}
330
2A
100
AcDbVisualStyle
  2

 70
     7
 71
     1
 72
     0
 73
     1
 90
        0
 40
-0.6
 41
-30.0
 62
     5
 63
     7
421
 16777215
 74
     0
 91
        4
 64
     7
 65
   257
 75
     1
175
     1
 42
1.0
 92
        8
 66
     7
 43
1.0
 76
     1
 77
     6
 78
     2
 67
     7
 79
     5
170
     0
171
     0
290
     0
174
     0
 93
        1
 44
0.0
173
     0
291
     1
 45
0.0
1001
ACAD
1000
AcDbSavedByObjectVersion
1070
     0
  0
VISUALSTYLE
  5
36
102
{ACAD_XDICTIONARY
360
3F0
102
}
102
{ACAD_REACTORS
330
2A
102
}
330
2A
100
AcDbVisualStyle
  2

 70
    12
 71
     2
 72
     2
 73
     0
 90
        0
 40
-0.6
 41
-30.0
 62
     5
 63
     7
421
 16777215
 74
     1
 91
        4
 64
     7
 65
   257
 75
     1
175
     1
 42
1.0
 92
        8
 66
     7
 43
1.0
 76
     1
 77
     6
 78
     2
 67
     7
 79
     5
170
     0
171
     0
290
     0
174
     0
 93
        1
 44
50.0
173
     0
291
     1
 45
0.0
1001
ACAD
1000
AcDbSavedByObjectVersion
1070
     0
  0
VISUALSTYLE
  5
3A
102
{ACAD_XDICTIONARY
360
3F8
102
}
102
{ACAD_REACTORS
330
2A
102
}
330
2A
100
AcDbVisualStyle
  2

 70
    16
 71
     2
 72
     2
 73
     3
 90
        0
 40
-0.6
 41
-30.0
 62
     5
 63
     8
421
  8421504
 74
     1
 91
        4
 64
     7
 65
   257
 75
     1
175
     1
 42
1.0
 92
        8
 66
     8
424
  8421504
 43
1.0
 76
     1
 77
     6
 78
     2
 67
     7
 79
     5
170
     0
171
     0
290
     0
174
     0
 93
        1
 44
0.0
173
     0
291
     1
 45
0.0
1001
ACAD
1000
AcDbSavedByObjectVersion
1070
     0
  0
VISUALSTYLE
  5
34
102
{ACAD_XDICTIONARY
360
3EC
102
}
102
{ACAD_REACTORS
330
2A
102
}
330
2A
100
AcDbVisualStyle
  2

 70
     9
 71
     3
 72
     2
 73
     0
 90
        0
 40
-0.6
 41
-30.0
 62
     5
 63
     7
421
 16777215
 74
     2
 91
        2
 64
     7
 65
   257
 75
     1
175
     1
 42
179.0
 92
        8
 66
     7
 43
1.0
 76
     1
 77
     6
 78
     2
 67
     7
 79
     3
170
     0
171
     0
290
     0
174
     0
 93
        1
 44
0.0
173
     0
291
     0
 45
0.0
1001
ACAD
1000
AcDbSavedByObjectVersion
1070
     0
  0
VISUALSTYLE
  5
35
102
{ACAD_XDICTIONARY
360
3EE
102
}
102
{ACAD_REACTORS
330
2A
102
}
330
2A
100
AcDbVisualStyle
  2

 70
    11
 71
     2
 72
     2
 73
     0
 90
        0
 40
-0.6
 41
-30.0
 62
     5
 63
     7
421
 16777215
 74
     1
 91
        4
 64
     7
 65
   257
 75
     1
175
     1
 42
1.0
 92
        8
 66
     7
 43
1.0
 76
     1
 77
     6
 78
     2
 67
     7
 79
     5
170
     0
171
     0
290
     0
174
     0
 93
        1
 44
-50.0
173
     0
291
     1
 45
0.0
1001
ACAD
1000
AcDbSavedByObjectVersion
1070
     0
  0
VISUALSTYLE
  5
3D
102
{ACAD_XDICTIONARY
360
3FE
102
}
102
{ACAD_REACTORS
330
2A
102
}
330
2A
100
AcDbVisualStyle
  2

 70
    22
 71
     2
 72
     2
 73
     0
 90
        0
 40
-0.6
 41
-30.0
 62
     5
 63
     7
421
 16777215
 74
     1
 91
        4
 64
     7
 65
   257
 75
     1
175
     1
 42
1.0
 92
        8
 66
     7
 43
1.0
 76
     1
 77
     6
 78
     2
 67
     7
 79
     5
170
     0
171
     0
290
     0
174
     0
 93
        1
 44
0.0
173
     0
291
     1
 45
0.0
1001
ACAD
1000
AcDbSavedByObjectVersion
1070
     0
  0
VISUALSTYLE
  5
39
102
{ACAD_XDICTIONARY
360
3F6
102
}
102
{ACAD_REACTORS
330
2A
102
}
330
2A
100
AcDbVisualStyle
  2

 70
    15
 71
     2
 72
     2
 73
     0
 90
        0
 40
-0.6
 41
-30.0
 62
     5
 63
     7
421
 16777215
 74
     1
 91
        4
 64
     7
 65
   257
 75
     1
175
     1
 42
1.0
 92
        8
 66
     7
 43
1.0
 76
     1
 77
     6
 78
     2
 67
     7
 79
     5
170
     0
171
     0
290
     0
174
     0
 93
        1
 44
0.0
173
     0
291
     1
 45
0.0
1001
ACAD
1000
AcDbSavedByObjectVersion
1070
     0
  0
VISUALSTYLE
  5
2B
102
{ACAD_XDICTIONARY
360
3DA
102
}
102
{ACAD_REACTORS
330
2A
102
}
330
2A
100
AcDbVisualStyle
  2

 70
     0
 71
     2
 72
     1
 73
     1
 90
        2
 40
-0.6
 41
30.0
 62
     5
 63
     7
421
 16777215
 74
     0
 91
        0
 64
     7
 65
   257
 75
     1
175
     1
 42
1.0
 92
        8
 66
     7
 43
1.0
 76
     1
 77
     6
 78
     2
 67
     7
 79
     5
170
     0
171
     0
290
     0
174
     0
 93
       13
 44
0.0
173
     0
291
     1
 45
0.0
1001
ACAD
1000
AcDbSavedByObjectVersion
1070
     0
  0
VISUALSTYLE
  5
2C
102
{ACAD_XDICTIONARY
360
3DC
102
}
102
{ACAD_REACTORS
330
2A
102
}
330
2A
100
AcDbVisualStyle
  2

 70
     1
 71
     2
 72
     1
 73
     1
 90
        2
 40
-0.6
 41
30.0
 62
     5
 63
     7
421
 16777215
 74
     1
 91
        0
 64
     7
 65
   257
 75
     1
175
     1
 42
1.0
 92
        0
 66
   257
 43
1.0
 76
     1
 77
     6
 78
     2
 67
     7
 79
     5
170
     0
171
     0
290
     0
174
     0
 93
       13
 44
0.0
173
     0
291
     1
 45
0.0
1001
ACAD
1000
AcDbSavedByObjectVersion
1070
     0
  0
VISUALSTYLE
  5
2D
102
{ACAD_XDICTIONARY
360
3DE
102
}
102
{ACAD_REACTORS
330
2A
102
}
330
2A
100
AcDbVisualStyle
  2

 70
     2
 71
     2
 72
     2
 73
     1
 90
        2
 40
-0.6
 41
30.0
 62
     5
 63
     7
421
 16777215
 74
     0
 91
        0
 64
     7
 65
   257
 75
     1
175
     1
 42
1.0
 92
        0
 66
     7
 43
1.0
 76
     1
 77
     6
 78
     2
 67
     7
 79
     5
170
     0
171
     0
290
     0
174
     0
 93
       13
 44
0.0
173
     0
291
     1
 45
0.0
1001
ACAD
1000
AcDbSavedByObjectVersion
1070
     0
  0
VISUALSTYLE
  5
2E
102
{ACAD_XDICTIONARY
360
3E0
102
}
102
{ACAD_REACTORS
330
2A
102
}
330
2A
100
AcDbVisualStyle
  2

 70
     3
 71
     2
 72
     2
 73
     1
 90
        2
 40
-0.6
 41
30.0
 62
     5
 63
     7
421
 16777215
 74
     1
 91
        0
 64
     7
 65
   257
 75
     1
175
     1
 42
1.0
 92
        0
 66
   257
 43
1.0
 76
     1
 77
     6
 78
     2
 67
     7
 79
     5
170
     0
171
     0
290
     0
174
     0
 93
       13
 44
0.0
173
     0
291
     1
 45
0.0
1001
ACAD
1000
AcDbSavedByObjectVersion
1070
     0
  0
VISUALSTYLE
  5
31
102
{ACAD_XDICTIONARY
360
3E6
102
}
102
{ACAD_REACTORS
330
2A
102
}
330
2A
100
AcDbVisualStyle
  2

 70
     6
 71
     1
 72
     2
 73
     2
 90
        0
 40
-0.6
 41
-30.0
 62
     5
 63
     7
421
 16777215
 74
     2
 91
        2
 64
     7
 65
   257
 75
     2
175
     1
 42
40.0
 92
        0
 66
   257
 43
1.0
 76
     1
 77
     6
 78
     2
 67
     7
 79
     3
170
     0
171
     0
290
     0
174
     0
 93
        1
 44
0.0
173
     0
291
     0
 45
0.0
1001
ACAD
1000
AcDbSavedByObjectVersion
1070
     0
  0
VISUALSTYLE
  5
3B
102
{ACAD_XDICTIONARY
360
3FA
102
}
102
{ACAD_REACTORS
330
2A
102
}
330
2A
100
AcDbVisualStyle
  2

 70
    20
 71
     2
 72
     2
 73
     0
 90
        0
 40
-0.6
 41
-30.0
 62
     5
 63
     7
421
 16777215
 74
     1
 91
        4
 64
     7
 65
   257
 75
     1
175
     1
 42
1.0
 92
       10
 66
     7
 43
1.0
 76
     1
 77
     6
 78
     2
 67
     7
 79
     5
170
     0
171
     0
290
     0
174
     0
 93
        1
 44
0.0
173
     0
291
     1
 45
0.0
1001
ACAD
1000
AcDbSavedByObjectVersion
1070
     0
  0
VISUALSTYLE
  5
38
102
{ACAD_XDICTIONARY
360
3F4
102
}
102
{ACAD_REACTORS
330
2A
102
}
330
2A
100
AcDbVisualStyle
  2

 70
    14
 71
     2
 72
     2
 73
     0
 90
        0
 40
-0.6
 41
-30.0
 62
     5
 63
     7
421
 16777215
 74
     1
 91
        4
 64
     7
 65
   257
 75
     7
175
     7
 42
1.0
 92
        8
 66
     7
 43
1.0
 76
     1
 77
     6
 78
     2
 67
     7
 79
     5
170
     0
171
     0
290
     0
174
     0
 93
        1
 44
0.0
173
     0
291
     1
 45
0.0
1001
ACAD
1000
AcDbSavedByObjectVersion
1070
     0
  0
VISUALSTYLE
  5
3C
102
{ACAD_XDICTIONARY
360
3FC
102
}
102
{ACAD_REACTORS
330
2A
102
}
330
2A
100
AcDbVisualStyle
  2

 70
    21
 71
     2
 72
     2
 73
     0
 90
        0
 40
-0.6
 41
-30.0
 62
     5
 63
     7
421
 16777215
 74
     1
 91
        4
 64
     7
 65
   257
 75
     1
175
     1
 42
1.0
 92
        9
 66
     7
 43
1.0
 76
     1
 77
     6
 78
     2
 67
     7
 79
     5
170
     0
171
     0
290
     0
174
     0
 93
        1
 44
0.0
173
     0
291
     1
 45
0.0
1001
ACAD
1000
AcDbSavedByObjectVersion
1070
     0
  0
VISUALSTYLE
  5
33
102
{ACAD_XDICTIONARY
360
3EA
102
}
102
{ACAD_REACTORS
330
2A
102
}
330
2A
100
AcDbVisualStyle
  2

 70
     8
 71
     2
 72
     3
 73
     0
 90
        2
 40
-0.6
 41
30.0
 62
     5
 63
     7
421
 16777215
 74
     0
 91
        0
 64
     7
 65
   257
 75
     1
175
     1
 42
1.0
 92
        8
 66
   257
 43
1.0
 76
     1
 77
     6
 78
     2
 67
     7
 79
     3
170
     0
171
     0
290
     0
174
     0
 93
       13
 44
0.0
173
     0
291
     0
 45
0.0
1001
ACAD
1000
AcDbSavedByObjectVersion
1070
     0
  0
VISUALSTYLE
  5
42
102
{ACAD_XDICTIONARY
360
408
102
}
102
{ACAD_REACTORS
330
2A
102
}
330
2A
100
AcDbVisualStyle
  2

 70
    27
 71
     2
 72
     2
 73
     1
 90
        2
 40
-0.6
 41
30.0
 62
     5
 63
     7
421
 16777215
 74
     0
 91
        4
 64
     7
 65
   257
 75
     1
175
     1
 42
1.0
 92
        8
 66
   257
 43
1.0
 76
     1
 77
     6
 78
     2
 67
     8
425
  7895160
 79
     3
170
     0
171
     0
290
     0
174
     0
 93
        5
 44
0.0
173
     0
291
     0
 45
0.0
1001
ACAD
1000
AcDbSavedByObjectVersion
1070
     0
  0
VISUALSTYLE
  5
41
102
{ACAD_XDICTIONARY
360
406
102
}
102
{ACAD_REACTORS
330
2A
102
}
330
2A
100
AcDbVisualStyle
  2

 70
    26
 71
     2
 72
     2
 73
     1
 90
        2
 40
-0.6
 41
30.0
 62
     5
 63
     7
421
 16777215
 74
     1
 91
       10
 64
     7
 65
   257
 75
     2
175
     1
 42
1.0
 92
        8
 66
   257
 43
1.0
 76
     1
 77
     6
 78
     2
 67
     7
 79
     3
170
     0
171
     0
290
     0
174
     0
 93
        5
 44
0.0
173
     0
291
     0
 45
0.0
1001
ACAD
1000
AcDbSavedByObjectVersion
1070
     0
  0
VISUALSTYLE
  5
3E
102
{ACAD_XDICTIONARY
360
400
102
}
102
{ACAD_REACTORS
330
2A
102
}
330
2A
100
AcDbVisualStyle
  2

 70
    23
 71
     2
 72
     2
 73
     3
 90
        0
 40
-0.6
 41
-30.0
 62
     5
 63
     7
421
 16777215
 74
     2
 91
        2
 64
     7
 65
     7
 75
     1
175
     1
 42
40.0
 92
        8
 66
     7
 43
1.0
 76
     1
 77
     6
 78
     2
 67
     7
 79
     3
170
     0
171
     0
290
     0
174
     0
 93
        1
 44
0.0
173
     0
291
     0
 45
0.0
1001
ACAD
1000
AcDbSavedByObjectVersion
1070
     0
  0
VISUALSTYLE
  5
3F
102
{ACAD_XDICTIONARY
360
402
102
}
102
{ACAD_REACTORS
330
2A
102
}
330
2A
100
AcDbVisualStyle
  2

 70
    24
 71
     1
 72
     2
 73
     2
 90
        0
 40
-0.6
 41
-30.0
 62
     5
 63
     7
421
 16777215
 74
     2
 91
        2
 64
     7
 65
     7
 75
     1
175
     1
 42
40.0
 92
       11
 66
     7
 43
1.0
 76
     1
 77
     6
 78
     2
 67
     7
 79
     6
170
     0
171
     0
290
     0
174
     0
 93
        1
 44
0.0
173
     0
291
     0
 45
0.0
1001
ACAD
1000
AcDbSavedByObjectVersion
1070
     0
  0
VISUALSTYLE
  5
37
102
{ACAD_XDICTIONARY
360
3F2
102
}
102
{ACAD_REACTORS
330
2A
102
}
330
2A
100
AcDbVisualStyle
  2

 70
    13
 71
     2
 72
     2
 73
     0
 90
        0
 40
-0.6
 41
-30.0
 62
     5
 63
     7
421
 16777215
 74
     1
 91
        4
 64
     7
 65
   257
 75
     1
175
     1
 42
1.0
 92
       12
 66
     7
 43
1.0
 76
     1
 77
     6
 78
     2
 67
     7
 79
     5
170
     0
171
     0
290
     0
174
     0
 93
        1
 44
0.0
173
     0
291
     1
 45
0.0
1001
ACAD
1000
AcDbSavedByObjectVersion
1070
     0
  0
VISUALSTYLE
  5
30
102
{ACAD_XDICTIONARY
360
3E4
102
}
102
{ACAD_REACTORS
330
2A
102
}
330
2A
100
AcDbVisualStyle
  2

 70
     5
 71
     0
 72
     2
 73
     0
 90
        0
 40
-0.6
 41
-30.0
 62
     5
 63
     7
421
 16777215
 74
     1
 91
        4
 64
     7
 65
   257
 75
     1
175
     1
 42
1.0
 92
        0
 66
   257
 43
1.0
 76
     1
 77
     6
 78
     2
 67
     7
 79
     3
170
     0
171
     0
290
     0
174
     0
 93
        1
 44
0.0
173
     0
291
     0
 45
0.0
1001
ACAD
1000
AcDbSavedByObjectVersion
1070
     0
  0
VISUALSTYLE
  5
40
102
{ACAD_XDICTIONARY
360
404
102
}
102
{ACAD_REACTORS
330
2A
102
}
330
2A
100
AcDbVisualStyle
  2

 70
    25
 71
     2
 72
     2
 73
     1
 90
        1
 40
0.5
 41
-30.0
 62
     5
 63
     7
421
 16777215
 74
     1
 91
        0
 64
     7
 65
   257
 75
     1
175
     1
 42
1.0
 92
        8
 66
     7
 43
1.0
 76
     1
 77
     6
 78
     2
 67
     7
 79
     3
170
     0
171
     0
290
     0
174
     0
 93
       13
 44
0.0
173
     0
291
     0
 45
0.0
1001
ACAD
1000
AcDbSavedByObjectVersion
1070
     0
  0
DICTIONARYVAR
  5
1D1
102
{ACAD_REACTORS
330
1D0
102
}
330
1D0
100
DictionaryVariables
280
     0
  1
1:1
  0
DICTIONARYVAR
  5
212
102
{ACAD_REACTORS
330
1D0
102
}
330
1D0
100
DictionaryVariables
280
     0
  1
STANDARD
  0
DICTIONARYVAR
  5
211
102
{ACAD_REACTORS
330
1D0
102
}
330
1D0
100
DictionaryVariables
280
     0
  1
STANDARD
  0
DICTIONARYVAR
  5
3CC
102
{ACAD_REACTORS
330
1D0
102
}
330
1D0
100
DictionaryVariables
280
     0
  1
Metric50
  0
DICTIONARYVAR
  5
3CD
102
{ACAD_REACTORS
330
1D0
102
}
330
1D0
100
DictionaryVariables
280
     0
  1
Metric50
  0
DICTIONARYVAR
  5
1D2
102
{ACAD_REACTORS
330
1D0
102
}
330
1D0
100
DictionaryVariables
280
     0
  1
1
  0
DICTIONARYVAR
  5
3CE
102
{ACAD_REACTORS
330
1D0
102
}
330
1D0
100
DictionaryVariables
280
     0
  1
2
  0
DICTIONARY
  5
3D9
102
{ACAD_REACTORS
330
3D7
102
}
330
3D7
100
AcDbDictionary
281
     1
  0
DICTIONARY
  5
3D8
102
{ACAD_REACTORS
330
3D7
102
}
330
3D7
100
AcDbDictionary
281
     1
  3
1963485155616
350
3D2
  3
1963485155632
350
3D3
  3
1963485155648
350
3D4
  3
1963485155664
350
3D5
  3
1963485155680
350
3D6
  0
DICTIONARY
  5
40D
330
219
100
AcDbDictionary
280
     1
281
     1
  3
ACAD_XREC_ROUNDTRIP
360
40E
  0
DICTIONARY
  5
206
330
45
100
AcDbDictionary
280
     1
281
     1
  3
ACAD_XREC_ROUNDTRIP
360
207
  0
DICTIONARY
  5
204
330
44
100
AcDbDictionary
280
     1
281
     1
  3
ACAD_XREC_ROUNDTRIP
360
205
  0
DICTIONARY
  5
208
330
46
100
AcDbDictionary
280
     1
281
     1
  3
ACAD_XREC_ROUNDTRIP
360
209
  0
DICTIONARY
  5
40B
330
218
100
AcDbDictionary
280
     1
281
     1
  3
ACAD_XREC_ROUNDTRIP
360
40C
  0
DICTIONARY
  5
20A
330
6A
100
AcDbDictionary
280
     1
281
     1
  3
ACAD_ROUNDTRIP_2008_TABLESTYLE_CELLSTYLEMAP
360
3D0
  3
ACAD_XREC_ROUNDTRIP
360
40A
  0
DICTIONARY
  5
3E2
330
2F
100
AcDbDictionary
280
     1
281
     1
  3
ACAD_XREC_ROUNDTRIP
360
3E3
  0
DICTIONARY
  5
3E8
330
32
100
AcDbDictionary
280
     1
281
     1
  3
ACAD_XREC_ROUNDTRIP
360
3E9
  0
DICTIONARY
  5
3F0
330
36
100
AcDbDictionary
280
     1
281
     1
  3
ACAD_XREC_ROUNDTRIP
360
3F1
  0
DICTIONARY
  5
3F8
330
3A
100
AcDbDictionary
280
     1
281
     1
  3
ACAD_XREC_ROUNDTRIP
360
3F9
  0
DICTIONARY
  5
3EC
330
34
100
AcDbDictionary
280
     1
281
     1
  3
ACAD_XREC_ROUNDTRIP
360
3ED
  0
DICTIONARY
  5
3EE
330
35
100
AcDbDictionary
280
     1
281
     1
  3
ACAD_XREC_ROUNDTRIP
360
3EF
  0
DICTIONARY
  5
3FE
330
3D
100
AcDbDictionary
280
     1
281
     1
  3
ACAD_XREC_ROUNDTRIP
360
3FF
  0
DICTIONARY
  5
3F6
330
39
100
AcDbDictionary
280
     1
281
     1
  3
ACAD_XREC_ROUNDTRIP
360
3F7
  0
DICTIONARY
  5
3DA
330
2B
100
AcDbDictionary
280
     1
281
     1
  3
ACAD_XREC_ROUNDTRIP
360
3DB
  0
DICTIONARY
  5
3DC
330
2C
100
AcDbDictionary
280
     1
281
     1
  3
ACAD_XREC_ROUNDTRIP
360
3DD
  0
DICTIONARY
  5
3DE
330
2D
100
AcDbDictionary
280
     1
281
     1
  3
ACAD_XREC_ROUNDTRIP
360
3DF
  0
DICTIONARY
  5
3E0
330
2E
100
AcDbDictionary
280
     1
281
     1
  3
ACAD_XREC_ROUNDTRIP
360
3E1
  0
DICTIONARY
  5
3E6
330
31
100
AcDbDictionary
280
     1
281
     1
  3
ACAD_XREC_ROUNDTRIP
360
3E7
  0
DICTIONARY
  5
3FA
330
3B
100
AcDbDictionary
280
     1
281
     1
  3
ACAD_XREC_ROUNDTRIP
360
3FB
  0
DICTIONARY
  5
3F4
330
38
100
AcDbDictionary
280
     1
281
     1
  3
ACAD_XREC_ROUNDTRIP
360
3F5
  0
DICTIONARY
  5
3FC
330
3C
100
AcDbDictionary
280
     1
281
     1
  3
ACAD_XREC_ROUNDTRIP
360
3FD
  0
DICTIONARY
  5
3EA
330
33
100
AcDbDictionary
280
     1
281
     1
  3
ACAD_XREC_ROUNDTRIP
360
3EB
  0
DICTIONARY
  5
408
330
42
100
AcDbDictionary
280
     1
281
     1
  3
ACAD_XREC_ROUNDTRIP
360
409
  0
DICTIONARY
  5
406
330
41
100
AcDbDictionary
280
     1
281
     1
  3
ACAD_XREC_ROUNDTRIP
360
407
  0
DICTIONARY
  5
400
330
3E
100
AcDbDictionary
280
     1
281
     1
  3
ACAD_XREC_ROUNDTRIP
360
401
  0
DICTIONARY
  5
402
330
3F
100
AcDbDictionary
280
     1
281
     1
  3
ACAD_XREC_ROUNDTRIP
360
403
  0
DICTIONARY
  5
3F2
330
37
100
AcDbDictionary
280
     1
281
     1
  3
ACAD_XREC_ROUNDTRIP
360
3F3
  0
DICTIONARY
  5
3E4
330
30
100
AcDbDictionary
280
     1
281
     1
  3
ACAD_XREC_ROUNDTRIP
360
3E5
  0
DICTIONARY
  5
404
330
40
100
AcDbDictionary
280
     1
281
     1
  3
ACAD_XREC_ROUNDTRIP
360
405
  0
XRECORD
  5
3D2
102
{ACAD_REACTORS
330
3D8
102
}
330
3D8
100
AcDbXrecord
280
     1
  1
AcDb_Thumbnail_Schema
102
{ATTRRECORD
341
3D3
  2
AcDbDs::TreatedAsObjectData
280
     1
291
     1
102
ATTRRECORD}
102
{ATTRRECORD
341
3D4
  2
AcDbDs::Legacy
280
     1
291
     1
102
ATTRRECORD}
  2
AcDbDs::ID
280
    10
 91
        8
102
{ATTRRECORD
341
3D5
  2
AcDs:Indexable
280
     1
291
     1
102
ATTRRECORD}
102
{ATTRRECORD
341
3D6
  2
AcDbDs::HandleAttribute
280
     7
282
     1
102
ATTRRECORD}
  2
Thumbnail_Data
280
    15
 91
        0
  0
XRECORD
  5
3D3
102
{ACAD_REACTORS
330
3D8
102
}
330
3D8
100
AcDbXrecord
280
     1
  1
AcDbDs::TreatedAsObjectDataSchema
  2
AcDbDs::TreatedAsObjectData
280
     1
 91
        0
  0
XRECORD
  5
3D4
102
{ACAD_REACTORS
330
3D8
102
}
330
3D8
100
AcDbXrecord
280
     1
  1
AcDbDs::LegacySchema
  2
AcDbDs::Legacy
280
     1
 91
        0
  0
XRECORD
  5
3D5
102
{ACAD_REACTORS
330
3D8
102
}
330
3D8
100
AcDbXrecord
280
     1
  1
AcDbDs::IndexedPropertySchema
  2
AcDs:Indexable
280
     1
 91
        0
  0
XRECORD
  5
3D6
102
{ACAD_REACTORS
330
3D8
102
}
330
3D8
100
AcDbXrecord
280
     1
  1
AcDbDs::HandleAttributeSchema
  2
AcDbDs::HandleAttribute
280
     7
 91
        1
284
     1
  0
XRECORD
  5
40E
102
{ACAD_REACTORS
330
40D
102
}
330
40D
100
AcDbXrecord
280
     1
102
DISPLAYNAME
  1
Metric50
102
FLAGS
 90
        0
  0
XRECORD
  5
207
102
{ACAD_REACTORS
330
206
102
}
330
206
100
AcDbXrecord
280
     1
102
MATERIAL
148
0.0
149
0.0
149
0.0
 93
        0
 94
      127
282
     0
 72
     1
 77
     1
171
     1
175
     1
179
     1
273
     0
  0
XRECORD
  5
205
102
{ACAD_REACTORS
330
204
102
}
330
204
100
AcDbXrecord
280
     1
102
MATERIAL
148
0.0
149
0.0
149
0.0
 93
        0
 94
      127
282
     0
 72
     1
 77
     1
171
     1
175
     1
179
     1
273
     0
  0
XRECORD
  5
209
102
{ACAD_REACTORS
330
208
102
}
330
208
100
AcDbXrecord
280
     1
102
MATERIAL
148
0.0
149
0.0
149
0.0
 93
        0
 94
      127
282
     0
 72
     1
 77
     1
171
     1
175
     1
179
     1
273
     0
  0
XRECORD
  5
40C
102
{ACAD_REACTORS
330
40B
102
}
330
40B
100
AcDbXrecord
280
     1
102
DISPLAYNAME
  1
Metric50
102
FLAGS
 90
        0
  0
CELLSTYLEMAP
  5
3D0
102
{ACAD_REACTORS
330
20A
102
}
330
20A
100
AcDbCellStyleMap
 90
        3
300
CELLSTYLE
  1
TABLEFORMAT_BEGIN
 90
        5
170
     1
 91
        0
 92
    32768
 62
   257
 93
        1
300
CONTENTFORMAT
  1
CONTENTFORMAT_BEGIN
 90
        0
 91
        0
 92
        4
 93
        0
300

 40
0.0
140
1.0
 94
        5
 62
     0
340
11
144
0.25
309
CONTENTFORMAT_END
171
     1
301
MARGIN
  1
CELLMARGIN_BEGIN
 40
0.06
 40
0.06
 40
0.06
 40
0.06
 40
0.18
 40
0.18
309
CELLMARGIN_END
 94
        6
 95
        1
302
GRIDFORMAT
  1
GRIDFORMAT_BEGIN
 90
        0
 91
        1
 62
     0
 92
       -2
340
14
 93
        0
 40
0.045
309
GRIDFORMAT_END
 95
        2
302
GRIDFORMAT
  1
GRIDFORMAT_BEGIN
 90
        0
 91
        1
 62
     0
 92
       -2
340
14
 93
        0
 40
0.045
309
GRIDFORMAT_END
 95
        4
302
GRIDFORMAT
  1
GRIDFORMAT_BEGIN
 90
        0
 91
        1
 62
     0
 92
       -2
340
14
 93
        0
 40
0.045
309
GRIDFORMAT_END
 95
        8
302
GRIDFORMAT
  1
GRIDFORMAT_BEGIN
 90
        0
 91
        1
 62
     0
 92
       -2
340
14
 93
        0
 40
0.045
309
GRIDFORMAT_END
 95
       16
302
GRIDFORMAT
  1
GRIDFORMAT_BEGIN
 90
        0
 91
        1
 62
     0
 92
       -2
340
14
 93
        0
 40
0.045
309
GRIDFORMAT_END
 95
       32
302
GRIDFORMAT
  1
GRIDFORMAT_BEGIN
 90
        0
 91
        1
 62
     0
 92
       -2
340
14
 93
        0
 40
0.045
309
GRIDFORMAT_END
309
TABLEFORMAT_END
  1
CELLSTYLE_BEGIN
 90
        1
 91
        1
300
_TITLE
309
CELLSTYLE_END
300
CELLSTYLE
  1
TABLEFORMAT_BEGIN
 90
        5
170
     1
 91
        0
 92
        0
 62
   257
 93
        1
300
CONTENTFORMAT
  1
CONTENTFORMAT_BEGIN
 90
        0
 91
        0
 92
        4
 93
        0
300

 40
0.0
140
1.0
 94
        5
 62
     0
340
11
144
0.18
309
CONTENTFORMAT_END
171
     1
301
MARGIN
  1
CELLMARGIN_BEGIN
 40
0.06
 40
0.06
 40
0.06
 40
0.06
 40
0.18
 40
0.18
309
CELLMARGIN_END
 94
        6
 95
        1
302
GRIDFORMAT
  1
GRIDFORMAT_BEGIN
 90
        0
 91
        1
 62
     0
 92
       -2
340
14
 93
        0
 40
0.045
309
GRIDFORMAT_END
 95
        2
302
GRIDFORMAT
  1
GRIDFORMAT_BEGIN
 90
        0
 91
        1
 62
     0
 92
       -2
340
14
 93
        0
 40
0.045
309
GRIDFORMAT_END
 95
        4
302
GRIDFORMAT
  1
GRIDFORMAT_BEGIN
 90
        0
 91
        1
 62
     0
 92
       -2
340
14
 93
        0
 40
0.045
309
GRIDFORMAT_END
 95
        8
302
GRIDFORMAT
  1
GRIDFORMAT_BEGIN
 90
        0
 91
        1
 62
     0
 92
       -2
340
14
 93
        0
 40
0.045
309
GRIDFORMAT_END
 95
       16
302
GRIDFORMAT
  1
GRIDFORMAT_BEGIN
 90
        0
 91
        1
 62
     0
 92
       -2
340
14
 93
        0
 40
0.045
309
GRIDFORMAT_END
 95
       32
302
GRIDFORMAT
  1
GRIDFORMAT_BEGIN
 90
        0
 91
        1
 62
     0
 92
       -2
340
14
 93
        0
 40
0.045
309
GRIDFORMAT_END
309
TABLEFORMAT_END
  1
CELLSTYLE_BEGIN
 90
        2
 91
        1
300
_HEADER
309
CELLSTYLE_END
300
CELLSTYLE
  1
TABLEFORMAT_BEGIN
 90
        5
170
     1
 91
        0
 92
        0
 62
   257
 93
        1
300
CONTENTFORMAT
  1
CONTENTFORMAT_BEGIN
 90
        0
 91
        0
 92
        4
 93
        0
300

 40
0.0
140
1.0
 94
        2
 62
     0
340
11
144
0.18
309
CONTENTFORMAT_END
171
     1
301
MARGIN
  1
CELLMARGIN_BEGIN
 40
0.06
 40
0.06
 40
0.06
 40
0.06
 40
0.18
 40
0.18
309
CELLMARGIN_END
 94
        6
 95
        1
302
GRIDFORMAT
  1
GRIDFORMAT_BEGIN
 90
        0
 91
        1
 62
     0
 92
       -2
340
14
 93
        0
 40
0.045
309
GRIDFORMAT_END
 95
        2
302
GRIDFORMAT
  1
GRIDFORMAT_BEGIN
 90
        0
 91
        1
 62
     0
 92
       -2
340
14
 93
        0
 40
0.045
309
GRIDFORMAT_END
 95
        4
302
GRIDFORMAT
  1
GRIDFORMAT_BEGIN
 90
        0
 91
        1
 62
     0
 92
       -2
340
14
 93
        0
 40
0.045
309
GRIDFORMAT_END
 95
        8
302
GRIDFORMAT
  1
GRIDFORMAT_BEGIN
 90
        0
 91
        1
 62
     0
 92
       -2
340
14
 93
        0
 40
0.045
309
GRIDFORMAT_END
 95
       16
302
GRIDFORMAT
  1
GRIDFORMAT_BEGIN
 90
        0
 91
        1
 62
     0
 92
       -2
340
14
 93
        0
 40
0.045
309
GRIDFORMAT_END
 95
       32
302
GRIDFORMAT
  1
GRIDFORMAT_BEGIN
 90
        0
 91
        1
 62
     0
 92
       -2
340
14
 93
        0
 40
0.045
309
GRIDFORMAT_END
309
TABLEFORMAT_END
  1
CELLSTYLE_BEGIN
 90
        3
 91
        2
300
_DATA
309
CELLSTYLE_END
  0
XRECORD
  5
40A
102
{ACAD_REACTORS
330
20A
102
}
330
20A
100
AcDbXrecord
280
     1
102
ACAD_ROUNDTRIP_PRE2007_TABLESTYLE
 90
        4
 91
        0
  1

 92
        4
 93
        0
  2

 94
        4
 95
        0
  3

  0
XRECORD
  5
3E3
102
{ACAD_REACTORS
330
3E2
102
}
330
3E2
100
AcDbXrecord
280
     1
102
RTVSPost2010Prop28
280
     1
102
RTVSPost2010PropOp28
 70
     1
102
RTVSPost2010Prop29
280
     1
102
RTVSPost2010PropOp29
 70
     1
102
RTVSPost2010Prop30
280
     0
102
RTVSPost2010PropOp30
 70
     1
102
RTVSPost2010Prop31
280
     0
102
RTVSPost2010PropOp31
 70
     1
102
RTVSPost2010Prop32
280
     0
102
RTVSPost2010PropOp32
 70
     1
102
RTVSPost2010Prop33
280
     0
102
RTVSPost2010PropOp33
 70
     1
102
RTVSPost2010Prop34
280
     0
102
RTVSPost2010PropOp34
 70
     1
102
RTVSPost2010Prop35
280
     0
102
RTVSPost2010PropOp35
 70
     1
102
RTVSPost2010Prop36
280
     0
102
RTVSPost2010PropOp36
 70
     1
102
RTVSPost2010Prop37
 90
       50
102
RTVSPost2010PropOp37
 70
     1
102
RTVSPost2010Prop38
140
0.0
102
RTVSPost2010PropOp38
 70
     1
102
RTVSPost2010Prop39
140
1.0
102
RTVSPost2010PropOp39
 70
     1
102
RTVSPost2010Prop40
 90
        0
102
RTVSPost2010PropOp40
 70
     1
102
RTVSPost2010Prop41ColorIndex
 90
       18
102
RTVSPost2010Prop41ColorRGB
 90
        0
102
RTVSPost2010PropOp41
 70
     1
102
RTVSPost2010Prop42
 90
       50
102
RTVSPost2010PropOp42
 70
     1
102
RTVSPost2010Prop43
 90
        3
102
RTVSPost2010PropOp43
 70
     1
102
RTVSPost2010Prop44ColorIndex
 90
        5
102
RTVSPost2010Prop44ColorRGB
 90
      255
102
RTVSPost2010PropOp44
 70
     1
102
RTVSPost2010Prop45
280
     0
102
RTVSPost2010PropOp45
 70
     1
102
RTVSPost2010Prop46
 90
       50
102
RTVSPost2010PropOp46
 70
     1
102
RTVSPost2010Prop47
 90
       50
102
RTVSPost2010PropOp47
 70
     1
102
RTVSPost2010Prop48
 90
       50
102
RTVSPost2010PropOp48
 70
     1
102
RTVSPost2010Prop49
280
     0
102
RTVSPost2010PropOp49
 70
     1
102
RTVSPost2010Prop50
 90
       50
102
RTVSPost2010PropOp50
 70
     1
102
RTVSPost2010Prop51ColorIndex
 90
      256
102
RTVSPost2010Prop51ColorRGB
 90
-16777216
102
RTVSPost2010PropOp51
 70
     0
102
RTVSPost2010Prop52
140
1.0
102
RTVSPost2010PropOp52
 70
     0
102
RTVSPost2010Prop53
 90
        2
102
RTVSPost2010PropOp53
 70
     1
102
RTVSPost2010Prop54
  1
strokes_ogs.tif
102
RTVSPost2010PropOp54
 70
     1
102
RTVSPost2010Prop55
280
     0
102
RTVSPost2010PropOp55
 70
     1
102
RTVSPost2010Prop56
140
1.0
102
RTVSPost2010PropOp56
 70
     1
102
RTVSPost2010Prop57
140
1.0
102
RTVSPost2010PropOp57
 70
     1
102
RTVSPropertyOp0
 70
     1
102
RTVSPropertyOp1
 70
     1
102
RTVSPropertyOp2
 70
     1
102
RTVSPropertyOp3
 70
     1
102
RTVSPropertyOp4
 70
     1
102
RTVSPropertyOp5
 70
     1
102
RTVSPropertyOp6
 70
     1
102
RTVSPropertyOp7
 70
     1
102
RTVSPropertyOp8
 70
     1
102
RTVSPropertyOp9
 70
     1
102
RTVSPropertyOp10
 70
     1
102
RTVSPropertyOp11
 70
     1
102
RTVSPropertyOp12
 70
     1
102
RTVSPropertyOp13
 70
     1
102
RTVSPropertyOp14
 70
     1
102
RTVSPropertyOp15
 70
     1
102
RTVSPropertyOp16
 70
     1
102
RTVSPropertyOp17
 70
     1
102
RTVSPropertyOp18
 70
     1
102
RTVSPropertyOp19
 70
     1
102
RTVSPropertyOp20
 70
     1
102
RTVSPropertyOp21
 70
     1
102
RTVSPropertyOp22
 70
     1
102
RTVSPropertyOp23
 70
     1
102
RTVSPropertyOp24
 70
     1
102
RTVSPropertyOp25
 70
     1
102
RTVSPropertyOp26
 70
     1
102
RTVSPropertyOp27
 70
     1
102
RTVSPropertyOp28
 70
     1
102
RTVSPropertyOp29
 70
     1
102
RTVSPropertyOp30
 70
     1
102
RTVSPropertyOp31
 70
     1
102
RTVSPropertyOp32
 70
     1
102
RTVSPropertyOp33
 70
     1
102
RTVSPropertyOp34
 70
     1
102
RTVSPropertyOp35
 70
     1
102
RTVSPropertyOp36
 70
     1
102
RTVSPropertyOp37
 70
     1
102
RTVSPropertyOp38
 70
     1
102
RTVSPropertyOp39
 70
     1
102
RTVSPropertyOp40
 70
     1
102
RTVSPropertyOp41
 70
     1
102
RTVSPropertyOp42
 70
     1
102
RTVSPropertyOp43
 70
     1
102
RTVSPropertyOp44
 70
     1
102
RTVSPropertyOp45
 70
     1
102
RTVSPropertyOp46
 70
     1
102
RTVSPropertyOp47
 70
     1
102
RTVSPropertyOp48
 70
     1
102
RTVSPropertyOp49
 70
     1
102
RTVSPropertyOp50
 70
     1
102
RTVSPropertyOp51
 70
     0
102
RTVSPropertyOp52
 70
     0
102
RTVSPropertyOp53
 70
     1
102
RTVSPropertyOp54
 70
     1
102
RTVSPropertyOp55
 70
     1
102
RTVSPropertyOp56
 70
     1
102
RTVSPropertyOp57
 70
     1
102
RTVSPropertyOp58
 70
     1
102
RTVSPropertyOp59
 70
     1
102
RTVSPropertyOp60
 70
     1
102
RTVSPropertyOp61
 70
     1
102
RTVSPropertyOp62
 70
     1
  0
XRECORD
  5
3E9
102
{ACAD_REACTORS
330
3E8
102
}
330
3E8
100
AcDbXrecord
280
     1
102
RTVSPost2010Prop28
280
     0
102
RTVSPost2010PropOp28
 70
     1
102
RTVSPost2010Prop29
280
     1
102
RTVSPost2010PropOp29
 70
     1
102
RTVSPost2010Prop30
280
     1
102
RTVSPost2010PropOp30
 70
     1
102
RTVSPost2010Prop31
280
     0
102
RTVSPost2010PropOp31
 70
     1
102
RTVSPost2010Prop32
280
     0
102
RTVSPost2010PropOp32
 70
     1
102
RTVSPost2010Prop33
280
     0
102
RTVSPost2010PropOp33
 70
     1
102
RTVSPost2010Prop34
280
     0
102
RTVSPost2010PropOp34
 70
     1
102
RTVSPost2010Prop35
280
     0
102
RTVSPost2010PropOp35
 70
     1
102
RTVSPost2010Prop36
280
     0
102
RTVSPost2010PropOp36
 70
     1
102
RTVSPost2010Prop37
 90
       50
102
RTVSPost2010PropOp37
 70
     1
102
RTVSPost2010Prop38
140
0.0
102
RTVSPost2010PropOp38
 70
     1
102
RTVSPost2010Prop39
140
1.0
102
RTVSPost2010PropOp39
 70
     1
102
RTVSPost2010Prop40
 90
        0
102
RTVSPost2010PropOp40
 70
     1
102
RTVSPost2010Prop41ColorIndex
 90
       18
102
RTVSPost2010Prop41ColorRGB
 90
        0
102
RTVSPost2010PropOp41
 70
     1
102
RTVSPost2010Prop42
 90
       50
102
RTVSPost2010PropOp42
 70
     1
102
RTVSPost2010Prop43
 90
        3
102
RTVSPost2010PropOp43
 70
     1
102
RTVSPost2010Prop44ColorIndex
 90
        5
102
RTVSPost2010Prop44ColorRGB
 90
      255
102
RTVSPost2010PropOp44
 70
     1
102
RTVSPost2010Prop45
280
     0
102
RTVSPost2010PropOp45
 70
     1
102
RTVSPost2010Prop46
 90
       50
102
RTVSPost2010PropOp46
 70
     1
102
RTVSPost2010Prop47
 90
       50
102
RTVSPost2010PropOp47
 70
     1
102
RTVSPost2010Prop48
 90
       50
102
RTVSPost2010PropOp48
 70
     1
102
RTVSPost2010Prop49
280
     0
102
RTVSPost2010PropOp49
 70
     1
102
RTVSPost2010Prop50
 90
       50
102
RTVSPost2010PropOp50
 70
     1
102
RTVSPost2010Prop51ColorIndex
 90
      256
102
RTVSPost2010Prop51ColorRGB
 90
-16777216
102
RTVSPost2010PropOp51
 70
     0
102
RTVSPost2010Prop52
140
1.0
102
RTVSPost2010PropOp52
 70
     0
102
RTVSPost2010Prop53
 90
        2
102
RTVSPost2010PropOp53
 70
     1
102
RTVSPost2010Prop54
  1
strokes_ogs.tif
102
RTVSPost2010PropOp54
 70
     1
102
RTVSPost2010Prop55
280
     0
102
RTVSPost2010PropOp55
 70
     1
102
RTVSPost2010Prop56
140
1.0
102
RTVSPost2010PropOp56
 70
     1
102
RTVSPost2010Prop57
140
1.0
102
RTVSPost2010PropOp57
 70
     1
102
RTVSPropertyOp0
 70
     1
102
RTVSPropertyOp1
 70
     1
102
RTVSPropertyOp2
 70
     1
102
RTVSPropertyOp3
 70
     1
102
RTVSPropertyOp4
 70
     1
102
RTVSPropertyOp5
 70
     1
102
RTVSPropertyOp6
 70
     1
102
RTVSPropertyOp7
 70
     1
102
RTVSPropertyOp8
 70
     1
102
RTVSPropertyOp9
 70
     1
102
RTVSPropertyOp10
 70
     1
102
RTVSPropertyOp11
 70
     1
102
RTVSPropertyOp12
 70
     1
102
RTVSPropertyOp13
 70
     1
102
RTVSPropertyOp14
 70
     1
102
RTVSPropertyOp15
 70
     1
102
RTVSPropertyOp16
 70
     1
102
RTVSPropertyOp17
 70
     1
102
RTVSPropertyOp18
 70
     1
102
RTVSPropertyOp19
 70
     1
102
RTVSPropertyOp20
 70
     1
102
RTVSPropertyOp21
 70
     1
102
RTVSPropertyOp22
 70
     1
102
RTVSPropertyOp23
 70
     1
102
RTVSPropertyOp24
 70
     1
102
RTVSPropertyOp25
 70
     1
102
RTVSPropertyOp26
 70
     1
102
RTVSPropertyOp27
 70
     1
102
RTVSPropertyOp28
 70
     1
102
RTVSPropertyOp29
 70
     1
102
RTVSPropertyOp30
 70
     1
102
RTVSPropertyOp31
 70
     1
102
RTVSPropertyOp32
 70
     1
102
RTVSPropertyOp33
 70
     1
102
RTVSPropertyOp34
 70
     1
102
RTVSPropertyOp35
 70
     1
102
RTVSPropertyOp36
 70
     1
102
RTVSPropertyOp37
 70
     1
102
RTVSPropertyOp38
 70
     1
102
RTVSPropertyOp39
 70
     1
102
RTVSPropertyOp40
 70
     1
102
RTVSPropertyOp41
 70
     1
102
RTVSPropertyOp42
 70
     1
102
RTVSPropertyOp43
 70
     1
102
RTVSPropertyOp44
 70
     1
102
RTVSPropertyOp45
 70
     1
102
RTVSPropertyOp46
 70
     1
102
RTVSPropertyOp47
 70
     1
102
RTVSPropertyOp48
 70
     1
102
RTVSPropertyOp49
 70
     1
102
RTVSPropertyOp50
 70
     1
102
RTVSPropertyOp51
 70
     0
102
RTVSPropertyOp52
 70
     0
102
RTVSPropertyOp53
 70
     1
102
RTVSPropertyOp54
 70
     1
102
RTVSPropertyOp55
 70
     1
102
RTVSPropertyOp56
 70
     1
102
RTVSPropertyOp57
 70
     1
102
RTVSPropertyOp58
 70
     1
102
RTVSPropertyOp59
 70
     1
102
RTVSPropertyOp60
 70
     1
102
RTVSPropertyOp61
 70
     1
102
RTVSPropertyOp62
 70
     1
  0
XRECORD
  5
3F1
102
{ACAD_REACTORS
330
3F0
102
}
330
3F0
100
AcDbXrecord
280
     1
102
RTVSPost2010Prop28
280
     0
102
RTVSPost2010PropOp28
 70
     1
102
RTVSPost2010Prop29
280
     1
102
RTVSPost2010PropOp29
 70
     1
102
RTVSPost2010Prop30
280
     1
102
RTVSPost2010PropOp30
 70
     1
102
RTVSPost2010Prop31
280
     0
102
RTVSPost2010PropOp31
 70
     1
102
RTVSPost2010Prop32
280
     0
102
RTVSPost2010PropOp32
 70
     1
102
RTVSPost2010Prop33
280
     0
102
RTVSPost2010PropOp33
 70
     1
102
RTVSPost2010Prop34
280
     0
102
RTVSPost2010PropOp34
 70
     1
102
RTVSPost2010Prop35
280
     0
102
RTVSPost2010PropOp35
 70
     1
102
RTVSPost2010Prop36
280
     0
102
RTVSPost2010PropOp36
 70
     1
102
RTVSPost2010Prop37
 90
       50
102
RTVSPost2010PropOp37
 70
     1
102
RTVSPost2010Prop38
140
0.0
102
RTVSPost2010PropOp38
 70
     1
102
RTVSPost2010Prop39
140
1.0
102
RTVSPost2010PropOp39
 70
     1
102
RTVSPost2010Prop40
 90
        0
102
RTVSPost2010PropOp40
 70
     1
102
RTVSPost2010Prop41ColorIndex
 90
       18
102
RTVSPost2010Prop41ColorRGB
 90
        0
102
RTVSPost2010PropOp41
 70
     1
102
RTVSPost2010Prop42
 90
       50
102
RTVSPost2010PropOp42
 70
     1
102
RTVSPost2010Prop43
 90
        3
102
RTVSPost2010PropOp43
 70
     1
102
RTVSPost2010Prop44ColorIndex
 90
        5
102
RTVSPost2010Prop44ColorRGB
 90
      255
102
RTVSPost2010PropOp44
 70
     1
102
RTVSPost2010Prop45
280
     0
102
RTVSPost2010PropOp45
 70
     1
102
RTVSPost2010Prop46
 90
       50
102
RTVSPost2010PropOp46
 70
     1
102
RTVSPost2010Prop47
 90
       50
102
RTVSPost2010PropOp47
 70
     1
102
RTVSPost2010Prop48
 90
       50
102
RTVSPost2010PropOp48
 70
     1
102
RTVSPost2010Prop49
280
     0
102
RTVSPost2010PropOp49
 70
     1
102
RTVSPost2010Prop50
 90
       50
102
RTVSPost2010PropOp50
 70
     1
102
RTVSPost2010Prop51ColorIndex
 90
      256
102
RTVSPost2010Prop51ColorRGB
 90
-16777216
102
RTVSPost2010PropOp51
 70
     0
102
RTVSPost2010Prop52
140
1.0
102
RTVSPost2010PropOp52
 70
     0
102
RTVSPost2010Prop53
 90
        2
102
RTVSPost2010PropOp53
 70
     1
102
RTVSPost2010Prop54
  1
strokes_ogs.tif
102
RTVSPost2010PropOp54
 70
     1
102
RTVSPost2010Prop55
280
     0
102
RTVSPost2010PropOp55
 70
     1
102
RTVSPost2010Prop56
140
1.0
102
RTVSPost2010PropOp56
 70
     1
102
RTVSPost2010Prop57
140
1.0
102
RTVSPost2010PropOp57
 70
     1
102
RTVSPropertyOp0
 70
     1
102
RTVSPropertyOp1
 70
     1
102
RTVSPropertyOp2
 70
     1
102
RTVSPropertyOp3
 70
     1
102
RTVSPropertyOp4
 70
     1
102
RTVSPropertyOp5
 70
     1
102
RTVSPropertyOp6
 70
     1
102
RTVSPropertyOp7
 70
     1
102
RTVSPropertyOp8
 70
     1
102
RTVSPropertyOp9
 70
     1
102
RTVSPropertyOp10
 70
     1
102
RTVSPropertyOp11
 70
     1
102
RTVSPropertyOp12
 70
     1
102
RTVSPropertyOp13
 70
     1
102
RTVSPropertyOp14
 70
     1
102
RTVSPropertyOp15
 70
     1
102
RTVSPropertyOp16
 70
     1
102
RTVSPropertyOp17
 70
     1
102
RTVSPropertyOp18
 70
     1
102
RTVSPropertyOp19
 70
     1
102
RTVSPropertyOp20
 70
     1
102
RTVSPropertyOp21
 70
     1
102
RTVSPropertyOp22
 70
     1
102
RTVSPropertyOp23
 70
     1
102
RTVSPropertyOp24
 70
     1
102
RTVSPropertyOp25
 70
     1
102
RTVSPropertyOp26
 70
     1
102
RTVSPropertyOp27
 70
     1
102
RTVSPropertyOp28
 70
     1
102
RTVSPropertyOp29
 70
     1
102
RTVSPropertyOp30
 70
     1
102
RTVSPropertyOp31
 70
     1
102
RTVSPropertyOp32
 70
     1
102
RTVSPropertyOp33
 70
     1
102
RTVSPropertyOp34
 70
     1
102
RTVSPropertyOp35
 70
     1
102
RTVSPropertyOp36
 70
     1
102
RTVSPropertyOp37
 70
     1
102
RTVSPropertyOp38
 70
     1
102
RTVSPropertyOp39
 70
     1
102
RTVSPropertyOp40
 70
     1
102
RTVSPropertyOp41
 70
     1
102
RTVSPropertyOp42
 70
     1
102
RTVSPropertyOp43
 70
     1
102
RTVSPropertyOp44
 70
     1
102
RTVSPropertyOp45
 70
     1
102
RTVSPropertyOp46
 70
     1
102
RTVSPropertyOp47
 70
     1
102
RTVSPropertyOp48
 70
     1
102
RTVSPropertyOp49
 70
     1
102
RTVSPropertyOp50
 70
     1
102
RTVSPropertyOp51
 70
     0
102
RTVSPropertyOp52
 70
     0
102
RTVSPropertyOp53
 70
     1
102
RTVSPropertyOp54
 70
     1
102
RTVSPropertyOp55
 70
     1
102
RTVSPropertyOp56
 70
     1
102
RTVSPropertyOp57
 70
     1
102
RTVSPropertyOp58
 70
     1
102
RTVSPropertyOp59
 70
     1
102
RTVSPropertyOp60
 70
     1
102
RTVSPropertyOp61
 70
     1
102
RTVSPropertyOp62
 70
     1
  0
XRECORD
  5
3F9
102
{ACAD_REACTORS
330
3F8
102
}
330
3F8
100
AcDbXrecord
280
     1
102
RTVSPost2010Prop28
280
     0
102
RTVSPost2010PropOp28
 70
     1
102
RTVSPost2010Prop29
280
     1
102
RTVSPost2010PropOp29
 70
     1
102
RTVSPost2010Prop30
280
     1
102
RTVSPost2010PropOp30
 70
     1
102
RTVSPost2010Prop31
280
     0
102
RTVSPost2010PropOp31
 70
     1
102
RTVSPost2010Prop32
280
     0
102
RTVSPost2010PropOp32
 70
     1
102
RTVSPost2010Prop33
280
     0
102
RTVSPost2010PropOp33
 70
     1
102
RTVSPost2010Prop34
280
     0
102
RTVSPost2010PropOp34
 70
     1
102
RTVSPost2010Prop35
280
     0
102
RTVSPost2010PropOp35
 70
     1
102
RTVSPost2010Prop36
280
     0
102
RTVSPost2010PropOp36
 70
     1
102
RTVSPost2010Prop37
 90
       50
102
RTVSPost2010PropOp37
 70
     1
102
RTVSPost2010Prop38
140
0.0
102
RTVSPost2010PropOp38
 70
     1
102
RTVSPost2010Prop39
140
1.0
102
RTVSPost2010PropOp39
 70
     1
102
RTVSPost2010Prop40
 90
        0
102
RTVSPost2010PropOp40
 70
     1
102
RTVSPost2010Prop41ColorIndex
 90
       18
102
RTVSPost2010Prop41ColorRGB
 90
        0
102
RTVSPost2010PropOp41
 70
     1
102
RTVSPost2010Prop42
 90
       50
102
RTVSPost2010PropOp42
 70
     1
102
RTVSPost2010Prop43
 90
        3
102
RTVSPost2010PropOp43
 70
     1
102
RTVSPost2010Prop44ColorIndex
 90
        5
102
RTVSPost2010Prop44ColorRGB
 90
      255
102
RTVSPost2010PropOp44
 70
     1
102
RTVSPost2010Prop45
280
     0
102
RTVSPost2010PropOp45
 70
     1
102
RTVSPost2010Prop46
 90
       50
102
RTVSPost2010PropOp46
 70
     1
102
RTVSPost2010Prop47
 90
       50
102
RTVSPost2010PropOp47
 70
     1
102
RTVSPost2010Prop48
 90
       50
102
RTVSPost2010PropOp48
 70
     1
102
RTVSPost2010Prop49
280
     0
102
RTVSPost2010PropOp49
 70
     1
102
RTVSPost2010Prop50
 90
       50
102
RTVSPost2010PropOp50
 70
     1
102
RTVSPost2010Prop51ColorIndex
 90
      256
102
RTVSPost2010Prop51ColorRGB
 90
-16777216
102
RTVSPost2010PropOp51
 70
     0
102
RTVSPost2010Prop52
140
1.0
102
RTVSPost2010PropOp52
 70
     0
102
RTVSPost2010Prop53
 90
        2
102
RTVSPost2010PropOp53
 70
     1
102
RTVSPost2010Prop54
  1
strokes_ogs.tif
102
RTVSPost2010PropOp54
 70
     1
102
RTVSPost2010Prop55
280
     0
102
RTVSPost2010PropOp55
 70
     1
102
RTVSPost2010Prop56
140
1.0
102
RTVSPost2010PropOp56
 70
     1
102
RTVSPost2010Prop57
140
1.0
102
RTVSPost2010PropOp57
 70
     1
102
RTVSPropertyOp0
 70
     1
102
RTVSPropertyOp1
 70
     1
102
RTVSPropertyOp2
 70
     1
102
RTVSPropertyOp3
 70
     1
102
RTVSPropertyOp4
 70
     1
102
RTVSPropertyOp5
 70
     1
102
RTVSPropertyOp6
 70
     1
102
RTVSPropertyOp7
 70
     1
102
RTVSPropertyOp8
 70
     1
102
RTVSPropertyOp9
 70
     1
102
RTVSPropertyOp10
 70
     1
102
RTVSPropertyOp11
 70
     1
102
RTVSPropertyOp12
 70
     1
102
RTVSPropertyOp13
 70
     1
102
RTVSPropertyOp14
 70
     1
102
RTVSPropertyOp15
 70
     1
102
RTVSPropertyOp16
 70
     1
102
RTVSPropertyOp17
 70
     1
102
RTVSPropertyOp18
 70
     1
102
RTVSPropertyOp19
 70
     1
102
RTVSPropertyOp20
 70
     1
102
RTVSPropertyOp21
 70
     1
102
RTVSPropertyOp22
 70
     1
102
RTVSPropertyOp23
 70
     1
102
RTVSPropertyOp24
 70
     1
102
RTVSPropertyOp25
 70
     1
102
RTVSPropertyOp26
 70
     1
102
RTVSPropertyOp27
 70
     1
102
RTVSPropertyOp28
 70
     1
102
RTVSPropertyOp29
 70
     1
102
RTVSPropertyOp30
 70
     1
102
RTVSPropertyOp31
 70
     1
102
RTVSPropertyOp32
 70
     1
102
RTVSPropertyOp33
 70
     1
102
RTVSPropertyOp34
 70
     1
102
RTVSPropertyOp35
 70
     1
102
RTVSPropertyOp36
 70
     1
102
RTVSPropertyOp37
 70
     1
102
RTVSPropertyOp38
 70
     1
102
RTVSPropertyOp39
 70
     1
102
RTVSPropertyOp40
 70
     1
102
RTVSPropertyOp41
 70
     1
102
RTVSPropertyOp42
 70
     1
102
RTVSPropertyOp43
 70
     1
102
RTVSPropertyOp44
 70
     1
102
RTVSPropertyOp45
 70
     1
102
RTVSPropertyOp46
 70
     1
102
RTVSPropertyOp47
 70
     1
102
RTVSPropertyOp48
 70
     1
102
RTVSPropertyOp49
 70
     1
102
RTVSPropertyOp50
 70
     1
102
RTVSPropertyOp51
 70
     0
102
RTVSPropertyOp52
 70
     0
102
RTVSPropertyOp53
 70
     1
102
RTVSPropertyOp54
 70
     1
102
RTVSPropertyOp55
 70
     1
102
RTVSPropertyOp56
 70
     1
102
RTVSPropertyOp57
 70
     1
102
RTVSPropertyOp58
 70
     1
102
RTVSPropertyOp59
 70
     1
102
RTVSPropertyOp60
 70
     1
102
RTVSPropertyOp61
 70
     1
102
RTVSPropertyOp62
 70
     1
  0
XRECORD
  5
3ED
102
{ACAD_REACTORS
330
3EC
102
}
330
3EC
100
AcDbXrecord
280
     1
102
RTVSPost2010Prop28
280
     0
102
RTVSPost2010PropOp28
 70
     1
102
RTVSPost2010Prop29
280
     1
102
RTVSPost2010PropOp29
 70
     1
102
RTVSPost2010Prop30
280
     1
102
RTVSPost2010PropOp30
 70
     1
102
RTVSPost2010Prop31
280
     0
102
RTVSPost2010PropOp31
 70
     1
102
RTVSPost2010Prop32
280
     0
102
RTVSPost2010PropOp32
 70
     1
102
RTVSPost2010Prop33
280
     0
102
RTVSPost2010PropOp33
 70
     1
102
RTVSPost2010Prop34
280
     0
102
RTVSPost2010PropOp34
 70
     1
102
RTVSPost2010Prop35
280
     0
102
RTVSPost2010PropOp35
 70
     1
102
RTVSPost2010Prop36
280
     0
102
RTVSPost2010PropOp36
 70
     1
102
RTVSPost2010Prop37
 90
       50
102
RTVSPost2010PropOp37
 70
     1
102
RTVSPost2010Prop38
140
0.0
102
RTVSPost2010PropOp38
 70
     1
102
RTVSPost2010Prop39
140
1.0
102
RTVSPost2010PropOp39
 70
     1
102
RTVSPost2010Prop40
 90
        0
102
RTVSPost2010PropOp40
 70
     1
102
RTVSPost2010Prop41ColorIndex
 90
       18
102
RTVSPost2010Prop41ColorRGB
 90
        0
102
RTVSPost2010PropOp41
 70
     1
102
RTVSPost2010Prop42
 90
       50
102
RTVSPost2010PropOp42
 70
     1
102
RTVSPost2010Prop43
 90
        3
102
RTVSPost2010PropOp43
 70
     1
102
RTVSPost2010Prop44ColorIndex
 90
        5
102
RTVSPost2010Prop44ColorRGB
 90
      255
102
RTVSPost2010PropOp44
 70
     1
102
RTVSPost2010Prop45
280
     0
102
RTVSPost2010PropOp45
 70
     1
102
RTVSPost2010Prop46
 90
       50
102
RTVSPost2010PropOp46
 70
     1
102
RTVSPost2010Prop47
 90
       50
102
RTVSPost2010PropOp47
 70
     1
102
RTVSPost2010Prop48
 90
       50
102
RTVSPost2010PropOp48
 70
     1
102
RTVSPost2010Prop49
280
     0
102
RTVSPost2010PropOp49
 70
     1
102
RTVSPost2010Prop50
 90
       50
102
RTVSPost2010PropOp50
 70
     1
102
RTVSPost2010Prop51ColorIndex
 90
      256
102
RTVSPost2010Prop51ColorRGB
 90
-16777216
102
RTVSPost2010PropOp51
 70
     0
102
RTVSPost2010Prop52
140
1.0
102
RTVSPost2010PropOp52
 70
     0
102
RTVSPost2010Prop53
 90
        2
102
RTVSPost2010PropOp53
 70
     1
102
RTVSPost2010Prop54
  1
strokes_ogs.tif
102
RTVSPost2010PropOp54
 70
     1
102
RTVSPost2010Prop55
280
     0
102
RTVSPost2010PropOp55
 70
     1
102
RTVSPost2010Prop56
140
1.0
102
RTVSPost2010PropOp56
 70
     1
102
RTVSPost2010Prop57
140
1.0
102
RTVSPost2010PropOp57
 70
     1
102
RTVSPropertyOp0
 70
     1
102
RTVSPropertyOp1
 70
     1
102
RTVSPropertyOp2
 70
     1
102
RTVSPropertyOp3
 70
     1
102
RTVSPropertyOp4
 70
     1
102
RTVSPropertyOp5
 70
     1
102
RTVSPropertyOp6
 70
     1
102
RTVSPropertyOp7
 70
     1
102
RTVSPropertyOp8
 70
     1
102
RTVSPropertyOp9
 70
     1
102
RTVSPropertyOp10
 70
     1
102
RTVSPropertyOp11
 70
     1
102
RTVSPropertyOp12
 70
     1
102
RTVSPropertyOp13
 70
     1
102
RTVSPropertyOp14
 70
     1
102
RTVSPropertyOp15
 70
     1
102
RTVSPropertyOp16
 70
     1
102
RTVSPropertyOp17
 70
     1
102
RTVSPropertyOp18
 70
     1
102
RTVSPropertyOp19
 70
     1
102
RTVSPropertyOp20
 70
     1
102
RTVSPropertyOp21
 70
     1
102
RTVSPropertyOp22
 70
     1
102
RTVSPropertyOp23
 70
     1
102
RTVSPropertyOp24
 70
     1
102
RTVSPropertyOp25
 70
     1
102
RTVSPropertyOp26
 70
     1
102
RTVSPropertyOp27
 70
     1
102
RTVSPropertyOp28
 70
     1
102
RTVSPropertyOp29
 70
     1
102
RTVSPropertyOp30
 70
     1
102
RTVSPropertyOp31
 70
     1
102
RTVSPropertyOp32
 70
     1
102
RTVSPropertyOp33
 70
     1
102
RTVSPropertyOp34
 70
     1
102
RTVSPropertyOp35
 70
     1
102
RTVSPropertyOp36
 70
     1
102
RTVSPropertyOp37
 70
     1
102
RTVSPropertyOp38
 70
     1
102
RTVSPropertyOp39
 70
     1
102
RTVSPropertyOp40
 70
     1
102
RTVSPropertyOp41
 70
     1
102
RTVSPropertyOp42
 70
     1
102
RTVSPropertyOp43
 70
     1
102
RTVSPropertyOp44
 70
     1
102
RTVSPropertyOp45
 70
     1
102
RTVSPropertyOp46
 70
     1
102
RTVSPropertyOp47
 70
     1
102
RTVSPropertyOp48
 70
     1
102
RTVSPropertyOp49
 70
     1
102
RTVSPropertyOp50
 70
     1
102
RTVSPropertyOp51
 70
     0
102
RTVSPropertyOp52
 70
     0
102
RTVSPropertyOp53
 70
     1
102
RTVSPropertyOp54
 70
     1
102
RTVSPropertyOp55
 70
     1
102
RTVSPropertyOp56
 70
     1
102
RTVSPropertyOp57
 70
     1
102
RTVSPropertyOp58
 70
     1
102
RTVSPropertyOp59
 70
     1
102
RTVSPropertyOp60
 70
     1
102
RTVSPropertyOp61
 70
     1
102
RTVSPropertyOp62
 70
     1
  0
XRECORD
  5
3EF
102
{ACAD_REACTORS
330
3EE
102
}
330
3EE
100
AcDbXrecord
280
     1
102
RTVSPost2010Prop28
280
     0
102
RTVSPost2010PropOp28
 70
     1
102
RTVSPost2010Prop29
280
     1
102
RTVSPost2010PropOp29
 70
     1
102
RTVSPost2010Prop30
280
     1
102
RTVSPost2010PropOp30
 70
     1
102
RTVSPost2010Prop31
280
     0
102
RTVSPost2010PropOp31
 70
     1
102
RTVSPost2010Prop32
280
     0
102
RTVSPost2010PropOp32
 70
     1
102
RTVSPost2010Prop33
280
     0
102
RTVSPost2010PropOp33
 70
     1
102
RTVSPost2010Prop34
280
     0
102
RTVSPost2010PropOp34
 70
     1
102
RTVSPost2010Prop35
280
     0
102
RTVSPost2010PropOp35
 70
     1
102
RTVSPost2010Prop36
280
     0
102
RTVSPost2010PropOp36
 70
     1
102
RTVSPost2010Prop37
 90
       50
102
RTVSPost2010PropOp37
 70
     1
102
RTVSPost2010Prop38
140
0.0
102
RTVSPost2010PropOp38
 70
     1
102
RTVSPost2010Prop39
140
1.0
102
RTVSPost2010PropOp39
 70
     1
102
RTVSPost2010Prop40
 90
        0
102
RTVSPost2010PropOp40
 70
     1
102
RTVSPost2010Prop41ColorIndex
 90
       18
102
RTVSPost2010Prop41ColorRGB
 90
        0
102
RTVSPost2010PropOp41
 70
     1
102
RTVSPost2010Prop42
 90
       50
102
RTVSPost2010PropOp42
 70
     1
102
RTVSPost2010Prop43
 90
        3
102
RTVSPost2010PropOp43
 70
     1
102
RTVSPost2010Prop44ColorIndex
 90
        5
102
RTVSPost2010Prop44ColorRGB
 90
      255
102
RTVSPost2010PropOp44
 70
     1
102
RTVSPost2010Prop45
280
     0
102
RTVSPost2010PropOp45
 70
     1
102
RTVSPost2010Prop46
 90
       50
102
RTVSPost2010PropOp46
 70
     1
102
RTVSPost2010Prop47
 90
       50
102
RTVSPost2010PropOp47
 70
     1
102
RTVSPost2010Prop48
 90
       50
102
RTVSPost2010PropOp48
 70
     1
102
RTVSPost2010Prop49
280
     0
102
RTVSPost2010PropOp49
 70
     1
102
RTVSPost2010Prop50
 90
       50
102
RTVSPost2010PropOp50
 70
     1
102
RTVSPost2010Prop51ColorIndex
 90
      256
102
RTVSPost2010Prop51ColorRGB
 90
-16777216
102
RTVSPost2010PropOp51
 70
     0
102
RTVSPost2010Prop52
140
1.0
102
RTVSPost2010PropOp52
 70
     0
102
RTVSPost2010Prop53
 90
        2
102
RTVSPost2010PropOp53
 70
     1
102
RTVSPost2010Prop54
  1
strokes_ogs.tif
102
RTVSPost2010PropOp54
 70
     1
102
RTVSPost2010Prop55
280
     0
102
RTVSPost2010PropOp55
 70
     1
102
RTVSPost2010Prop56
140
1.0
102
RTVSPost2010PropOp56
 70
     1
102
RTVSPost2010Prop57
140
1.0
102
RTVSPost2010PropOp57
 70
     1
102
RTVSPropertyOp0
 70
     1
102
RTVSPropertyOp1
 70
     1
102
RTVSPropertyOp2
 70
     1
102
RTVSPropertyOp3
 70
     1
102
RTVSPropertyOp4
 70
     1
102
RTVSPropertyOp5
 70
     1
102
RTVSPropertyOp6
 70
     1
102
RTVSPropertyOp7
 70
     1
102
RTVSPropertyOp8
 70
     1
102
RTVSPropertyOp9
 70
     1
102
RTVSPropertyOp10
 70
     1
102
RTVSPropertyOp11
 70
     1
102
RTVSPropertyOp12
 70
     1
102
RTVSPropertyOp13
 70
     1
102
RTVSPropertyOp14
 70
     1
102
RTVSPropertyOp15
 70
     1
102
RTVSPropertyOp16
 70
     1
102
RTVSPropertyOp17
 70
     1
102
RTVSPropertyOp18
 70
     1
102
RTVSPropertyOp19
 70
     1
102
RTVSPropertyOp20
 70
     1
102
RTVSPropertyOp21
 70
     1
102
RTVSPropertyOp22
 70
     1
102
RTVSPropertyOp23
 70
     1
102
RTVSPropertyOp24
 70
     1
102
RTVSPropertyOp25
 70
     1
102
RTVSPropertyOp26
 70
     1
102
RTVSPropertyOp27
 70
     1
102
RTVSPropertyOp28
 70
     1
102
RTVSPropertyOp29
 70
     1
102
RTVSPropertyOp30
 70
     1
102
RTVSPropertyOp31
 70
     1
102
RTVSPropertyOp32
 70
     1
102
RTVSPropertyOp33
 70
     1
102
RTVSPropertyOp34
 70
     1
102
RTVSPropertyOp35
 70
     1
102
RTVSPropertyOp36
 70
     1
102
RTVSPropertyOp37
 70
     1
102
RTVSPropertyOp38
 70
     1
102
RTVSPropertyOp39
 70
     1
102
RTVSPropertyOp40
 70
     1
102
RTVSPropertyOp41
 70
     1
102
RTVSPropertyOp42
 70
     1
102
RTVSPropertyOp43
 70
     1
102
RTVSPropertyOp44
 70
     1
102
RTVSPropertyOp45
 70
     1
102
RTVSPropertyOp46
 70
     1
102
RTVSPropertyOp47
 70
     1
102
RTVSPropertyOp48
 70
     1
102
RTVSPropertyOp49
 70
     1
102
RTVSPropertyOp50
 70
     1
102
RTVSPropertyOp51
 70
     0
102
RTVSPropertyOp52
 70
     0
102
RTVSPropertyOp53
 70
     1
102
RTVSPropertyOp54
 70
     1
102
RTVSPropertyOp55
 70
     1
102
RTVSPropertyOp56
 70
     1
102
RTVSPropertyOp57
 70
     1
102
RTVSPropertyOp58
 70
     1
102
RTVSPropertyOp59
 70
     1
102
RTVSPropertyOp60
 70
     1
102
RTVSPropertyOp61
 70
     1
102
RTVSPropertyOp62
 70
     1
  0
XRECORD
  5
3FF
102
{ACAD_REACTORS
330
3FE
102
}
330
3FE
100
AcDbXrecord
280
     1
102
RTVSPost2010Prop28
280
     0
102
RTVSPost2010PropOp28
 70
     0
102
RTVSPost2010Prop29
280
     1
102
RTVSPost2010PropOp29
 70
     0
102
RTVSPost2010Prop30
280
     1
102
RTVSPost2010PropOp30
 70
     0
102
RTVSPost2010Prop31
280
     0
102
RTVSPost2010PropOp31
 70
     0
102
RTVSPost2010Prop32
280
     0
102
RTVSPost2010PropOp32
 70
     0
102
RTVSPost2010Prop33
280
     0
102
RTVSPost2010PropOp33
 70
     0
102
RTVSPost2010Prop34
280
     0
102
RTVSPost2010PropOp34
 70
     0
102
RTVSPost2010Prop35
280
     0
102
RTVSPost2010PropOp35
 70
     0
102
RTVSPost2010Prop36
280
     0
102
RTVSPost2010PropOp36
 70
     0
102
RTVSPost2010Prop37
 90
       50
102
RTVSPost2010PropOp37
 70
     0
102
RTVSPost2010Prop38
140
0.0
102
RTVSPost2010PropOp38
 70
     0
102
RTVSPost2010Prop39
140
1.0
102
RTVSPost2010PropOp39
 70
     0
102
RTVSPost2010Prop40
 90
        0
102
RTVSPost2010PropOp40
 70
     0
102
RTVSPost2010Prop41ColorIndex
 90
       18
102
RTVSPost2010Prop41ColorRGB
 90
        0
102
RTVSPost2010PropOp41
 70
     0
102
RTVSPost2010Prop42
 90
       50
102
RTVSPost2010PropOp42
 70
     0
102
RTVSPost2010Prop43
 90
        3
102
RTVSPost2010PropOp43
 70
     0
102
RTVSPost2010Prop44ColorIndex
 90
        5
102
RTVSPost2010Prop44ColorRGB
 90
      255
102
RTVSPost2010PropOp44
 70
     0
102
RTVSPost2010Prop45
280
     0
102
RTVSPost2010PropOp45
 70
     0
102
RTVSPost2010Prop46
 90
       50
102
RTVSPost2010PropOp46
 70
     0
102
RTVSPost2010Prop47
 90
       50
102
RTVSPost2010PropOp47
 70
     0
102
RTVSPost2010Prop48
 90
       50
102
RTVSPost2010PropOp48
 70
     0
102
RTVSPost2010Prop49
280
     0
102
RTVSPost2010PropOp49
 70
     0
102
RTVSPost2010Prop50
 90
       50
102
RTVSPost2010PropOp50
 70
     0
102
RTVSPost2010Prop51ColorIndex
 90
      256
102
RTVSPost2010Prop51ColorRGB
 90
-16777216
102
RTVSPost2010PropOp51
 70
     0
102
RTVSPost2010Prop52
140
1.0
102
RTVSPost2010PropOp52
 70
     0
102
RTVSPost2010Prop53
 90
        2
102
RTVSPost2010PropOp53
 70
     0
102
RTVSPost2010Prop54
  1
strokes_ogs.tif
102
RTVSPost2010PropOp54
 70
     0
102
RTVSPost2010Prop55
280
     0
102
RTVSPost2010PropOp55
 70
     0
102
RTVSPost2010Prop56
140
1.0
102
RTVSPost2010PropOp56
 70
     0
102
RTVSPost2010Prop57
140
1.0
102
RTVSPost2010PropOp57
 70
     0
102
RTVSPropertyOp0
 70
     0
102
RTVSPropertyOp1
 70
     0
102
RTVSPropertyOp2
 70
     0
102
RTVSPropertyOp3
 70
     0
102
RTVSPropertyOp4
 70
     0
102
RTVSPropertyOp5
 70
     0
102
RTVSPropertyOp6
 70
     0
102
RTVSPropertyOp7
 70
     0
102
RTVSPropertyOp8
 70
     0
102
RTVSPropertyOp9
 70
     0
102
RTVSPropertyOp10
 70
     0
102
RTVSPropertyOp11
 70
     0
102
RTVSPropertyOp12
 70
     0
102
RTVSPropertyOp13
 70
     0
102
RTVSPropertyOp14
 70
     2
102
RTVSPropertyOp15
 70
     0
102
RTVSPropertyOp16
 70
     0
102
RTVSPropertyOp17
 70
     0
102
RTVSPropertyOp18
 70
     0
102
RTVSPropertyOp19
 70
     0
102
RTVSPropertyOp20
 70
     0
102
RTVSPropertyOp21
 70
     0
102
RTVSPropertyOp22
 70
     0
102
RTVSPropertyOp23
 70
     0
102
RTVSPropertyOp24
 70
     0
102
RTVSPropertyOp25
 70
     0
102
RTVSPropertyOp26
 70
     0
102
RTVSPropertyOp27
 70
     0
102
RTVSPropertyOp28
 70
     0
102
RTVSPropertyOp29
 70
     0
102
RTVSPropertyOp30
 70
     0
102
RTVSPropertyOp31
 70
     0
102
RTVSPropertyOp32
 70
     0
102
RTVSPropertyOp33
 70
     0
102
RTVSPropertyOp34
 70
     0
102
RTVSPropertyOp35
 70
     0
102
RTVSPropertyOp36
 70
     0
102
RTVSPropertyOp37
 70
     0
102
RTVSPropertyOp38
 70
     0
102
RTVSPropertyOp39
 70
     0
102
RTVSPropertyOp40
 70
     0
102
RTVSPropertyOp41
 70
     0
102
RTVSPropertyOp42
 70
     0
102
RTVSPropertyOp43
 70
     0
102
RTVSPropertyOp44
 70
     0
102
RTVSPropertyOp45
 70
     0
102
RTVSPropertyOp46
 70
     0
102
RTVSPropertyOp47
 70
     0
102
RTVSPropertyOp48
 70
     0
102
RTVSPropertyOp49
 70
     0
102
RTVSPropertyOp50
 70
     0
102
RTVSPropertyOp51
 70
     0
102
RTVSPropertyOp52
 70
     0
102
RTVSPropertyOp53
 70
     0
102
RTVSPropertyOp54
 70
     0
102
RTVSPropertyOp55
 70
     0
102
RTVSPropertyOp56
 70
     0
102
RTVSPropertyOp57
 70
     0
102
RTVSPropertyOp58
 70
     1
102
RTVSPropertyOp59
 70
     1
102
RTVSPropertyOp60
 70
     1
102
RTVSPropertyOp61
 70
     1
102
RTVSPropertyOp62
 70
     1
  0
XRECORD
  5
3F7
102
{ACAD_REACTORS
330
3F6
102
}
330
3F6
100
AcDbXrecord
280
     1
102
RTVSPost2010Prop28
280
     0
102
RTVSPost2010PropOp28
 70
     1
102
RTVSPost2010Prop29
280
     1
102
RTVSPost2010PropOp29
 70
     1
102
RTVSPost2010Prop30
280
     1
102
RTVSPost2010PropOp30
 70
     1
102
RTVSPost2010Prop31
280
     0
102
RTVSPost2010PropOp31
 70
     1
102
RTVSPost2010Prop32
280
     0
102
RTVSPost2010PropOp32
 70
     1
102
RTVSPost2010Prop33
280
     0
102
RTVSPost2010PropOp33
 70
     1
102
RTVSPost2010Prop34
280
     0
102
RTVSPost2010PropOp34
 70
     1
102
RTVSPost2010Prop35
280
     0
102
RTVSPost2010PropOp35
 70
     1
102
RTVSPost2010Prop36
280
     0
102
RTVSPost2010PropOp36
 70
     1
102
RTVSPost2010Prop37
 90
       50
102
RTVSPost2010PropOp37
 70
     1
102
RTVSPost2010Prop38
140
0.0
102
RTVSPost2010PropOp38
 70
     1
102
RTVSPost2010Prop39
140
1.0
102
RTVSPost2010PropOp39
 70
     1
102
RTVSPost2010Prop40
 90
        0
102
RTVSPost2010PropOp40
 70
     1
102
RTVSPost2010Prop41ColorIndex
 90
       18
102
RTVSPost2010Prop41ColorRGB
 90
        0
102
RTVSPost2010PropOp41
 70
     1
102
RTVSPost2010Prop42
 90
       50
102
RTVSPost2010PropOp42
 70
     1
102
RTVSPost2010Prop43
 90
        3
102
RTVSPost2010PropOp43
 70
     1
102
RTVSPost2010Prop44ColorIndex
 90
        5
102
RTVSPost2010Prop44ColorRGB
 90
      255
102
RTVSPost2010PropOp44
 70
     1
102
RTVSPost2010Prop45
280
     0
102
RTVSPost2010PropOp45
 70
     1
102
RTVSPost2010Prop46
 90
       50
102
RTVSPost2010PropOp46
 70
     1
102
RTVSPost2010Prop47
 90
       50
102
RTVSPost2010PropOp47
 70
     1
102
RTVSPost2010Prop48
 90
       50
102
RTVSPost2010PropOp48
 70
     1
102
RTVSPost2010Prop49
280
     0
102
RTVSPost2010PropOp49
 70
     1
102
RTVSPost2010Prop50
 90
       50
102
RTVSPost2010PropOp50
 70
     1
102
RTVSPost2010Prop51ColorIndex
 90
      256
102
RTVSPost2010Prop51ColorRGB
 90
-16777216
102
RTVSPost2010PropOp51
 70
     0
102
RTVSPost2010Prop52
140
1.0
102
RTVSPost2010PropOp52
 70
     0
102
RTVSPost2010Prop53
 90
        2
102
RTVSPost2010PropOp53
 70
     1
102
RTVSPost2010Prop54
  1
strokes_ogs.tif
102
RTVSPost2010PropOp54
 70
     1
102
RTVSPost2010Prop55
280
     0
102
RTVSPost2010PropOp55
 70
     1
102
RTVSPost2010Prop56
140
1.0
102
RTVSPost2010PropOp56
 70
     1
102
RTVSPost2010Prop57
140
1.0
102
RTVSPost2010PropOp57
 70
     1
102
RTVSPropertyOp0
 70
     1
102
RTVSPropertyOp1
 70
     1
102
RTVSPropertyOp2
 70
     1
102
RTVSPropertyOp3
 70
     1
102
RTVSPropertyOp4
 70
     1
102
RTVSPropertyOp5
 70
     1
102
RTVSPropertyOp6
 70
     1
102
RTVSPropertyOp7
 70
     1
102
RTVSPropertyOp8
 70
     1
102
RTVSPropertyOp9
 70
     1
102
RTVSPropertyOp10
 70
     1
102
RTVSPropertyOp11
 70
     1
102
RTVSPropertyOp12
 70
     1
102
RTVSPropertyOp13
 70
     1
102
RTVSPropertyOp14
 70
     1
102
RTVSPropertyOp15
 70
     1
102
RTVSPropertyOp16
 70
     1
102
RTVSPropertyOp17
 70
     1
102
RTVSPropertyOp18
 70
     1
102
RTVSPropertyOp19
 70
     1
102
RTVSPropertyOp20
 70
     1
102
RTVSPropertyOp21
 70
     1
102
RTVSPropertyOp22
 70
     1
102
RTVSPropertyOp23
 70
     1
102
RTVSPropertyOp24
 70
     1
102
RTVSPropertyOp25
 70
     1
102
RTVSPropertyOp26
 70
     1
102
RTVSPropertyOp27
 70
     1
102
RTVSPropertyOp28
 70
     1
102
RTVSPropertyOp29
 70
     1
102
RTVSPropertyOp30
 70
     1
102
RTVSPropertyOp31
 70
     1
102
RTVSPropertyOp32
 70
     1
102
RTVSPropertyOp33
 70
     1
102
RTVSPropertyOp34
 70
     1
102
RTVSPropertyOp35
 70
     1
102
RTVSPropertyOp36
 70
     1
102
RTVSPropertyOp37
 70
     1
102
RTVSPropertyOp38
 70
     1
102
RTVSPropertyOp39
 70
     1
102
RTVSPropertyOp40
 70
     1
102
RTVSPropertyOp41
 70
     1
102
RTVSPropertyOp42
 70
     1
102
RTVSPropertyOp43
 70
     1
102
RTVSPropertyOp44
 70
     1
102
RTVSPropertyOp45
 70
     1
102
RTVSPropertyOp46
 70
     1
102
RTVSPropertyOp47
 70
     1
102
RTVSPropertyOp48
 70
     1
102
RTVSPropertyOp49
 70
     1
102
RTVSPropertyOp50
 70
     1
102
RTVSPropertyOp51
 70
     0
102
RTVSPropertyOp52
 70
     0
102
RTVSPropertyOp53
 70
     1
102
RTVSPropertyOp54
 70
     1
102
RTVSPropertyOp55
 70
     1
102
RTVSPropertyOp56
 70
     1
102
RTVSPropertyOp57
 70
     1
102
RTVSPropertyOp58
 70
     1
102
RTVSPropertyOp59
 70
     1
102
RTVSPropertyOp60
 70
     1
102
RTVSPropertyOp61
 70
     1
102
RTVSPropertyOp62
 70
     1
  0
XRECORD
  5
3DB
102
{ACAD_REACTORS
330
3DA
102
}
330
3DA
100
AcDbXrecord
280
     1
102
RTVSPost2010Prop28
280
     0
102
RTVSPost2010PropOp28
 70
     1
102
RTVSPost2010Prop29
280
     1
102
RTVSPost2010PropOp29
 70
     1
102
RTVSPost2010Prop30
280
     1
102
RTVSPost2010PropOp30
 70
     1
102
RTVSPost2010Prop31
280
     0
102
RTVSPost2010PropOp31
 70
     1
102
RTVSPost2010Prop32
280
     0
102
RTVSPost2010PropOp32
 70
     1
102
RTVSPost2010Prop33
280
     0
102
RTVSPost2010PropOp33
 70
     1
102
RTVSPost2010Prop34
280
     0
102
RTVSPost2010PropOp34
 70
     1
102
RTVSPost2010Prop35
280
     0
102
RTVSPost2010PropOp35
 70
     1
102
RTVSPost2010Prop36
280
     0
102
RTVSPost2010PropOp36
 70
     1
102
RTVSPost2010Prop37
 90
       50
102
RTVSPost2010PropOp37
 70
     1
102
RTVSPost2010Prop38
140
0.0
102
RTVSPost2010PropOp38
 70
     1
102
RTVSPost2010Prop39
140
1.0
102
RTVSPost2010PropOp39
 70
     1
102
RTVSPost2010Prop40
 90
        0
102
RTVSPost2010PropOp40
 70
     1
102
RTVSPost2010Prop41ColorIndex
 90
       18
102
RTVSPost2010Prop41ColorRGB
 90
        0
102
RTVSPost2010PropOp41
 70
     1
102
RTVSPost2010Prop42
 90
       50
102
RTVSPost2010PropOp42
 70
     1
102
RTVSPost2010Prop43
 90
        3
102
RTVSPost2010PropOp43
 70
     1
102
RTVSPost2010Prop44ColorIndex
 90
        5
102
RTVSPost2010Prop44ColorRGB
 90
      255
102
RTVSPost2010PropOp44
 70
     1
102
RTVSPost2010Prop45
280
     0
102
RTVSPost2010PropOp45
 70
     1
102
RTVSPost2010Prop46
 90
       50
102
RTVSPost2010PropOp46
 70
     1
102
RTVSPost2010Prop47
 90
       50
102
RTVSPost2010PropOp47
 70
     1
102
RTVSPost2010Prop48
 90
       50
102
RTVSPost2010PropOp48
 70
     1
102
RTVSPost2010Prop49
280
     0
102
RTVSPost2010PropOp49
 70
     1
102
RTVSPost2010Prop50
 90
       50
102
RTVSPost2010PropOp50
 70
     1
102
RTVSPost2010Prop51ColorIndex
 90
      256
102
RTVSPost2010Prop51ColorRGB
 90
-16777216
102
RTVSPost2010PropOp51
 70
     0
102
RTVSPost2010Prop52
140
1.0
102
RTVSPost2010PropOp52
 70
     0
102
RTVSPost2010Prop53
 90
        2
102
RTVSPost2010PropOp53
 70
     1
102
RTVSPost2010Prop54
  1
strokes_ogs.tif
102
RTVSPost2010PropOp54
 70
     1
102
RTVSPost2010Prop55
280
     0
102
RTVSPost2010PropOp55
 70
     1
102
RTVSPost2010Prop56
140
1.0
102
RTVSPost2010PropOp56
 70
     1
102
RTVSPost2010Prop57
140
1.0
102
RTVSPost2010PropOp57
 70
     1
102
RTVSPropertyOp0
 70
     1
102
RTVSPropertyOp1
 70
     1
102
RTVSPropertyOp2
 70
     1
102
RTVSPropertyOp3
 70
     1
102
RTVSPropertyOp4
 70
     1
102
RTVSPropertyOp5
 70
     1
102
RTVSPropertyOp6
 70
     1
102
RTVSPropertyOp7
 70
     1
102
RTVSPropertyOp8
 70
     1
102
RTVSPropertyOp9
 70
     1
102
RTVSPropertyOp10
 70
     1
102
RTVSPropertyOp11
 70
     1
102
RTVSPropertyOp12
 70
     1
102
RTVSPropertyOp13
 70
     1
102
RTVSPropertyOp14
 70
     1
102
RTVSPropertyOp15
 70
     1
102
RTVSPropertyOp16
 70
     1
102
RTVSPropertyOp17
 70
     1
102
RTVSPropertyOp18
 70
     1
102
RTVSPropertyOp19
 70
     1
102
RTVSPropertyOp20
 70
     1
102
RTVSPropertyOp21
 70
     1
102
RTVSPropertyOp22
 70
     1
102
RTVSPropertyOp23
 70
     1
102
RTVSPropertyOp24
 70
     1
102
RTVSPropertyOp25
 70
     1
102
RTVSPropertyOp26
 70
     1
102
RTVSPropertyOp27
 70
     1
102
RTVSPropertyOp28
 70
     1
102
RTVSPropertyOp29
 70
     1
102
RTVSPropertyOp30
 70
     1
102
RTVSPropertyOp31
 70
     1
102
RTVSPropertyOp32
 70
     1
102
RTVSPropertyOp33
 70
     1
102
RTVSPropertyOp34
 70
     1
102
RTVSPropertyOp35
 70
     1
102
RTVSPropertyOp36
 70
     1
102
RTVSPropertyOp37
 70
     1
102
RTVSPropertyOp38
 70
     1
102
RTVSPropertyOp39
 70
     1
102
RTVSPropertyOp40
 70
     1
102
RTVSPropertyOp41
 70
     1
102
RTVSPropertyOp42
 70
     1
102
RTVSPropertyOp43
 70
     1
102
RTVSPropertyOp44
 70
     1
102
RTVSPropertyOp45
 70
     1
102
RTVSPropertyOp46
 70
     1
102
RTVSPropertyOp47
 70
     1
102
RTVSPropertyOp48
 70
     1
102
RTVSPropertyOp49
 70
     1
102
RTVSPropertyOp50
 70
     1
102
RTVSPropertyOp51
 70
     0
102
RTVSPropertyOp52
 70
     0
102
RTVSPropertyOp53
 70
     1
102
RTVSPropertyOp54
 70
     1
102
RTVSPropertyOp55
 70
     1
102
RTVSPropertyOp56
 70
     1
102
RTVSPropertyOp57
 70
     1
102
RTVSPropertyOp58
 70
     1
102
RTVSPropertyOp59
 70
     1
102
RTVSPropertyOp60
 70
     1
102
RTVSPropertyOp61
 70
     1
102
RTVSPropertyOp62
 70
     1
  0
XRECORD
  5
3DD
102
{ACAD_REACTORS
330
3DC
102
}
330
3DC
100
AcDbXrecord
280
     1
102
RTVSPost2010Prop28
280
     0
102
RTVSPost2010PropOp28
 70
     1
102
RTVSPost2010Prop29
280
     1
102
RTVSPost2010PropOp29
 70
     1
102
RTVSPost2010Prop30
280
     1
102
RTVSPost2010PropOp30
 70
     1
102
RTVSPost2010Prop31
280
     0
102
RTVSPost2010PropOp31
 70
     1
102
RTVSPost2010Prop32
280
     0
102
RTVSPost2010PropOp32
 70
     1
102
RTVSPost2010Prop33
280
     0
102
RTVSPost2010PropOp33
 70
     1
102
RTVSPost2010Prop34
280
     0
102
RTVSPost2010PropOp34
 70
     1
102
RTVSPost2010Prop35
280
     0
102
RTVSPost2010PropOp35
 70
     1
102
RTVSPost2010Prop36
280
     0
102
RTVSPost2010PropOp36
 70
     1
102
RTVSPost2010Prop37
 90
       50
102
RTVSPost2010PropOp37
 70
     1
102
RTVSPost2010Prop38
140
0.0
102
RTVSPost2010PropOp38
 70
     1
102
RTVSPost2010Prop39
140
1.0
102
RTVSPost2010PropOp39
 70
     1
102
RTVSPost2010Prop40
 90
        0
102
RTVSPost2010PropOp40
 70
     1
102
RTVSPost2010Prop41ColorIndex
 90
       18
102
RTVSPost2010Prop41ColorRGB
 90
        0
102
RTVSPost2010PropOp41
 70
     1
102
RTVSPost2010Prop42
 90
       50
102
RTVSPost2010PropOp42
 70
     1
102
RTVSPost2010Prop43
 90
        3
102
RTVSPost2010PropOp43
 70
     1
102
RTVSPost2010Prop44ColorIndex
 90
        5
102
RTVSPost2010Prop44ColorRGB
 90
      255
102
RTVSPost2010PropOp44
 70
     1
102
RTVSPost2010Prop45
280
     0
102
RTVSPost2010PropOp45
 70
     1
102
RTVSPost2010Prop46
 90
       50
102
RTVSPost2010PropOp46
 70
     1
102
RTVSPost2010Prop47
 90
       50
102
RTVSPost2010PropOp47
 70
     1
102
RTVSPost2010Prop48
 90
       50
102
RTVSPost2010PropOp48
 70
     1
102
RTVSPost2010Prop49
280
     0
102
RTVSPost2010PropOp49
 70
     1
102
RTVSPost2010Prop50
 90
       50
102
RTVSPost2010PropOp50
 70
     1
102
RTVSPost2010Prop51ColorIndex
 90
      256
102
RTVSPost2010Prop51ColorRGB
 90
-16777216
102
RTVSPost2010PropOp51
 70
     0
102
RTVSPost2010Prop52
140
1.0
102
RTVSPost2010PropOp52
 70
     0
102
RTVSPost2010Prop53
 90
        2
102
RTVSPost2010PropOp53
 70
     1
102
RTVSPost2010Prop54
  1
strokes_ogs.tif
102
RTVSPost2010PropOp54
 70
     1
102
RTVSPost2010Prop55
280
     0
102
RTVSPost2010PropOp55
 70
     1
102
RTVSPost2010Prop56
140
1.0
102
RTVSPost2010PropOp56
 70
     1
102
RTVSPost2010Prop57
140
1.0
102
RTVSPost2010PropOp57
 70
     1
102
RTVSPropertyOp0
 70
     1
102
RTVSPropertyOp1
 70
     1
102
RTVSPropertyOp2
 70
     1
102
RTVSPropertyOp3
 70
     1
102
RTVSPropertyOp4
 70
     1
102
RTVSPropertyOp5
 70
     1
102
RTVSPropertyOp6
 70
     1
102
RTVSPropertyOp7
 70
     1
102
RTVSPropertyOp8
 70
     1
102
RTVSPropertyOp9
 70
     1
102
RTVSPropertyOp10
 70
     1
102
RTVSPropertyOp11
 70
     1
102
RTVSPropertyOp12
 70
     1
102
RTVSPropertyOp13
 70
     1
102
RTVSPropertyOp14
 70
     1
102
RTVSPropertyOp15
 70
     1
102
RTVSPropertyOp16
 70
     1
102
RTVSPropertyOp17
 70
     1
102
RTVSPropertyOp18
 70
     1
102
RTVSPropertyOp19
 70
     1
102
RTVSPropertyOp20
 70
     1
102
RTVSPropertyOp21
 70
     1
102
RTVSPropertyOp22
 70
     1
102
RTVSPropertyOp23
 70
     1
102
RTVSPropertyOp24
 70
     1
102
RTVSPropertyOp25
 70
     1
102
RTVSPropertyOp26
 70
     1
102
RTVSPropertyOp27
 70
     1
102
RTVSPropertyOp28
 70
     1
102
RTVSPropertyOp29
 70
     1
102
RTVSPropertyOp30
 70
     1
102
RTVSPropertyOp31
 70
     1
102
RTVSPropertyOp32
 70
     1
102
RTVSPropertyOp33
 70
     1
102
RTVSPropertyOp34
 70
     1
102
RTVSPropertyOp35
 70
     1
102
RTVSPropertyOp36
 70
     1
102
RTVSPropertyOp37
 70
     1
102
RTVSPropertyOp38
 70
     1
102
RTVSPropertyOp39
 70
     1
102
RTVSPropertyOp40
 70
     1
102
RTVSPropertyOp41
 70
     1
102
RTVSPropertyOp42
 70
     1
102
RTVSPropertyOp43
 70
     1
102
RTVSPropertyOp44
 70
     1
102
RTVSPropertyOp45
 70
     1
102
RTVSPropertyOp46
 70
     1
102
RTVSPropertyOp47
 70
     1
102
RTVSPropertyOp48
 70
     1
102
RTVSPropertyOp49
 70
     1
102
RTVSPropertyOp50
 70
     1
102
RTVSPropertyOp51
 70
     0
102
RTVSPropertyOp52
 70
     0
102
RTVSPropertyOp53
 70
     1
102
RTVSPropertyOp54
 70
     1
102
RTVSPropertyOp55
 70
     1
102
RTVSPropertyOp56
 70
     1
102
RTVSPropertyOp57
 70
     1
102
RTVSPropertyOp58
 70
     1
102
RTVSPropertyOp59
 70
     1
102
RTVSPropertyOp60
 70
     1
102
RTVSPropertyOp61
 70
     1
102
RTVSPropertyOp62
 70
     1
  0
XRECORD
  5
3DF
102
{ACAD_REACTORS
330
3DE
102
}
330
3DE
100
AcDbXrecord
280
     1
102
RTVSPost2010Prop28
280
     0
102
RTVSPost2010PropOp28
 70
     1
102
RTVSPost2010Prop29
280
     1
102
RTVSPost2010PropOp29
 70
     1
102
RTVSPost2010Prop30
280
     1
102
RTVSPost2010PropOp30
 70
     1
102
RTVSPost2010Prop31
280
     0
102
RTVSPost2010PropOp31
 70
     1
102
RTVSPost2010Prop32
280
     0
102
RTVSPost2010PropOp32
 70
     1
102
RTVSPost2010Prop33
280
     0
102
RTVSPost2010PropOp33
 70
     1
102
RTVSPost2010Prop34
280
     0
102
RTVSPost2010PropOp34
 70
     1
102
RTVSPost2010Prop35
280
     0
102
RTVSPost2010PropOp35
 70
     1
102
RTVSPost2010Prop36
280
     0
102
RTVSPost2010PropOp36
 70
     1
102
RTVSPost2010Prop37
 90
       50
102
RTVSPost2010PropOp37
 70
     1
102
RTVSPost2010Prop38
140
0.0
102
RTVSPost2010PropOp38
 70
     1
102
RTVSPost2010Prop39
140
1.0
102
RTVSPost2010PropOp39
 70
     1
102
RTVSPost2010Prop40
 90
        0
102
RTVSPost2010PropOp40
 70
     1
102
RTVSPost2010Prop41ColorIndex
 90
       18
102
RTVSPost2010Prop41ColorRGB
 90
        0
102
RTVSPost2010PropOp41
 70
     1
102
RTVSPost2010Prop42
 90
       50
102
RTVSPost2010PropOp42
 70
     1
102
RTVSPost2010Prop43
 90
        3
102
RTVSPost2010PropOp43
 70
     1
102
RTVSPost2010Prop44ColorIndex
 90
        5
102
RTVSPost2010Prop44ColorRGB
 90
      255
102
RTVSPost2010PropOp44
 70
     1
102
RTVSPost2010Prop45
280
     0
102
RTVSPost2010PropOp45
 70
     1
102
RTVSPost2010Prop46
 90
       50
102
RTVSPost2010PropOp46
 70
     1
102
RTVSPost2010Prop47
 90
       50
102
RTVSPost2010PropOp47
 70
     1
102
RTVSPost2010Prop48
 90
       50
102
RTVSPost2010PropOp48
 70
     1
102
RTVSPost2010Prop49
280
     0
102
RTVSPost2010PropOp49
 70
     1
102
RTVSPost2010Prop50
 90
       50
102
RTVSPost2010PropOp50
 70
     1
102
RTVSPost2010Prop51ColorIndex
 90
      256
102
RTVSPost2010Prop51ColorRGB
 90
-16777216
102
RTVSPost2010PropOp51
 70
     0
102
RTVSPost2010Prop52
140
1.0
102
RTVSPost2010PropOp52
 70
     0
102
RTVSPost2010Prop53
 90
        2
102
RTVSPost2010PropOp53
 70
     1
102
RTVSPost2010Prop54
  1
strokes_ogs.tif
102
RTVSPost2010PropOp54
 70
     1
102
RTVSPost2010Prop55
280
     0
102
RTVSPost2010PropOp55
 70
     1
102
RTVSPost2010Prop56
140
1.0
102
RTVSPost2010PropOp56
 70
     1
102
RTVSPost2010Prop57
140
1.0
102
RTVSPost2010PropOp57
 70
     1
102
RTVSPropertyOp0
 70
     1
102
RTVSPropertyOp1
 70
     1
102
RTVSPropertyOp2
 70
     1
102
RTVSPropertyOp3
 70
     1
102
RTVSPropertyOp4
 70
     1
102
RTVSPropertyOp5
 70
     1
102
RTVSPropertyOp6
 70
     1
102
RTVSPropertyOp7
 70
     1
102
RTVSPropertyOp8
 70
     1
102
RTVSPropertyOp9
 70
     1
102
RTVSPropertyOp10
 70
     1
102
RTVSPropertyOp11
 70
     1
102
RTVSPropertyOp12
 70
     1
102
RTVSPropertyOp13
 70
     1
102
RTVSPropertyOp14
 70
     1
102
RTVSPropertyOp15
 70
     1
102
RTVSPropertyOp16
 70
     1
102
RTVSPropertyOp17
 70
     1
102
RTVSPropertyOp18
 70
     1
102
RTVSPropertyOp19
 70
     1
102
RTVSPropertyOp20
 70
     1
102
RTVSPropertyOp21
 70
     1
102
RTVSPropertyOp22
 70
     1
102
RTVSPropertyOp23
 70
     1
102
RTVSPropertyOp24
 70
     1
102
RTVSPropertyOp25
 70
     1
102
RTVSPropertyOp26
 70
     1
102
RTVSPropertyOp27
 70
     1
102
RTVSPropertyOp28
 70
     1
102
RTVSPropertyOp29
 70
     1
102
RTVSPropertyOp30
 70
     1
102
RTVSPropertyOp31
 70
     1
102
RTVSPropertyOp32
 70
     1
102
RTVSPropertyOp33
 70
     1
102
RTVSPropertyOp34
 70
     1
102
RTVSPropertyOp35
 70
     1
102
RTVSPropertyOp36
 70
     1
102
RTVSPropertyOp37
 70
     1
102
RTVSPropertyOp38
 70
     1
102
RTVSPropertyOp39
 70
     1
102
RTVSPropertyOp40
 70
     1
102
RTVSPropertyOp41
 70
     1
102
RTVSPropertyOp42
 70
     1
102
RTVSPropertyOp43
 70
     1
102
RTVSPropertyOp44
 70
     1
102
RTVSPropertyOp45
 70
     1
102
RTVSPropertyOp46
 70
     1
102
RTVSPropertyOp47
 70
     1
102
RTVSPropertyOp48
 70
     1
102
RTVSPropertyOp49
 70
     1
102
RTVSPropertyOp50
 70
     1
102
RTVSPropertyOp51
 70
     0
102
RTVSPropertyOp52
 70
     0
102
RTVSPropertyOp53
 70
     1
102
RTVSPropertyOp54
 70
     1
102
RTVSPropertyOp55
 70
     1
102
RTVSPropertyOp56
 70
     1
102
RTVSPropertyOp57
 70
     1
102
RTVSPropertyOp58
 70
     1
102
RTVSPropertyOp59
 70
     1
102
RTVSPropertyOp60
 70
     1
102
RTVSPropertyOp61
 70
     1
102
RTVSPropertyOp62
 70
     1
  0
XRECORD
  5
3E1
102
{ACAD_REACTORS
330
3E0
102
}
330
3E0
100
AcDbXrecord
280
     1
102
RTVSPost2010Prop28
280
     0
102
RTVSPost2010PropOp28
 70
     1
102
RTVSPost2010Prop29
280
     1
102
RTVSPost2010PropOp29
 70
     1
102
RTVSPost2010Prop30
280
     1
102
RTVSPost2010PropOp30
 70
     1
102
RTVSPost2010Prop31
280
     0
102
RTVSPost2010PropOp31
 70
     1
102
RTVSPost2010Prop32
280
     0
102
RTVSPost2010PropOp32
 70
     1
102
RTVSPost2010Prop33
280
     0
102
RTVSPost2010PropOp33
 70
     1
102
RTVSPost2010Prop34
280
     0
102
RTVSPost2010PropOp34
 70
     1
102
RTVSPost2010Prop35
280
     0
102
RTVSPost2010PropOp35
 70
     1
102
RTVSPost2010Prop36
280
     0
102
RTVSPost2010PropOp36
 70
     1
102
RTVSPost2010Prop37
 90
       50
102
RTVSPost2010PropOp37
 70
     1
102
RTVSPost2010Prop38
140
0.0
102
RTVSPost2010PropOp38
 70
     1
102
RTVSPost2010Prop39
140
1.0
102
RTVSPost2010PropOp39
 70
     1
102
RTVSPost2010Prop40
 90
        0
102
RTVSPost2010PropOp40
 70
     1
102
RTVSPost2010Prop41ColorIndex
 90
       18
102
RTVSPost2010Prop41ColorRGB
 90
        0
102
RTVSPost2010PropOp41
 70
     1
102
RTVSPost2010Prop42
 90
       50
102
RTVSPost2010PropOp42
 70
     1
102
RTVSPost2010Prop43
 90
        3
102
RTVSPost2010PropOp43
 70
     1
102
RTVSPost2010Prop44ColorIndex
 90
        5
102
RTVSPost2010Prop44ColorRGB
 90
      255
102
RTVSPost2010PropOp44
 70
     1
102
RTVSPost2010Prop45
280
     0
102
RTVSPost2010PropOp45
 70
     1
102
RTVSPost2010Prop46
 90
       50
102
RTVSPost2010PropOp46
 70
     1
102
RTVSPost2010Prop47
 90
       50
102
RTVSPost2010PropOp47
 70
     1
102
RTVSPost2010Prop48
 90
       50
102
RTVSPost2010PropOp48
 70
     1
102
RTVSPost2010Prop49
280
     0
102
RTVSPost2010PropOp49
 70
     1
102
RTVSPost2010Prop50
 90
       50
102
RTVSPost2010PropOp50
 70
     1
102
RTVSPost2010Prop51ColorIndex
 90
      256
102
RTVSPost2010Prop51ColorRGB
 90
-16777216
102
RTVSPost2010PropOp51
 70
     0
102
RTVSPost2010Prop52
140
1.0
102
RTVSPost2010PropOp52
 70
     0
102
RTVSPost2010Prop53
 90
        2
102
RTVSPost2010PropOp53
 70
     1
102
RTVSPost2010Prop54
  1
strokes_ogs.tif
102
RTVSPost2010PropOp54
 70
     1
102
RTVSPost2010Prop55
280
     0
102
RTVSPost2010PropOp55
 70
     1
102
RTVSPost2010Prop56
140
1.0
102
RTVSPost2010PropOp56
 70
     1
102
RTVSPost2010Prop57
140
1.0
102
RTVSPost2010PropOp57
 70
     1
102
RTVSPropertyOp0
 70
     1
102
RTVSPropertyOp1
 70
     1
102
RTVSPropertyOp2
 70
     1
102
RTVSPropertyOp3
 70
     1
102
RTVSPropertyOp4
 70
     1
102
RTVSPropertyOp5
 70
     1
102
RTVSPropertyOp6
 70
     1
102
RTVSPropertyOp7
 70
     1
102
RTVSPropertyOp8
 70
     1
102
RTVSPropertyOp9
 70
     1
102
RTVSPropertyOp10
 70
     1
102
RTVSPropertyOp11
 70
     1
102
RTVSPropertyOp12
 70
     1
102
RTVSPropertyOp13
 70
     1
102
RTVSPropertyOp14
 70
     1
102
RTVSPropertyOp15
 70
     1
102
RTVSPropertyOp16
 70
     1
102
RTVSPropertyOp17
 70
     1
102
RTVSPropertyOp18
 70
     1
102
RTVSPropertyOp19
 70
     1
102
RTVSPropertyOp20
 70
     1
102
RTVSPropertyOp21
 70
     1
102
RTVSPropertyOp22
 70
     1
102
RTVSPropertyOp23
 70
     1
102
RTVSPropertyOp24
 70
     1
102
RTVSPropertyOp25
 70
     1
102
RTVSPropertyOp26
 70
     1
102
RTVSPropertyOp27
 70
     1
102
RTVSPropertyOp28
 70
     1
102
RTVSPropertyOp29
 70
     1
102
RTVSPropertyOp30
 70
     1
102
RTVSPropertyOp31
 70
     1
102
RTVSPropertyOp32
 70
     1
102
RTVSPropertyOp33
 70
     1
102
RTVSPropertyOp34
 70
     1
102
RTVSPropertyOp35
 70
     1
102
RTVSPropertyOp36
 70
     1
102
RTVSPropertyOp37
 70
     1
102
RTVSPropertyOp38
 70
     1
102
RTVSPropertyOp39
 70
     1
102
RTVSPropertyOp40
 70
     1
102
RTVSPropertyOp41
 70
     1
102
RTVSPropertyOp42
 70
     1
102
RTVSPropertyOp43
 70
     1
102
RTVSPropertyOp44
 70
     1
102
RTVSPropertyOp45
 70
     1
102
RTVSPropertyOp46
 70
     1
102
RTVSPropertyOp47
 70
     1
102
RTVSPropertyOp48
 70
     1
102
RTVSPropertyOp49
 70
     1
102
RTVSPropertyOp50
 70
     1
102
RTVSPropertyOp51
 70
     0
102
RTVSPropertyOp52
 70
     0
102
RTVSPropertyOp53
 70
     1
102
RTVSPropertyOp54
 70
     1
102
RTVSPropertyOp55
 70
     1
102
RTVSPropertyOp56
 70
     1
102
RTVSPropertyOp57
 70
     1
102
RTVSPropertyOp58
 70
     1
102
RTVSPropertyOp59
 70
     1
102
RTVSPropertyOp60
 70
     1
102
RTVSPropertyOp61
 70
     1
102
RTVSPropertyOp62
 70
     1
  0
XRECORD
  5
3E7
102
{ACAD_REACTORS
330
3E6
102
}
330
3E6
100
AcDbXrecord
280
     1
102
RTVSPost2010Prop28
280
     0
102
RTVSPost2010PropOp28
 70
     1
102
RTVSPost2010Prop29
280
     1
102
RTVSPost2010PropOp29
 70
     1
102
RTVSPost2010Prop30
280
     1
102
RTVSPost2010PropOp30
 70
     1
102
RTVSPost2010Prop31
280
     0
102
RTVSPost2010PropOp31
 70
     1
102
RTVSPost2010Prop32
280
     0
102
RTVSPost2010PropOp32
 70
     1
102
RTVSPost2010Prop33
280
     0
102
RTVSPost2010PropOp33
 70
     1
102
RTVSPost2010Prop34
280
     0
102
RTVSPost2010PropOp34
 70
     1
102
RTVSPost2010Prop35
280
     0
102
RTVSPost2010PropOp35
 70
     1
102
RTVSPost2010Prop36
280
     0
102
RTVSPost2010PropOp36
 70
     1
102
RTVSPost2010Prop37
 90
       50
102
RTVSPost2010PropOp37
 70
     1
102
RTVSPost2010Prop38
140
0.0
102
RTVSPost2010PropOp38
 70
     1
102
RTVSPost2010Prop39
140
1.0
102
RTVSPost2010PropOp39
 70
     1
102
RTVSPost2010Prop40
 90
        0
102
RTVSPost2010PropOp40
 70
     1
102
RTVSPost2010Prop41ColorIndex
 90
       18
102
RTVSPost2010Prop41ColorRGB
 90
        0
102
RTVSPost2010PropOp41
 70
     1
102
RTVSPost2010Prop42
 90
       50
102
RTVSPost2010PropOp42
 70
     1
102
RTVSPost2010Prop43
 90
        3
102
RTVSPost2010PropOp43
 70
     1
102
RTVSPost2010Prop44ColorIndex
 90
        5
102
RTVSPost2010Prop44ColorRGB
 90
      255
102
RTVSPost2010PropOp44
 70
     1
102
RTVSPost2010Prop45
280
     0
102
RTVSPost2010PropOp45
 70
     1
102
RTVSPost2010Prop46
 90
       50
102
RTVSPost2010PropOp46
 70
     1
102
RTVSPost2010Prop47
 90
       50
102
RTVSPost2010PropOp47
 70
     1
102
RTVSPost2010Prop48
 90
       50
102
RTVSPost2010PropOp48
 70
     1
102
RTVSPost2010Prop49
280
     0
102
RTVSPost2010PropOp49
 70
     1
102
RTVSPost2010Prop50
 90
       50
102
RTVSPost2010PropOp50
 70
     1
102
RTVSPost2010Prop51ColorIndex
 90
      256
102
RTVSPost2010Prop51ColorRGB
 90
-16777216
102
RTVSPost2010PropOp51
 70
     0
102
RTVSPost2010Prop52
140
1.0
102
RTVSPost2010PropOp52
 70
     0
102
RTVSPost2010Prop53
 90
        2
102
RTVSPost2010PropOp53
 70
     1
102
RTVSPost2010Prop54
  1
strokes_ogs.tif
102
RTVSPost2010PropOp54
 70
     1
102
RTVSPost2010Prop55
280
     0
102
RTVSPost2010PropOp55
 70
     1
102
RTVSPost2010Prop56
140
1.0
102
RTVSPost2010PropOp56
 70
     1
102
RTVSPost2010Prop57
140
1.0
102
RTVSPost2010PropOp57
 70
     1
102
RTVSPropertyOp0
 70
     1
102
RTVSPropertyOp1
 70
     1
102
RTVSPropertyOp2
 70
     1
102
RTVSPropertyOp3
 70
     1
102
RTVSPropertyOp4
 70
     1
102
RTVSPropertyOp5
 70
     1
102
RTVSPropertyOp6
 70
     1
102
RTVSPropertyOp7
 70
     1
102
RTVSPropertyOp8
 70
     1
102
RTVSPropertyOp9
 70
     1
102
RTVSPropertyOp10
 70
     1
102
RTVSPropertyOp11
 70
     1
102
RTVSPropertyOp12
 70
     1
102
RTVSPropertyOp13
 70
     1
102
RTVSPropertyOp14
 70
     1
102
RTVSPropertyOp15
 70
     1
102
RTVSPropertyOp16
 70
     1
102
RTVSPropertyOp17
 70
     1
102
RTVSPropertyOp18
 70
     1
102
RTVSPropertyOp19
 70
     1
102
RTVSPropertyOp20
 70
     1
102
RTVSPropertyOp21
 70
     1
102
RTVSPropertyOp22
 70
     1
102
RTVSPropertyOp23
 70
     1
102
RTVSPropertyOp24
 70
     1
102
RTVSPropertyOp25
 70
     1
102
RTVSPropertyOp26
 70
     1
102
RTVSPropertyOp27
 70
     1
102
RTVSPropertyOp28
 70
     1
102
RTVSPropertyOp29
 70
     1
102
RTVSPropertyOp30
 70
     1
102
RTVSPropertyOp31
 70
     1
102
RTVSPropertyOp32
 70
     1
102
RTVSPropertyOp33
 70
     1
102
RTVSPropertyOp34
 70
     1
102
RTVSPropertyOp35
 70
     1
102
RTVSPropertyOp36
 70
     1
102
RTVSPropertyOp37
 70
     1
102
RTVSPropertyOp38
 70
     1
102
RTVSPropertyOp39
 70
     1
102
RTVSPropertyOp40
 70
     1
102
RTVSPropertyOp41
 70
     1
102
RTVSPropertyOp42
 70
     1
102
RTVSPropertyOp43
 70
     1
102
RTVSPropertyOp44
 70
     1
102
RTVSPropertyOp45
 70
     1
102
RTVSPropertyOp46
 70
     1
102
RTVSPropertyOp47
 70
     1
102
RTVSPropertyOp48
 70
     1
102
RTVSPropertyOp49
 70
     1
102
RTVSPropertyOp50
 70
     1
102
RTVSPropertyOp51
 70
     0
102
RTVSPropertyOp52
 70
     0
102
RTVSPropertyOp53
 70
     1
102
RTVSPropertyOp54
 70
     1
102
RTVSPropertyOp55
 70
     1
102
RTVSPropertyOp56
 70
     1
102
RTVSPropertyOp57
 70
     1
102
RTVSPropertyOp58
 70
     1
102
RTVSPropertyOp59
 70
     1
102
RTVSPropertyOp60
 70
     1
102
RTVSPropertyOp61
 70
     1
102
RTVSPropertyOp62
 70
     1
  0
XRECORD
  5
3FB
102
{ACAD_REACTORS
330
3FA
102
}
330
3FA
100
AcDbXrecord
280
     1
102
RTVSPost2010Prop28
280
     0
102
RTVSPost2010PropOp28
 70
     0
102
RTVSPost2010Prop29
280
     1
102
RTVSPost2010PropOp29
 70
     0
102
RTVSPost2010Prop30
280
     1
102
RTVSPost2010PropOp30
 70
     0
102
RTVSPost2010Prop31
280
     0
102
RTVSPost2010PropOp31
 70
     0
102
RTVSPost2010Prop32
280
     0
102
RTVSPost2010PropOp32
 70
     0
102
RTVSPost2010Prop33
280
     0
102
RTVSPost2010PropOp33
 70
     0
102
RTVSPost2010Prop34
280
     0
102
RTVSPost2010PropOp34
 70
     0
102
RTVSPost2010Prop35
280
     0
102
RTVSPost2010PropOp35
 70
     0
102
RTVSPost2010Prop36
280
     0
102
RTVSPost2010PropOp36
 70
     0
102
RTVSPost2010Prop37
 90
       50
102
RTVSPost2010PropOp37
 70
     0
102
RTVSPost2010Prop38
140
0.0
102
RTVSPost2010PropOp38
 70
     0
102
RTVSPost2010Prop39
140
1.0
102
RTVSPost2010PropOp39
 70
     0
102
RTVSPost2010Prop40
 90
        0
102
RTVSPost2010PropOp40
 70
     0
102
RTVSPost2010Prop41ColorIndex
 90
       18
102
RTVSPost2010Prop41ColorRGB
 90
        0
102
RTVSPost2010PropOp41
 70
     0
102
RTVSPost2010Prop42
 90
       50
102
RTVSPost2010PropOp42
 70
     0
102
RTVSPost2010Prop43
 90
        3
102
RTVSPost2010PropOp43
 70
     0
102
RTVSPost2010Prop44ColorIndex
 90
        5
102
RTVSPost2010Prop44ColorRGB
 90
      255
102
RTVSPost2010PropOp44
 70
     0
102
RTVSPost2010Prop45
280
     0
102
RTVSPost2010PropOp45
 70
     0
102
RTVSPost2010Prop46
 90
       50
102
RTVSPost2010PropOp46
 70
     0
102
RTVSPost2010Prop47
 90
       50
102
RTVSPost2010PropOp47
 70
     0
102
RTVSPost2010Prop48
 90
       50
102
RTVSPost2010PropOp48
 70
     0
102
RTVSPost2010Prop49
280
     0
102
RTVSPost2010PropOp49
 70
     0
102
RTVSPost2010Prop50
 90
       50
102
RTVSPost2010PropOp50
 70
     0
102
RTVSPost2010Prop51ColorIndex
 90
      256
102
RTVSPost2010Prop51ColorRGB
 90
-16777216
102
RTVSPost2010PropOp51
 70
     0
102
RTVSPost2010Prop52
140
1.0
102
RTVSPost2010PropOp52
 70
     0
102
RTVSPost2010Prop53
 90
        2
102
RTVSPost2010PropOp53
 70
     0
102
RTVSPost2010Prop54
  1
strokes_ogs.tif
102
RTVSPost2010PropOp54
 70
     0
102
RTVSPost2010Prop55
280
     0
102
RTVSPost2010PropOp55
 70
     0
102
RTVSPost2010Prop56
140
1.0
102
RTVSPost2010PropOp56
 70
     0
102
RTVSPost2010Prop57
140
1.0
102
RTVSPost2010PropOp57
 70
     0
102
RTVSPropertyOp0
 70
     0
102
RTVSPropertyOp1
 70
     0
102
RTVSPropertyOp2
 70
     0
102
RTVSPropertyOp3
 70
     0
102
RTVSPropertyOp4
 70
     0
102
RTVSPropertyOp5
 70
     0
102
RTVSPropertyOp6
 70
     0
102
RTVSPropertyOp7
 70
     0
102
RTVSPropertyOp8
 70
     0
102
RTVSPropertyOp9
 70
     0
102
RTVSPropertyOp10
 70
     0
102
RTVSPropertyOp11
 70
     0
102
RTVSPropertyOp12
 70
     0
102
RTVSPropertyOp13
 70
     0
102
RTVSPropertyOp14
 70
     2
102
RTVSPropertyOp15
 70
     0
102
RTVSPropertyOp16
 70
     0
102
RTVSPropertyOp17
 70
     0
102
RTVSPropertyOp18
 70
     0
102
RTVSPropertyOp19
 70
     0
102
RTVSPropertyOp20
 70
     0
102
RTVSPropertyOp21
 70
     0
102
RTVSPropertyOp22
 70
     0
102
RTVSPropertyOp23
 70
     0
102
RTVSPropertyOp24
 70
     0
102
RTVSPropertyOp25
 70
     0
102
RTVSPropertyOp26
 70
     0
102
RTVSPropertyOp27
 70
     0
102
RTVSPropertyOp28
 70
     0
102
RTVSPropertyOp29
 70
     0
102
RTVSPropertyOp30
 70
     0
102
RTVSPropertyOp31
 70
     0
102
RTVSPropertyOp32
 70
     0
102
RTVSPropertyOp33
 70
     0
102
RTVSPropertyOp34
 70
     0
102
RTVSPropertyOp35
 70
     0
102
RTVSPropertyOp36
 70
     0
102
RTVSPropertyOp37
 70
     0
102
RTVSPropertyOp38
 70
     0
102
RTVSPropertyOp39
 70
     0
102
RTVSPropertyOp40
 70
     0
102
RTVSPropertyOp41
 70
     0
102
RTVSPropertyOp42
 70
     0
102
RTVSPropertyOp43
 70
     0
102
RTVSPropertyOp44
 70
     0
102
RTVSPropertyOp45
 70
     0
102
RTVSPropertyOp46
 70
     0
102
RTVSPropertyOp47
 70
     0
102
RTVSPropertyOp48
 70
     0
102
RTVSPropertyOp49
 70
     0
102
RTVSPropertyOp50
 70
     0
102
RTVSPropertyOp51
 70
     0
102
RTVSPropertyOp52
 70
     0
102
RTVSPropertyOp53
 70
     0
102
RTVSPropertyOp54
 70
     0
102
RTVSPropertyOp55
 70
     0
102
RTVSPropertyOp56
 70
     0
102
RTVSPropertyOp57
 70
     0
102
RTVSPropertyOp58
 70
     1
102
RTVSPropertyOp59
 70
     1
102
RTVSPropertyOp60
 70
     1
102
RTVSPropertyOp61
 70
     1
102
RTVSPropertyOp62
 70
     1
  0
XRECORD
  5
3F5
102
{ACAD_REACTORS
330
3F4
102
}
330
3F4
100
AcDbXrecord
280
     1
102
RTVSPost2010Prop28
280
     0
102
RTVSPost2010PropOp28
 70
     1
102
RTVSPost2010Prop29
280
     1
102
RTVSPost2010PropOp29
 70
     1
102
RTVSPost2010Prop30
280
     1
102
RTVSPost2010PropOp30
 70
     1
102
RTVSPost2010Prop31
280
     0
102
RTVSPost2010PropOp31
 70
     1
102
RTVSPost2010Prop32
280
     0
102
RTVSPost2010PropOp32
 70
     1
102
RTVSPost2010Prop33
280
     0
102
RTVSPost2010PropOp33
 70
     1
102
RTVSPost2010Prop34
280
     0
102
RTVSPost2010PropOp34
 70
     1
102
RTVSPost2010Prop35
280
     0
102
RTVSPost2010PropOp35
 70
     1
102
RTVSPost2010Prop36
280
     0
102
RTVSPost2010PropOp36
 70
     1
102
RTVSPost2010Prop37
 90
       50
102
RTVSPost2010PropOp37
 70
     1
102
RTVSPost2010Prop38
140
0.0
102
RTVSPost2010PropOp38
 70
     1
102
RTVSPost2010Prop39
140
1.0
102
RTVSPost2010PropOp39
 70
     1
102
RTVSPost2010Prop40
 90
        0
102
RTVSPost2010PropOp40
 70
     1
102
RTVSPost2010Prop41ColorIndex
 90
       18
102
RTVSPost2010Prop41ColorRGB
 90
        0
102
RTVSPost2010PropOp41
 70
     1
102
RTVSPost2010Prop42
 90
       50
102
RTVSPost2010PropOp42
 70
     1
102
RTVSPost2010Prop43
 90
        3
102
RTVSPost2010PropOp43
 70
     1
102
RTVSPost2010Prop44ColorIndex
 90
        5
102
RTVSPost2010Prop44ColorRGB
 90
      255
102
RTVSPost2010PropOp44
 70
     1
102
RTVSPost2010Prop45
280
     0
102
RTVSPost2010PropOp45
 70
     1
102
RTVSPost2010Prop46
 90
       50
102
RTVSPost2010PropOp46
 70
     1
102
RTVSPost2010Prop47
 90
       50
102
RTVSPost2010PropOp47
 70
     1
102
RTVSPost2010Prop48
 90
       50
102
RTVSPost2010PropOp48
 70
     1
102
RTVSPost2010Prop49
280
     0
102
RTVSPost2010PropOp49
 70
     1
102
RTVSPost2010Prop50
 90
       50
102
RTVSPost2010PropOp50
 70
     1
102
RTVSPost2010Prop51ColorIndex
 90
      256
102
RTVSPost2010Prop51ColorRGB
 90
-16777216
102
RTVSPost2010PropOp51
 70
     0
102
RTVSPost2010Prop52
140
1.0
102
RTVSPost2010PropOp52
 70
     0
102
RTVSPost2010Prop53
 90
        2
102
RTVSPost2010PropOp53
 70
     1
102
RTVSPost2010Prop54
  1
strokes_ogs.tif
102
RTVSPost2010PropOp54
 70
     1
102
RTVSPost2010Prop55
280
     0
102
RTVSPost2010PropOp55
 70
     1
102
RTVSPost2010Prop56
140
1.0
102
RTVSPost2010PropOp56
 70
     1
102
RTVSPost2010Prop57
140
1.0
102
RTVSPost2010PropOp57
 70
     1
102
RTVSPropertyOp0
 70
     1
102
RTVSPropertyOp1
 70
     1
102
RTVSPropertyOp2
 70
     1
102
RTVSPropertyOp3
 70
     1
102
RTVSPropertyOp4
 70
     1
102
RTVSPropertyOp5
 70
     1
102
RTVSPropertyOp6
 70
     1
102
RTVSPropertyOp7
 70
     1
102
RTVSPropertyOp8
 70
     1
102
RTVSPropertyOp9
 70
     1
102
RTVSPropertyOp10
 70
     1
102
RTVSPropertyOp11
 70
     1
102
RTVSPropertyOp12
 70
     1
102
RTVSPropertyOp13
 70
     1
102
RTVSPropertyOp14
 70
     1
102
RTVSPropertyOp15
 70
     1
102
RTVSPropertyOp16
 70
     1
102
RTVSPropertyOp17
 70
     1
102
RTVSPropertyOp18
 70
     1
102
RTVSPropertyOp19
 70
     1
102
RTVSPropertyOp20
 70
     1
102
RTVSPropertyOp21
 70
     1
102
RTVSPropertyOp22
 70
     1
102
RTVSPropertyOp23
 70
     1
102
RTVSPropertyOp24
 70
     1
102
RTVSPropertyOp25
 70
     1
102
RTVSPropertyOp26
 70
     1
102
RTVSPropertyOp27
 70
     1
102
RTVSPropertyOp28
 70
     1
102
RTVSPropertyOp29
 70
     1
102
RTVSPropertyOp30
 70
     1
102
RTVSPropertyOp31
 70
     1
102
RTVSPropertyOp32
 70
     1
102
RTVSPropertyOp33
 70
     1
102
RTVSPropertyOp34
 70
     1
102
RTVSPropertyOp35
 70
     1
102
RTVSPropertyOp36
 70
     1
102
RTVSPropertyOp37
 70
     1
102
RTVSPropertyOp38
 70
     1
102
RTVSPropertyOp39
 70
     1
102
RTVSPropertyOp40
 70
     1
102
RTVSPropertyOp41
 70
     1
102
RTVSPropertyOp42
 70
     1
102
RTVSPropertyOp43
 70
     1
102
RTVSPropertyOp44
 70
     1
102
RTVSPropertyOp45
 70
     1
102
RTVSPropertyOp46
 70
     1
102
RTVSPropertyOp47
 70
     1
102
RTVSPropertyOp48
 70
     1
102
RTVSPropertyOp49
 70
     1
102
RTVSPropertyOp50
 70
     1
102
RTVSPropertyOp51
 70
     0
102
RTVSPropertyOp52
 70
     0
102
RTVSPropertyOp53
 70
     1
102
RTVSPropertyOp54
 70
     1
102
RTVSPropertyOp55
 70
     1
102
RTVSPropertyOp56
 70
     1
102
RTVSPropertyOp57
 70
     1
102
RTVSPropertyOp58
 70
     1
102
RTVSPropertyOp59
 70
     1
102
RTVSPropertyOp60
 70
     1
102
RTVSPropertyOp61
 70
     1
102
RTVSPropertyOp62
 70
     1
  0
XRECORD
  5
3FD
102
{ACAD_REACTORS
330
3FC
102
}
330
3FC
100
AcDbXrecord
280
     1
102
RTVSPost2010Prop28
280
     0
102
RTVSPost2010PropOp28
 70
     0
102
RTVSPost2010Prop29
280
     1
102
RTVSPost2010PropOp29
 70
     0
102
RTVSPost2010Prop30
280
     1
102
RTVSPost2010PropOp30
 70
     0
102
RTVSPost2010Prop31
280
     0
102
RTVSPost2010PropOp31
 70
     0
102
RTVSPost2010Prop32
280
     0
102
RTVSPost2010PropOp32
 70
     0
102
RTVSPost2010Prop33
280
     0
102
RTVSPost2010PropOp33
 70
     0
102
RTVSPost2010Prop34
280
     0
102
RTVSPost2010PropOp34
 70
     0
102
RTVSPost2010Prop35
280
     0
102
RTVSPost2010PropOp35
 70
     0
102
RTVSPost2010Prop36
280
     0
102
RTVSPost2010PropOp36
 70
     0
102
RTVSPost2010Prop37
 90
       50
102
RTVSPost2010PropOp37
 70
     0
102
RTVSPost2010Prop38
140
0.0
102
RTVSPost2010PropOp38
 70
     0
102
RTVSPost2010Prop39
140
1.0
102
RTVSPost2010PropOp39
 70
     0
102
RTVSPost2010Prop40
 90
        0
102
RTVSPost2010PropOp40
 70
     0
102
RTVSPost2010Prop41ColorIndex
 90
       18
102
RTVSPost2010Prop41ColorRGB
 90
        0
102
RTVSPost2010PropOp41
 70
     0
102
RTVSPost2010Prop42
 90
       50
102
RTVSPost2010PropOp42
 70
     0
102
RTVSPost2010Prop43
 90
        3
102
RTVSPost2010PropOp43
 70
     0
102
RTVSPost2010Prop44ColorIndex
 90
        5
102
RTVSPost2010Prop44ColorRGB
 90
      255
102
RTVSPost2010PropOp44
 70
     0
102
RTVSPost2010Prop45
280
     0
102
RTVSPost2010PropOp45
 70
     0
102
RTVSPost2010Prop46
 90
       50
102
RTVSPost2010PropOp46
 70
     0
102
RTVSPost2010Prop47
 90
       50
102
RTVSPost2010PropOp47
 70
     0
102
RTVSPost2010Prop48
 90
       50
102
RTVSPost2010PropOp48
 70
     0
102
RTVSPost2010Prop49
280
     0
102
RTVSPost2010PropOp49
 70
     0
102
RTVSPost2010Prop50
 90
       50
102
RTVSPost2010PropOp50
 70
     0
102
RTVSPost2010Prop51ColorIndex
 90
      256
102
RTVSPost2010Prop51ColorRGB
 90
-16777216
102
RTVSPost2010PropOp51
 70
     0
102
RTVSPost2010Prop52
140
1.0
102
RTVSPost2010PropOp52
 70
     0
102
RTVSPost2010Prop53
 90
        2
102
RTVSPost2010PropOp53
 70
     0
102
RTVSPost2010Prop54
  1
strokes_ogs.tif
102
RTVSPost2010PropOp54
 70
     0
102
RTVSPost2010Prop55
280
     0
102
RTVSPost2010PropOp55
 70
     0
102
RTVSPost2010Prop56
140
1.0
102
RTVSPost2010PropOp56
 70
     0
102
RTVSPost2010Prop57
140
1.0
102
RTVSPost2010PropOp57
 70
     0
102
RTVSPropertyOp0
 70
     0
102
RTVSPropertyOp1
 70
     0
102
RTVSPropertyOp2
 70
     0
102
RTVSPropertyOp3
 70
     0
102
RTVSPropertyOp4
 70
     0
102
RTVSPropertyOp5
 70
     0
102
RTVSPropertyOp6
 70
     0
102
RTVSPropertyOp7
 70
     0
102
RTVSPropertyOp8
 70
     0
102
RTVSPropertyOp9
 70
     0
102
RTVSPropertyOp10
 70
     0
102
RTVSPropertyOp11
 70
     0
102
RTVSPropertyOp12
 70
     0
102
RTVSPropertyOp13
 70
     0
102
RTVSPropertyOp14
 70
     2
102
RTVSPropertyOp15
 70
     0
102
RTVSPropertyOp16
 70
     0
102
RTVSPropertyOp17
 70
     0
102
RTVSPropertyOp18
 70
     0
102
RTVSPropertyOp19
 70
     0
102
RTVSPropertyOp20
 70
     0
102
RTVSPropertyOp21
 70
     0
102
RTVSPropertyOp22
 70
     0
102
RTVSPropertyOp23
 70
     0
102
RTVSPropertyOp24
 70
     0
102
RTVSPropertyOp25
 70
     0
102
RTVSPropertyOp26
 70
     0
102
RTVSPropertyOp27
 70
     0
102
RTVSPropertyOp28
 70
     0
102
RTVSPropertyOp29
 70
     0
102
RTVSPropertyOp30
 70
     0
102
RTVSPropertyOp31
 70
     0
102
RTVSPropertyOp32
 70
     0
102
RTVSPropertyOp33
 70
     0
102
RTVSPropertyOp34
 70
     0
102
RTVSPropertyOp35
 70
     0
102
RTVSPropertyOp36
 70
     0
102
RTVSPropertyOp37
 70
     0
102
RTVSPropertyOp38
 70
     0
102
RTVSPropertyOp39
 70
     0
102
RTVSPropertyOp40
 70
     0
102
RTVSPropertyOp41
 70
     0
102
RTVSPropertyOp42
 70
     0
102
RTVSPropertyOp43
 70
     0
102
RTVSPropertyOp44
 70
     0
102
RTVSPropertyOp45
 70
     0
102
RTVSPropertyOp46
 70
     0
102
RTVSPropertyOp47
 70
     0
102
RTVSPropertyOp48
 70
     0
102
RTVSPropertyOp49
 70
     0
102
RTVSPropertyOp50
 70
     0
102
RTVSPropertyOp51
 70
     0
102
RTVSPropertyOp52
 70
     0
102
RTVSPropertyOp53
 70
     0
102
RTVSPropertyOp54
 70
     0
102
RTVSPropertyOp55
 70
     0
102
RTVSPropertyOp56
 70
     0
102
RTVSPropertyOp57
 70
     0
102
RTVSPropertyOp58
 70
     1
102
RTVSPropertyOp59
 70
     1
102
RTVSPropertyOp60
 70
     1
102
RTVSPropertyOp61
 70
     1
102
RTVSPropertyOp62
 70
     1
  0
XRECORD
  5
3EB
102
{ACAD_REACTORS
330
3EA
102
}
330
3EA
100
AcDbXrecord
280
     1
102
RTVSPost2010Prop28
280
     0
102
RTVSPost2010PropOp28
 70
     1
102
RTVSPost2010Prop29
280
     1
102
RTVSPost2010PropOp29
 70
     1
102
RTVSPost2010Prop30
280
     1
102
RTVSPost2010PropOp30
 70
     1
102
RTVSPost2010Prop31
280
     0
102
RTVSPost2010PropOp31
 70
     1
102
RTVSPost2010Prop32
280
     0
102
RTVSPost2010PropOp32
 70
     1
102
RTVSPost2010Prop33
280
     0
102
RTVSPost2010PropOp33
 70
     1
102
RTVSPost2010Prop34
280
     0
102
RTVSPost2010PropOp34
 70
     1
102
RTVSPost2010Prop35
280
     0
102
RTVSPost2010PropOp35
 70
     1
102
RTVSPost2010Prop36
280
     0
102
RTVSPost2010PropOp36
 70
     1
102
RTVSPost2010Prop37
 90
       50
102
RTVSPost2010PropOp37
 70
     1
102
RTVSPost2010Prop38
140
0.0
102
RTVSPost2010PropOp38
 70
     1
102
RTVSPost2010Prop39
140
1.0
102
RTVSPost2010PropOp39
 70
     1
102
RTVSPost2010Prop40
 90
        0
102
RTVSPost2010PropOp40
 70
     1
102
RTVSPost2010Prop41ColorIndex
 90
       18
102
RTVSPost2010Prop41ColorRGB
 90
        0
102
RTVSPost2010PropOp41
 70
     1
102
RTVSPost2010Prop42
 90
       50
102
RTVSPost2010PropOp42
 70
     1
102
RTVSPost2010Prop43
 90
        3
102
RTVSPost2010PropOp43
 70
     1
102
RTVSPost2010Prop44ColorIndex
 90
        5
102
RTVSPost2010Prop44ColorRGB
 90
      255
102
RTVSPost2010PropOp44
 70
     1
102
RTVSPost2010Prop45
280
     0
102
RTVSPost2010PropOp45
 70
     1
102
RTVSPost2010Prop46
 90
       50
102
RTVSPost2010PropOp46
 70
     1
102
RTVSPost2010Prop47
 90
       50
102
RTVSPost2010PropOp47
 70
     1
102
RTVSPost2010Prop48
 90
       50
102
RTVSPost2010PropOp48
 70
     1
102
RTVSPost2010Prop49
280
     0
102
RTVSPost2010PropOp49
 70
     1
102
RTVSPost2010Prop50
 90
       50
102
RTVSPost2010PropOp50
 70
     1
102
RTVSPost2010Prop51ColorIndex
 90
      256
102
RTVSPost2010Prop51ColorRGB
 90
-16777216
102
RTVSPost2010PropOp51
 70
     0
102
RTVSPost2010Prop52
140
1.0
102
RTVSPost2010PropOp52
 70
     0
102
RTVSPost2010Prop53
 90
        2
102
RTVSPost2010PropOp53
 70
     1
102
RTVSPost2010Prop54
  1
strokes_ogs.tif
102
RTVSPost2010PropOp54
 70
     1
102
RTVSPost2010Prop55
280
     0
102
RTVSPost2010PropOp55
 70
     1
102
RTVSPost2010Prop56
140
1.0
102
RTVSPost2010PropOp56
 70
     1
102
RTVSPost2010Prop57
140
1.0
102
RTVSPost2010PropOp57
 70
     1
102
RTVSPropertyOp0
 70
     1
102
RTVSPropertyOp1
 70
     1
102
RTVSPropertyOp2
 70
     1
102
RTVSPropertyOp3
 70
     1
102
RTVSPropertyOp4
 70
     1
102
RTVSPropertyOp5
 70
     1
102
RTVSPropertyOp6
 70
     1
102
RTVSPropertyOp7
 70
     1
102
RTVSPropertyOp8
 70
     1
102
RTVSPropertyOp9
 70
     1
102
RTVSPropertyOp10
 70
     1
102
RTVSPropertyOp11
 70
     1
102
RTVSPropertyOp12
 70
     1
102
RTVSPropertyOp13
 70
     1
102
RTVSPropertyOp14
 70
     1
102
RTVSPropertyOp15
 70
     1
102
RTVSPropertyOp16
 70
     1
102
RTVSPropertyOp17
 70
     1
102
RTVSPropertyOp18
 70
     1
102
RTVSPropertyOp19
 70
     1
102
RTVSPropertyOp20
 70
     1
102
RTVSPropertyOp21
 70
     1
102
RTVSPropertyOp22
 70
     1
102
RTVSPropertyOp23
 70
     1
102
RTVSPropertyOp24
 70
     1
102
RTVSPropertyOp25
 70
     1
102
RTVSPropertyOp26
 70
     1
102
RTVSPropertyOp27
 70
     1
102
RTVSPropertyOp28
 70
     1
102
RTVSPropertyOp29
 70
     1
102
RTVSPropertyOp30
 70
     1
102
RTVSPropertyOp31
 70
     1
102
RTVSPropertyOp32
 70
     1
102
RTVSPropertyOp33
 70
     1
102
RTVSPropertyOp34
 70
     1
102
RTVSPropertyOp35
 70
     1
102
RTVSPropertyOp36
 70
     1
102
RTVSPropertyOp37
 70
     1
102
RTVSPropertyOp38
 70
     1
102
RTVSPropertyOp39
 70
     1
102
RTVSPropertyOp40
 70
     1
102
RTVSPropertyOp41
 70
     1
102
RTVSPropertyOp42
 70
     1
102
RTVSPropertyOp43
 70
     1
102
RTVSPropertyOp44
 70
     1
102
RTVSPropertyOp45
 70
     1
102
RTVSPropertyOp46
 70
     1
102
RTVSPropertyOp47
 70
     1
102
RTVSPropertyOp48
 70
     1
102
RTVSPropertyOp49
 70
     1
102
RTVSPropertyOp50
 70
     1
102
RTVSPropertyOp51
 70
     0
102
RTVSPropertyOp52
 70
     0
102
RTVSPropertyOp53
 70
     1
102
RTVSPropertyOp54
 70
     1
102
RTVSPropertyOp55
 70
     1
102
RTVSPropertyOp56
 70
     1
102
RTVSPropertyOp57
 70
     1
102
RTVSPropertyOp58
 70
     1
102
RTVSPropertyOp59
 70
     1
102
RTVSPropertyOp60
 70
     1
102
RTVSPropertyOp61
 70
     1
102
RTVSPropertyOp62
 70
     1
  0
XRECORD
  5
409
102
{ACAD_REACTORS
330
408
102
}
330
408
100
AcDbXrecord
280
     1
102
RTVSPost2010Prop28
280
     0
102
RTVSPost2010PropOp28
 70
     1
102
RTVSPost2010Prop29
280
     1
102
RTVSPost2010PropOp29
 70
     1
102
RTVSPost2010Prop30
280
     1
102
RTVSPost2010PropOp30
 70
     1
102
RTVSPost2010Prop31
280
     0
102
RTVSPost2010PropOp31
 70
     1
102
RTVSPost2010Prop32
280
     0
102
RTVSPost2010PropOp32
 70
     1
102
RTVSPost2010Prop33
280
     0
102
RTVSPost2010PropOp33
 70
     1
102
RTVSPost2010Prop34
280
     0
102
RTVSPost2010PropOp34
 70
     1
102
RTVSPost2010Prop35
280
     0
102
RTVSPost2010PropOp35
 70
     1
102
RTVSPost2010Prop36
280
     0
102
RTVSPost2010PropOp36
 70
     1
102
RTVSPost2010Prop37
 90
       50
102
RTVSPost2010PropOp37
 70
     1
102
RTVSPost2010Prop38
140
0.0
102
RTVSPost2010PropOp38
 70
     1
102
RTVSPost2010Prop39
140
1.0
102
RTVSPost2010PropOp39
 70
     1
102
RTVSPost2010Prop40
 90
        0
102
RTVSPost2010PropOp40
 70
     1
102
RTVSPost2010Prop41ColorIndex
 90
       18
102
RTVSPost2010Prop41ColorRGB
 90
        0
102
RTVSPost2010PropOp41
 70
     1
102
RTVSPost2010Prop42
 90
       50
102
RTVSPost2010PropOp42
 70
     1
102
RTVSPost2010Prop43
 90
        3
102
RTVSPost2010PropOp43
 70
     1
102
RTVSPost2010Prop44ColorIndex
 90
        5
102
RTVSPost2010Prop44ColorRGB
 90
      255
102
RTVSPost2010PropOp44
 70
     1
102
RTVSPost2010Prop45
280
     0
102
RTVSPost2010PropOp45
 70
     1
102
RTVSPost2010Prop46
 90
       50
102
RTVSPost2010PropOp46
 70
     1
102
RTVSPost2010Prop47
 90
       50
102
RTVSPost2010PropOp47
 70
     1
102
RTVSPost2010Prop48
 90
       50
102
RTVSPost2010PropOp48
 70
     1
102
RTVSPost2010Prop49
280
     0
102
RTVSPost2010PropOp49
 70
     1
102
RTVSPost2010Prop50
 90
       50
102
RTVSPost2010PropOp50
 70
     1
102
RTVSPost2010Prop51ColorIndex
 90
      256
102
RTVSPost2010Prop51ColorRGB
 90
-16777216
102
RTVSPost2010PropOp51
 70
     0
102
RTVSPost2010Prop52
140
1.0
102
RTVSPost2010PropOp52
 70
     0
102
RTVSPost2010Prop53
 90
        2
102
RTVSPost2010PropOp53
 70
     1
102
RTVSPost2010Prop54
  1
strokes_ogs.tif
102
RTVSPost2010PropOp54
 70
     1
102
RTVSPost2010Prop55
280
     0
102
RTVSPost2010PropOp55
 70
     1
102
RTVSPost2010Prop56
140
1.0
102
RTVSPost2010PropOp56
 70
     1
102
RTVSPost2010Prop57
140
1.0
102
RTVSPost2010PropOp57
 70
     1
102
RTVSPropertyOp0
 70
     1
102
RTVSPropertyOp1
 70
     1
102
RTVSPropertyOp2
 70
     1
102
RTVSPropertyOp3
 70
     1
102
RTVSPropertyOp4
 70
     1
102
RTVSPropertyOp5
 70
     1
102
RTVSPropertyOp6
 70
     1
102
RTVSPropertyOp7
 70
     1
102
RTVSPropertyOp8
 70
     1
102
RTVSPropertyOp9
 70
     1
102
RTVSPropertyOp10
 70
     1
102
RTVSPropertyOp11
 70
     1
102
RTVSPropertyOp12
 70
     1
102
RTVSPropertyOp13
 70
     1
102
RTVSPropertyOp14
 70
     1
102
RTVSPropertyOp15
 70
     1
102
RTVSPropertyOp16
 70
     1
102
RTVSPropertyOp17
 70
     1
102
RTVSPropertyOp18
 70
     1
102
RTVSPropertyOp19
 70
     1
102
RTVSPropertyOp20
 70
     1
102
RTVSPropertyOp21
 70
     1
102
RTVSPropertyOp22
 70
     1
102
RTVSPropertyOp23
 70
     1
102
RTVSPropertyOp24
 70
     1
102
RTVSPropertyOp25
 70
     1
102
RTVSPropertyOp26
 70
     1
102
RTVSPropertyOp27
 70
     1
102
RTVSPropertyOp28
 70
     1
102
RTVSPropertyOp29
 70
     1
102
RTVSPropertyOp30
 70
     1
102
RTVSPropertyOp31
 70
     1
102
RTVSPropertyOp32
 70
     1
102
RTVSPropertyOp33
 70
     1
102
RTVSPropertyOp34
 70
     1
102
RTVSPropertyOp35
 70
     1
102
RTVSPropertyOp36
 70
     1
102
RTVSPropertyOp37
 70
     1
102
RTVSPropertyOp38
 70
     1
102
RTVSPropertyOp39
 70
     1
102
RTVSPropertyOp40
 70
     1
102
RTVSPropertyOp41
 70
     1
102
RTVSPropertyOp42
 70
     1
102
RTVSPropertyOp43
 70
     1
102
RTVSPropertyOp44
 70
     1
102
RTVSPropertyOp45
 70
     1
102
RTVSPropertyOp46
 70
     1
102
RTVSPropertyOp47
 70
     1
102
RTVSPropertyOp48
 70
     1
102
RTVSPropertyOp49
 70
     1
102
RTVSPropertyOp50
 70
     1
102
RTVSPropertyOp51
 70
     0
102
RTVSPropertyOp52
 70
     0
102
RTVSPropertyOp53
 70
     1
102
RTVSPropertyOp54
 70
     1
102
RTVSPropertyOp55
 70
     1
102
RTVSPropertyOp56
 70
     1
102
RTVSPropertyOp57
 70
     1
102
RTVSPropertyOp58
 70
     1
102
RTVSPropertyOp59
 70
     1
102
RTVSPropertyOp60
 70
     1
102
RTVSPropertyOp61
 70
     1
102
RTVSPropertyOp62
 70
     1
  0
XRECORD
  5
407
102
{ACAD_REACTORS
330
406
102
}
330
406
100
AcDbXrecord
280
     1
102
RTVSPost2010Prop28
280
     0
102
RTVSPost2010PropOp28
 70
     1
102
RTVSPost2010Prop29
280
     1
102
RTVSPost2010PropOp29
 70
     1
102
RTVSPost2010Prop30
280
     1
102
RTVSPost2010PropOp30
 70
     1
102
RTVSPost2010Prop31
280
     0
102
RTVSPost2010PropOp31
 70
     1
102
RTVSPost2010Prop32
280
     0
102
RTVSPost2010PropOp32
 70
     1
102
RTVSPost2010Prop33
280
     0
102
RTVSPost2010PropOp33
 70
     1
102
RTVSPost2010Prop34
280
     0
102
RTVSPost2010PropOp34
 70
     1
102
RTVSPost2010Prop35
280
     0
102
RTVSPost2010PropOp35
 70
     1
102
RTVSPost2010Prop36
280
     0
102
RTVSPost2010PropOp36
 70
     1
102
RTVSPost2010Prop37
 90
       50
102
RTVSPost2010PropOp37
 70
     1
102
RTVSPost2010Prop38
140
0.0
102
RTVSPost2010PropOp38
 70
     1
102
RTVSPost2010Prop39
140
1.0
102
RTVSPost2010PropOp39
 70
     1
102
RTVSPost2010Prop40
 90
        0
102
RTVSPost2010PropOp40
 70
     1
102
RTVSPost2010Prop41ColorIndex
 90
       18
102
RTVSPost2010Prop41ColorRGB
 90
        0
102
RTVSPost2010PropOp41
 70
     1
102
RTVSPost2010Prop42
 90
       50
102
RTVSPost2010PropOp42
 70
     1
102
RTVSPost2010Prop43
 90
        3
102
RTVSPost2010PropOp43
 70
     1
102
RTVSPost2010Prop44ColorIndex
 90
        5
102
RTVSPost2010Prop44ColorRGB
 90
      255
102
RTVSPost2010PropOp44
 70
     1
102
RTVSPost2010Prop45
280
     0
102
RTVSPost2010PropOp45
 70
     1
102
RTVSPost2010Prop46
 90
       50
102
RTVSPost2010PropOp46
 70
     1
102
RTVSPost2010Prop47
 90
       50
102
RTVSPost2010PropOp47
 70
     1
102
RTVSPost2010Prop48
 90
       50
102
RTVSPost2010PropOp48
 70
     1
102
RTVSPost2010Prop49
280
     0
102
RTVSPost2010PropOp49
 70
     1
102
RTVSPost2010Prop50
 90
       50
102
RTVSPost2010PropOp50
 70
     1
102
RTVSPost2010Prop51ColorIndex
 90
      256
102
RTVSPost2010Prop51ColorRGB
 90
-16777216
102
RTVSPost2010PropOp51
 70
     0
102
RTVSPost2010Prop52
140
1.0
102
RTVSPost2010PropOp52
 70
     0
102
RTVSPost2010Prop53
 90
        2
102
RTVSPost2010PropOp53
 70
     1
102
RTVSPost2010Prop54
  1
strokes_ogs.tif
102
RTVSPost2010PropOp54
 70
     1
102
RTVSPost2010Prop55
280
     0
102
RTVSPost2010PropOp55
 70
     1
102
RTVSPost2010Prop56
140
1.0
102
RTVSPost2010PropOp56
 70
     1
102
RTVSPost2010Prop57
140
1.0
102
RTVSPost2010PropOp57
 70
     1
102
RTVSPropertyOp0
 70
     1
102
RTVSPropertyOp1
 70
     1
102
RTVSPropertyOp2
 70
     1
102
RTVSPropertyOp3
 70
     1
102
RTVSPropertyOp4
 70
     1
102
RTVSPropertyOp5
 70
     1
102
RTVSPropertyOp6
 70
     1
102
RTVSPropertyOp7
 70
     1
102
RTVSPropertyOp8
 70
     1
102
RTVSPropertyOp9
 70
     1
102
RTVSPropertyOp10
 70
     1
102
RTVSPropertyOp11
 70
     1
102
RTVSPropertyOp12
 70
     1
102
RTVSPropertyOp13
 70
     1
102
RTVSPropertyOp14
 70
     1
102
RTVSPropertyOp15
 70
     1
102
RTVSPropertyOp16
 70
     1
102
RTVSPropertyOp17
 70
     1
102
RTVSPropertyOp18
 70
     1
102
RTVSPropertyOp19
 70
     1
102
RTVSPropertyOp20
 70
     1
102
RTVSPropertyOp21
 70
     1
102
RTVSPropertyOp22
 70
     1
102
RTVSPropertyOp23
 70
     1
102
RTVSPropertyOp24
 70
     1
102
RTVSPropertyOp25
 70
     1
102
RTVSPropertyOp26
 70
     1
102
RTVSPropertyOp27
 70
     1
102
RTVSPropertyOp28
 70
     1
102
RTVSPropertyOp29
 70
     1
102
RTVSPropertyOp30
 70
     1
102
RTVSPropertyOp31
 70
     1
102
RTVSPropertyOp32
 70
     1
102
RTVSPropertyOp33
 70
     1
102
RTVSPropertyOp34
 70
     1
102
RTVSPropertyOp35
 70
     1
102
RTVSPropertyOp36
 70
     1
102
RTVSPropertyOp37
 70
     1
102
RTVSPropertyOp38
 70
     1
102
RTVSPropertyOp39
 70
     1
102
RTVSPropertyOp40
 70
     1
102
RTVSPropertyOp41
 70
     1
102
RTVSPropertyOp42
 70
     1
102
RTVSPropertyOp43
 70
     1
102
RTVSPropertyOp44
 70
     1
102
RTVSPropertyOp45
 70
     1
102
RTVSPropertyOp46
 70
     1
102
RTVSPropertyOp47
 70
     1
102
RTVSPropertyOp48
 70
     1
102
RTVSPropertyOp49
 70
     1
102
RTVSPropertyOp50
 70
     1
102
RTVSPropertyOp51
 70
     0
102
RTVSPropertyOp52
 70
     0
102
RTVSPropertyOp53
 70
     1
102
RTVSPropertyOp54
 70
     1
102
RTVSPropertyOp55
 70
     1
102
RTVSPropertyOp56
 70
     1
102
RTVSPropertyOp57
 70
     1
102
RTVSPropertyOp58
 70
     1
102
RTVSPropertyOp59
 70
     1
102
RTVSPropertyOp60
 70
     1
102
RTVSPropertyOp61
 70
     1
102
RTVSPropertyOp62
 70
     1
  0
XRECORD
  5
401
102
{ACAD_REACTORS
330
400
102
}
330
400
100
AcDbXrecord
280
     1
102
RTVSPost2010Prop28
280
     0
102
RTVSPost2010PropOp28
 70
     1
102
RTVSPost2010Prop29
280
     1
102
RTVSPost2010PropOp29
 70
     1
102
RTVSPost2010Prop30
280
     1
102
RTVSPost2010PropOp30
 70
     1
102
RTVSPost2010Prop31
280
     0
102
RTVSPost2010PropOp31
 70
     1
102
RTVSPost2010Prop32
280
     0
102
RTVSPost2010PropOp32
 70
     1
102
RTVSPost2010Prop33
280
     0
102
RTVSPost2010PropOp33
 70
     1
102
RTVSPost2010Prop34
280
     0
102
RTVSPost2010PropOp34
 70
     1
102
RTVSPost2010Prop35
280
     0
102
RTVSPost2010PropOp35
 70
     1
102
RTVSPost2010Prop36
280
     0
102
RTVSPost2010PropOp36
 70
     1
102
RTVSPost2010Prop37
 90
       50
102
RTVSPost2010PropOp37
 70
     1
102
RTVSPost2010Prop38
140
0.0
102
RTVSPost2010PropOp38
 70
     1
102
RTVSPost2010Prop39
140
1.0
102
RTVSPost2010PropOp39
 70
     1
102
RTVSPost2010Prop40
 90
        0
102
RTVSPost2010PropOp40
 70
     1
102
RTVSPost2010Prop41ColorIndex
 90
       18
102
RTVSPost2010Prop41ColorRGB
 90
        0
102
RTVSPost2010PropOp41
 70
     1
102
RTVSPost2010Prop42
 90
       50
102
RTVSPost2010PropOp42
 70
     1
102
RTVSPost2010Prop43
 90
        3
102
RTVSPost2010PropOp43
 70
     1
102
RTVSPost2010Prop44ColorIndex
 90
        5
102
RTVSPost2010Prop44ColorRGB
 90
      255
102
RTVSPost2010PropOp44
 70
     1
102
RTVSPost2010Prop45
280
     0
102
RTVSPost2010PropOp45
 70
     1
102
RTVSPost2010Prop46
 90
       50
102
RTVSPost2010PropOp46
 70
     1
102
RTVSPost2010Prop47
 90
       50
102
RTVSPost2010PropOp47
 70
     1
102
RTVSPost2010Prop48
 90
       50
102
RTVSPost2010PropOp48
 70
     1
102
RTVSPost2010Prop49
280
     0
102
RTVSPost2010PropOp49
 70
     1
102
RTVSPost2010Prop50
 90
       50
102
RTVSPost2010PropOp50
 70
     1
102
RTVSPost2010Prop51ColorIndex
 90
      256
102
RTVSPost2010Prop51ColorRGB
 90
-16777216
102
RTVSPost2010PropOp51
 70
     0
102
RTVSPost2010Prop52
140
1.0
102
RTVSPost2010PropOp52
 70
     0
102
RTVSPost2010Prop53
 90
        2
102
RTVSPost2010PropOp53
 70
     1
102
RTVSPost2010Prop54
  1
strokes_ogs.tif
102
RTVSPost2010PropOp54
 70
     1
102
RTVSPost2010Prop55
280
     0
102
RTVSPost2010PropOp55
 70
     1
102
RTVSPost2010Prop56
140
1.0
102
RTVSPost2010PropOp56
 70
     1
102
RTVSPost2010Prop57
140
1.0
102
RTVSPost2010PropOp57
 70
     1
102
RTVSPropertyOp0
 70
     1
102
RTVSPropertyOp1
 70
     1
102
RTVSPropertyOp2
 70
     1
102
RTVSPropertyOp3
 70
     1
102
RTVSPropertyOp4
 70
     1
102
RTVSPropertyOp5
 70
     1
102
RTVSPropertyOp6
 70
     1
102
RTVSPropertyOp7
 70
     1
102
RTVSPropertyOp8
 70
     1
102
RTVSPropertyOp9
 70
     1
102
RTVSPropertyOp10
 70
     1
102
RTVSPropertyOp11
 70
     1
102
RTVSPropertyOp12
 70
     1
102
RTVSPropertyOp13
 70
     1
102
RTVSPropertyOp14
 70
     1
102
RTVSPropertyOp15
 70
     1
102
RTVSPropertyOp16
 70
     1
102
RTVSPropertyOp17
 70
     1
102
RTVSPropertyOp18
 70
     1
102
RTVSPropertyOp19
 70
     1
102
RTVSPropertyOp20
 70
     1
102
RTVSPropertyOp21
 70
     1
102
RTVSPropertyOp22
 70
     1
102
RTVSPropertyOp23
 70
     1
102
RTVSPropertyOp24
 70
     1
102
RTVSPropertyOp25
 70
     1
102
RTVSPropertyOp26
 70
     1
102
RTVSPropertyOp27
 70
     1
102
RTVSPropertyOp28
 70
     1
102
RTVSPropertyOp29
 70
     1
102
RTVSPropertyOp30
 70
     1
102
RTVSPropertyOp31
 70
     1
102
RTVSPropertyOp32
 70
     1
102
RTVSPropertyOp33
 70
     1
102
RTVSPropertyOp34
 70
     1
102
RTVSPropertyOp35
 70
     1
102
RTVSPropertyOp36
 70
     1
102
RTVSPropertyOp37
 70
     1
102
RTVSPropertyOp38
 70
     1
102
RTVSPropertyOp39
 70
     1
102
RTVSPropertyOp40
 70
     1
102
RTVSPropertyOp41
 70
     1
102
RTVSPropertyOp42
 70
     1
102
RTVSPropertyOp43
 70
     1
102
RTVSPropertyOp44
 70
     1
102
RTVSPropertyOp45
 70
     1
102
RTVSPropertyOp46
 70
     1
102
RTVSPropertyOp47
 70
     1
102
RTVSPropertyOp48
 70
     1
102
RTVSPropertyOp49
 70
     1
102
RTVSPropertyOp50
 70
     1
102
RTVSPropertyOp51
 70
     0
102
RTVSPropertyOp52
 70
     0
102
RTVSPropertyOp53
 70
     1
102
RTVSPropertyOp54
 70
     1
102
RTVSPropertyOp55
 70
     1
102
RTVSPropertyOp56
 70
     1
102
RTVSPropertyOp57
 70
     1
102
RTVSPropertyOp58
 70
     1
102
RTVSPropertyOp59
 70
     1
102
RTVSPropertyOp60
 70
     1
102
RTVSPropertyOp61
 70
     1
102
RTVSPropertyOp62
 70
     1
  0
XRECORD
  5
403
102
{ACAD_REACTORS
330
402
102
}
330
402
100
AcDbXrecord
280
     1
102
RTVSPost2010Prop28
280
     0
102
RTVSPost2010PropOp28
 70
     1
102
RTVSPost2010Prop29
280
     1
102
RTVSPost2010PropOp29
 70
     1
102
RTVSPost2010Prop30
280
     1
102
RTVSPost2010PropOp30
 70
     1
102
RTVSPost2010Prop31
280
     0
102
RTVSPost2010PropOp31
 70
     1
102
RTVSPost2010Prop32
280
     0
102
RTVSPost2010PropOp32
 70
     1
102
RTVSPost2010Prop33
280
     0
102
RTVSPost2010PropOp33
 70
     1
102
RTVSPost2010Prop34
280
     0
102
RTVSPost2010PropOp34
 70
     1
102
RTVSPost2010Prop35
280
     0
102
RTVSPost2010PropOp35
 70
     1
102
RTVSPost2010Prop36
280
     0
102
RTVSPost2010PropOp36
 70
     1
102
RTVSPost2010Prop37
 90
       50
102
RTVSPost2010PropOp37
 70
     1
102
RTVSPost2010Prop38
140
0.0
102
RTVSPost2010PropOp38
 70
     1
102
RTVSPost2010Prop39
140
1.0
102
RTVSPost2010PropOp39
 70
     1
102
RTVSPost2010Prop40
 90
        0
102
RTVSPost2010PropOp40
 70
     1
102
RTVSPost2010Prop41ColorIndex
 90
       18
102
RTVSPost2010Prop41ColorRGB
 90
        0
102
RTVSPost2010PropOp41
 70
     1
102
RTVSPost2010Prop42
 90
       50
102
RTVSPost2010PropOp42
 70
     1
102
RTVSPost2010Prop43
 90
        3
102
RTVSPost2010PropOp43
 70
     1
102
RTVSPost2010Prop44ColorIndex
 90
        5
102
RTVSPost2010Prop44ColorRGB
 90
      255
102
RTVSPost2010PropOp44
 70
     1
102
RTVSPost2010Prop45
280
     0
102
RTVSPost2010PropOp45
 70
     1
102
RTVSPost2010Prop46
 90
       50
102
RTVSPost2010PropOp46
 70
     1
102
RTVSPost2010Prop47
 90
       50
102
RTVSPost2010PropOp47
 70
     1
102
RTVSPost2010Prop48
 90
       50
102
RTVSPost2010PropOp48
 70
     1
102
RTVSPost2010Prop49
280
     0
102
RTVSPost2010PropOp49
 70
     1
102
RTVSPost2010Prop50
 90
       50
102
RTVSPost2010PropOp50
 70
     1
102
RTVSPost2010Prop51ColorIndex
 90
      256
102
RTVSPost2010Prop51ColorRGB
 90
-16777216
102
RTVSPost2010PropOp51
 70
     0
102
RTVSPost2010Prop52
140
1.0
102
RTVSPost2010PropOp52
 70
     0
102
RTVSPost2010Prop53
 90
        2
102
RTVSPost2010PropOp53
 70
     1
102
RTVSPost2010Prop54
  1
strokes_ogs.tif
102
RTVSPost2010PropOp54
 70
     1
102
RTVSPost2010Prop55
280
     0
102
RTVSPost2010PropOp55
 70
     1
102
RTVSPost2010Prop56
140
1.0
102
RTVSPost2010PropOp56
 70
     1
102
RTVSPost2010Prop57
140
1.0
102
RTVSPost2010PropOp57
 70
     1
102
RTVSPropertyOp0
 70
     1
102
RTVSPropertyOp1
 70
     1
102
RTVSPropertyOp2
 70
     1
102
RTVSPropertyOp3
 70
     1
102
RTVSPropertyOp4
 70
     1
102
RTVSPropertyOp5
 70
     1
102
RTVSPropertyOp6
 70
     1
102
RTVSPropertyOp7
 70
     1
102
RTVSPropertyOp8
 70
     1
102
RTVSPropertyOp9
 70
     1
102
RTVSPropertyOp10
 70
     1
102
RTVSPropertyOp11
 70
     1
102
RTVSPropertyOp12
 70
     1
102
RTVSPropertyOp13
 70
     1
102
RTVSPropertyOp14
 70
     1
102
RTVSPropertyOp15
 70
     1
102
RTVSPropertyOp16
 70
     1
102
RTVSPropertyOp17
 70
     1
102
RTVSPropertyOp18
 70
     1
102
RTVSPropertyOp19
 70
     1
102
RTVSPropertyOp20
 70
     1
102
RTVSPropertyOp21
 70
     1
102
RTVSPropertyOp22
 70
     1
102
RTVSPropertyOp23
 70
     1
102
RTVSPropertyOp24
 70
     1
102
RTVSPropertyOp25
 70
     1
102
RTVSPropertyOp26
 70
     1
102
RTVSPropertyOp27
 70
     1
102
RTVSPropertyOp28
 70
     1
102
RTVSPropertyOp29
 70
     1
102
RTVSPropertyOp30
 70
     1
102
RTVSPropertyOp31
 70
     1
102
RTVSPropertyOp32
 70
     1
102
RTVSPropertyOp33
 70
     1
102
RTVSPropertyOp34
 70
     1
102
RTVSPropertyOp35
 70
     1
102
RTVSPropertyOp36
 70
     1
102
RTVSPropertyOp37
 70
     1
102
RTVSPropertyOp38
 70
     1
102
RTVSPropertyOp39
 70
     1
102
RTVSPropertyOp40
 70
     1
102
RTVSPropertyOp41
 70
     1
102
RTVSPropertyOp42
 70
     1
102
RTVSPropertyOp43
 70
     1
102
RTVSPropertyOp44
 70
     1
102
RTVSPropertyOp45
 70
     1
102
RTVSPropertyOp46
 70
     1
102
RTVSPropertyOp47
 70
     1
102
RTVSPropertyOp48
 70
     1
102
RTVSPropertyOp49
 70
     1
102
RTVSPropertyOp50
 70
     1
102
RTVSPropertyOp51
 70
     0
102
RTVSPropertyOp52
 70
     0
102
RTVSPropertyOp53
 70
     1
102
RTVSPropertyOp54
 70
     1
102
RTVSPropertyOp55
 70
     1
102
RTVSPropertyOp56
 70
     1
102
RTVSPropertyOp57
 70
     1
102
RTVSPropertyOp58
 70
     1
102
RTVSPropertyOp59
 70
     1
102
RTVSPropertyOp60
 70
     1
102
RTVSPropertyOp61
 70
     1
102
RTVSPropertyOp62
 70
     1
  0
XRECORD
  5
3F3
102
{ACAD_REACTORS
330
3F2
102
}
330
3F2
100
AcDbXrecord
280
     1
102
RTVSPost2010Prop28
280
     0
102
RTVSPost2010PropOp28
 70
     1
102
RTVSPost2010Prop29
280
     1
102
RTVSPost2010PropOp29
 70
     1
102
RTVSPost2010Prop30
280
     1
102
RTVSPost2010PropOp30
 70
     1
102
RTVSPost2010Prop31
280
     0
102
RTVSPost2010PropOp31
 70
     1
102
RTVSPost2010Prop32
280
     0
102
RTVSPost2010PropOp32
 70
     1
102
RTVSPost2010Prop33
280
     0
102
RTVSPost2010PropOp33
 70
     1
102
RTVSPost2010Prop34
280
     0
102
RTVSPost2010PropOp34
 70
     1
102
RTVSPost2010Prop35
280
     0
102
RTVSPost2010PropOp35
 70
     1
102
RTVSPost2010Prop36
280
     0
102
RTVSPost2010PropOp36
 70
     1
102
RTVSPost2010Prop37
 90
       50
102
RTVSPost2010PropOp37
 70
     1
102
RTVSPost2010Prop38
140
0.0
102
RTVSPost2010PropOp38
 70
     1
102
RTVSPost2010Prop39
140
1.0
102
RTVSPost2010PropOp39
 70
     1
102
RTVSPost2010Prop40
 90
        0
102
RTVSPost2010PropOp40
 70
     1
102
RTVSPost2010Prop41ColorIndex
 90
       18
102
RTVSPost2010Prop41ColorRGB
 90
        0
102
RTVSPost2010PropOp41
 70
     1
102
RTVSPost2010Prop42
 90
       50
102
RTVSPost2010PropOp42
 70
     1
102
RTVSPost2010Prop43
 90
        3
102
RTVSPost2010PropOp43
 70
     1
102
RTVSPost2010Prop44ColorIndex
 90
        5
102
RTVSPost2010Prop44ColorRGB
 90
      255
102
RTVSPost2010PropOp44
 70
     1
102
RTVSPost2010Prop45
280
     0
102
RTVSPost2010PropOp45
 70
     1
102
RTVSPost2010Prop46
 90
       50
102
RTVSPost2010PropOp46
 70
     1
102
RTVSPost2010Prop47
 90
       50
102
RTVSPost2010PropOp47
 70
     1
102
RTVSPost2010Prop48
 90
       50
102
RTVSPost2010PropOp48
 70
     1
102
RTVSPost2010Prop49
280
     0
102
RTVSPost2010PropOp49
 70
     1
102
RTVSPost2010Prop50
 90
       50
102
RTVSPost2010PropOp50
 70
     1
102
RTVSPost2010Prop51ColorIndex
 90
      256
102
RTVSPost2010Prop51ColorRGB
 90
-16777216
102
RTVSPost2010PropOp51
 70
     0
102
RTVSPost2010Prop52
140
1.0
102
RTVSPost2010PropOp52
 70
     0
102
RTVSPost2010Prop53
 90
        2
102
RTVSPost2010PropOp53
 70
     1
102
RTVSPost2010Prop54
  1
strokes_ogs.tif
102
RTVSPost2010PropOp54
 70
     1
102
RTVSPost2010Prop55
280
     0
102
RTVSPost2010PropOp55
 70
     1
102
RTVSPost2010Prop56
140
1.0
102
RTVSPost2010PropOp56
 70
     1
102
RTVSPost2010Prop57
140
1.0
102
RTVSPost2010PropOp57
 70
     1
102
RTVSPropertyOp0
 70
     1
102
RTVSPropertyOp1
 70
     1
102
RTVSPropertyOp2
 70
     1
102
RTVSPropertyOp3
 70
     1
102
RTVSPropertyOp4
 70
     1
102
RTVSPropertyOp5
 70
     1
102
RTVSPropertyOp6
 70
     1
102
RTVSPropertyOp7
 70
     1
102
RTVSPropertyOp8
 70
     1
102
RTVSPropertyOp9
 70
     1
102
RTVSPropertyOp10
 70
     1
102
RTVSPropertyOp11
 70
     1
102
RTVSPropertyOp12
 70
     1
102
RTVSPropertyOp13
 70
     1
102
RTVSPropertyOp14
 70
     1
102
RTVSPropertyOp15
 70
     1
102
RTVSPropertyOp16
 70
     1
102
RTVSPropertyOp17
 70
     1
102
RTVSPropertyOp18
 70
     1
102
RTVSPropertyOp19
 70
     1
102
RTVSPropertyOp20
 70
     1
102
RTVSPropertyOp21
 70
     1
102
RTVSPropertyOp22
 70
     1
102
RTVSPropertyOp23
 70
     1
102
RTVSPropertyOp24
 70
     1
102
RTVSPropertyOp25
 70
     1
102
RTVSPropertyOp26
 70
     1
102
RTVSPropertyOp27
 70
     1
102
RTVSPropertyOp28
 70
     1
102
RTVSPropertyOp29
 70
     1
102
RTVSPropertyOp30
 70
     1
102
RTVSPropertyOp31
 70
     1
102
RTVSPropertyOp32
 70
     1
102
RTVSPropertyOp33
 70
     1
102
RTVSPropertyOp34
 70
     1
102
RTVSPropertyOp35
 70
     1
102
RTVSPropertyOp36
 70
     1
102
RTVSPropertyOp37
 70
     1
102
RTVSPropertyOp38
 70
     1
102
RTVSPropertyOp39
 70
     1
102
RTVSPropertyOp40
 70
     1
102
RTVSPropertyOp41
 70
     1
102
RTVSPropertyOp42
 70
     1
102
RTVSPropertyOp43
 70
     1
102
RTVSPropertyOp44
 70
     1
102
RTVSPropertyOp45
 70
     1
102
RTVSPropertyOp46
 70
     1
102
RTVSPropertyOp47
 70
     1
102
RTVSPropertyOp48
 70
     1
102
RTVSPropertyOp49
 70
     1
102
RTVSPropertyOp50
 70
     1
102
RTVSPropertyOp51
 70
     0
102
RTVSPropertyOp52
 70
     0
102
RTVSPropertyOp53
 70
     1
102
RTVSPropertyOp54
 70
     1
102
RTVSPropertyOp55
 70
     1
102
RTVSPropertyOp56
 70
     1
102
RTVSPropertyOp57
 70
     1
102
RTVSPropertyOp58
 70
     1
102
RTVSPropertyOp59
 70
     1
102
RTVSPropertyOp60
 70
     1
102
RTVSPropertyOp61
 70
     1
102
RTVSPropertyOp62
 70
     1
  0
XRECORD
  5
3E5
102
{ACAD_REACTORS
330
3E4
102
}
330
3E4
100
AcDbXrecord
280
     1
102
RTVSPost2010Prop28
280
     0
102
RTVSPost2010PropOp28
 70
     1
102
RTVSPost2010Prop29
280
     1
102
RTVSPost2010PropOp29
 70
     1
102
RTVSPost2010Prop30
280
     1
102
RTVSPost2010PropOp30
 70
     1
102
RTVSPost2010Prop31
280
     0
102
RTVSPost2010PropOp31
 70
     1
102
RTVSPost2010Prop32
280
     0
102
RTVSPost2010PropOp32
 70
     1
102
RTVSPost2010Prop33
280
     0
102
RTVSPost2010PropOp33
 70
     1
102
RTVSPost2010Prop34
280
     0
102
RTVSPost2010PropOp34
 70
     1
102
RTVSPost2010Prop35
280
     0
102
RTVSPost2010PropOp35
 70
     1
102
RTVSPost2010Prop36
280
     0
102
RTVSPost2010PropOp36
 70
     1
102
RTVSPost2010Prop37
 90
       50
102
RTVSPost2010PropOp37
 70
     1
102
RTVSPost2010Prop38
140
0.0
102
RTVSPost2010PropOp38
 70
     1
102
RTVSPost2010Prop39
140
1.0
102
RTVSPost2010PropOp39
 70
     1
102
RTVSPost2010Prop40
 90
        0
102
RTVSPost2010PropOp40
 70
     1
102
RTVSPost2010Prop41ColorIndex
 90
       18
102
RTVSPost2010Prop41ColorRGB
 90
        0
102
RTVSPost2010PropOp41
 70
     1
102
RTVSPost2010Prop42
 90
       50
102
RTVSPost2010PropOp42
 70
     1
102
RTVSPost2010Prop43
 90
        3
102
RTVSPost2010PropOp43
 70
     1
102
RTVSPost2010Prop44ColorIndex
 90
        5
102
RTVSPost2010Prop44ColorRGB
 90
      255
102
RTVSPost2010PropOp44
 70
     1
102
RTVSPost2010Prop45
280
     0
102
RTVSPost2010PropOp45
 70
     1
102
RTVSPost2010Prop46
 90
       50
102
RTVSPost2010PropOp46
 70
     1
102
RTVSPost2010Prop47
 90
       50
102
RTVSPost2010PropOp47
 70
     1
102
RTVSPost2010Prop48
 90
       50
102
RTVSPost2010PropOp48
 70
     1
102
RTVSPost2010Prop49
280
     0
102
RTVSPost2010PropOp49
 70
     1
102
RTVSPost2010Prop50
 90
       50
102
RTVSPost2010PropOp50
 70
     1
102
RTVSPost2010Prop51ColorIndex
 90
      256
102
RTVSPost2010Prop51ColorRGB
 90
-16777216
102
RTVSPost2010PropOp51
 70
     0
102
RTVSPost2010Prop52
140
1.0
102
RTVSPost2010PropOp52
 70
     0
102
RTVSPost2010Prop53
 90
        2
102
RTVSPost2010PropOp53
 70
     1
102
RTVSPost2010Prop54
  1
strokes_ogs.tif
102
RTVSPost2010PropOp54
 70
     1
102
RTVSPost2010Prop55
280
     0
102
RTVSPost2010PropOp55
 70
     1
102
RTVSPost2010Prop56
140
1.0
102
RTVSPost2010PropOp56
 70
     1
102
RTVSPost2010Prop57
140
1.0
102
RTVSPost2010PropOp57
 70
     1
102
RTVSPropertyOp0
 70
     1
102
RTVSPropertyOp1
 70
     1
102
RTVSPropertyOp2
 70
     1
102
RTVSPropertyOp3
 70
     1
102
RTVSPropertyOp4
 70
     1
102
RTVSPropertyOp5
 70
     1
102
RTVSPropertyOp6
 70
     1
102
RTVSPropertyOp7
 70
     1
102
RTVSPropertyOp8
 70
     1
102
RTVSPropertyOp9
 70
     1
102
RTVSPropertyOp10
 70
     1
102
RTVSPropertyOp11
 70
     1
102
RTVSPropertyOp12
 70
     1
102
RTVSPropertyOp13
 70
     1
102
RTVSPropertyOp14
 70
     1
102
RTVSPropertyOp15
 70
     1
102
RTVSPropertyOp16
 70
     1
102
RTVSPropertyOp17
 70
     1
102
RTVSPropertyOp18
 70
     1
102
RTVSPropertyOp19
 70
     1
102
RTVSPropertyOp20
 70
     1
102
RTVSPropertyOp21
 70
     1
102
RTVSPropertyOp22
 70
     1
102
RTVSPropertyOp23
 70
     1
102
RTVSPropertyOp24
 70
     1
102
RTVSPropertyOp25
 70
     1
102
RTVSPropertyOp26
 70
     1
102
RTVSPropertyOp27
 70
     1
102
RTVSPropertyOp28
 70
     1
102
RTVSPropertyOp29
 70
     1
102
RTVSPropertyOp30
 70
     1
102
RTVSPropertyOp31
 70
     1
102
RTVSPropertyOp32
 70
     1
102
RTVSPropertyOp33
 70
     1
102
RTVSPropertyOp34
 70
     1
102
RTVSPropertyOp35
 70
     1
102
RTVSPropertyOp36
 70
     1
102
RTVSPropertyOp37
 70
     1
102
RTVSPropertyOp38
 70
     1
102
RTVSPropertyOp39
 70
     1
102
RTVSPropertyOp40
 70
     1
102
RTVSPropertyOp41
 70
     1
102
RTVSPropertyOp42
 70
     1
102
RTVSPropertyOp43
 70
     1
102
RTVSPropertyOp44
 70
     1
102
RTVSPropertyOp45
 70
     1
102
RTVSPropertyOp46
 70
     1
102
RTVSPropertyOp47
 70
     1
102
RTVSPropertyOp48
 70
     1
102
RTVSPropertyOp49
 70
     1
102
RTVSPropertyOp50
 70
     1
102
RTVSPropertyOp51
 70
     0
102
RTVSPropertyOp52
 70
     0
102
RTVSPropertyOp53
 70
     1
102
RTVSPropertyOp54
 70
     1
102
RTVSPropertyOp55
 70
     1
102
RTVSPropertyOp56
 70
     1
102
RTVSPropertyOp57
 70
     1
102
RTVSPropertyOp58
 70
     1
102
RTVSPropertyOp59
 70
     1
102
RTVSPropertyOp60
 70
     1
102
RTVSPropertyOp61
 70
     1
102
RTVSPropertyOp62
 70
     1
  0
XRECORD
  5
405
102
{ACAD_REACTORS
330
404
102
}
330
404
100
AcDbXrecord
280
     1
102
RTVSPost2010Prop28
280
     0
102
RTVSPost2010PropOp28
 70
     1
102
RTVSPost2010Prop29
280
     1
102
RTVSPost2010PropOp29
 70
     1
102
RTVSPost2010Prop30
280
     1
102
RTVSPost2010PropOp30
 70
     1
102
RTVSPost2010Prop31
280
     0
102
RTVSPost2010PropOp31
 70
     1
102
RTVSPost2010Prop32
280
     0
102
RTVSPost2010PropOp32
 70
     1
102
RTVSPost2010Prop33
280
     0
102
RTVSPost2010PropOp33
 70
     1
102
RTVSPost2010Prop34
280
     0
102
RTVSPost2010PropOp34
 70
     1
102
RTVSPost2010Prop35
280
     0
102
RTVSPost2010PropOp35
 70
     1
102
RTVSPost2010Prop36
280
     0
102
RTVSPost2010PropOp36
 70
     1
102
RTVSPost2010Prop37
 90
       50
102
RTVSPost2010PropOp37
 70
     1
102
RTVSPost2010Prop38
140
0.0
102
RTVSPost2010PropOp38
 70
     1
102
RTVSPost2010Prop39
140
1.0
102
RTVSPost2010PropOp39
 70
     1
102
RTVSPost2010Prop40
 90
        0
102
RTVSPost2010PropOp40
 70
     1
102
RTVSPost2010Prop41ColorIndex
 90
       18
102
RTVSPost2010Prop41ColorRGB
 90
        0
102
RTVSPost2010PropOp41
 70
     1
102
RTVSPost2010Prop42
 90
       50
102
RTVSPost2010PropOp42
 70
     1
102
RTVSPost2010Prop43
 90
        3
102
RTVSPost2010PropOp43
 70
     1
102
RTVSPost2010Prop44ColorIndex
 90
        5
102
RTVSPost2010Prop44ColorRGB
 90
      255
102
RTVSPost2010PropOp44
 70
     1
102
RTVSPost2010Prop45
280
     0
102
RTVSPost2010PropOp45
 70
     1
102
RTVSPost2010Prop46
 90
       50
102
RTVSPost2010PropOp46
 70
     1
102
RTVSPost2010Prop47
 90
       50
102
RTVSPost2010PropOp47
 70
     1
102
RTVSPost2010Prop48
 90
       50
102
RTVSPost2010PropOp48
 70
     1
102
RTVSPost2010Prop49
280
     0
102
RTVSPost2010PropOp49
 70
     1
102
RTVSPost2010Prop50
 90
       50
102
RTVSPost2010PropOp50
 70
     1
102
RTVSPost2010Prop51ColorIndex
 90
      256
102
RTVSPost2010Prop51ColorRGB
 90
-16777216
102
RTVSPost2010PropOp51
 70
     0
102
RTVSPost2010Prop52
140
1.0
102
RTVSPost2010PropOp52
 70
     0
102
RTVSPost2010Prop53
 90
        2
102
RTVSPost2010PropOp53
 70
     1
102
RTVSPost2010Prop54
  1
strokes_ogs.tif
102
RTVSPost2010PropOp54
 70
     1
102
RTVSPost2010Prop55
280
     0
102
RTVSPost2010PropOp55
 70
     1
102
RTVSPost2010Prop56
140
1.0
102
RTVSPost2010PropOp56
 70
     1
102
RTVSPost2010Prop57
140
1.0
102
RTVSPost2010PropOp57
 70
     1
102
RTVSPropertyOp0
 70
     1
102
RTVSPropertyOp1
 70
     1
102
RTVSPropertyOp2
 70
     1
102
RTVSPropertyOp3
 70
     1
102
RTVSPropertyOp4
 70
     1
102
RTVSPropertyOp5
 70
     1
102
RTVSPropertyOp6
 70
     1
102
RTVSPropertyOp7
 70
     1
102
RTVSPropertyOp8
 70
     1
102
RTVSPropertyOp9
 70
     1
102
RTVSPropertyOp10
 70
     1
102
RTVSPropertyOp11
 70
     1
102
RTVSPropertyOp12
 70
     1
102
RTVSPropertyOp13
 70
     1
102
RTVSPropertyOp14
 70
     1
102
RTVSPropertyOp15
 70
     1
102
RTVSPropertyOp16
 70
     1
102
RTVSPropertyOp17
 70
     1
102
RTVSPropertyOp18
 70
     1
102
RTVSPropertyOp19
 70
     1
102
RTVSPropertyOp20
 70
     1
102
RTVSPropertyOp21
 70
     1
102
RTVSPropertyOp22
 70
     1
102
RTVSPropertyOp23
 70
     1
102
RTVSPropertyOp24
 70
     1
102
RTVSPropertyOp25
 70
     1
102
RTVSPropertyOp26
 70
     1
102
RTVSPropertyOp27
 70
     1
102
RTVSPropertyOp28
 70
     1
102
RTVSPropertyOp29
 70
     1
102
RTVSPropertyOp30
 70
     1
102
RTVSPropertyOp31
 70
     1
102
RTVSPropertyOp32
 70
     1
102
RTVSPropertyOp33
 70
     1
102
RTVSPropertyOp34
 70
     1
102
RTVSPropertyOp35
 70
     1
102
RTVSPropertyOp36
 70
     1
102
RTVSPropertyOp37
 70
     1
102
RTVSPropertyOp38
 70
     1
102
RTVSPropertyOp39
 70
     1
102
RTVSPropertyOp40
 70
     1
102
RTVSPropertyOp41
 70
     1
102
RTVSPropertyOp42
 70
     1
102
RTVSPropertyOp43
 70
     1
102
RTVSPropertyOp44
 70
     1
102
RTVSPropertyOp45
 70
     1
102
RTVSPropertyOp46
 70
     1
102
RTVSPropertyOp47
 70
     1
102
RTVSPropertyOp48
 70
     1
102
RTVSPropertyOp49
 70
     1
102
RTVSPropertyOp50
 70
     1
102
RTVSPropertyOp51
 70
     0
102
RTVSPropertyOp52
 70
     0
102
RTVSPropertyOp53
 70
     1
102
RTVSPropertyOp54
 70
     1
102
RTVSPropertyOp55
 70
     1
102
RTVSPropertyOp56
 70
     1
102
RTVSPropertyOp57
 70
     1
102
RTVSPropertyOp58
 70
     1
102
RTVSPropertyOp59
 70
     1
102
RTVSPropertyOp60
 70
     1
102
RTVSPropertyOp61
 70
     1
102
RTVSPropertyOp62
 70
     1
  0
ENDSEC
  0
EOF
