ISO-10303-21;
HEADER;
/* Generated by software containing ST-Developer
 * from STEP Tools, Inc. (www.steptools.com) 
 */
/* OPTION: using custom schema-name function */

FILE_DESCRIPTION(
/* description */ (''),
/* implementation_level */ '2;1');

FILE_NAME(
/* name */ 'HSK.63A-W.20.100.C.stp',
/* time_stamp */ '2024-07-21T17:03:33+02:00',
/* author */ (''),
/* organization */ (''),
/* preprocessor_version */ 'ST-DEVELOPER v16.7',
/* originating_system */ 'SIEMENS PLM Software NX 12.0',
/* authorisation */ '');

FILE_SCHEMA (('AUTOMOTIVE_DESIGN { 1 0 10303 214 3 1 1 1 }'));
ENDSEC;

DATA;
#10=CONSTRUCTIVE_GEOMETRY_REPRESENTATION_RELATIONSHIP(
'supplemental geometry','',#32,#11);
#11=CONSTRUCTIVE_GEOMETRY_REPRESENTATION('supplemental geometry',(#341,
#342,#343),#576);
#12=PROPERTY_DEFINITION_REPRESENTATION(#16,#14);
#13=PROPERTY_DEFINITION_REPRESENTATION(#17,#15);
#14=REPRESENTATION('',(#18),#576);
#15=REPRESENTATION('',(#19),#576);
#16=PROPERTY_DEFINITION('pmi validation property','',#23);
#17=PROPERTY_DEFINITION('pmi validation property','',#23);
#18=VALUE_REPRESENTATION_ITEM('number of annotations',COUNT_MEASURE(0.));
#19=VALUE_REPRESENTATION_ITEM('number of views',COUNT_MEASURE(0.));
#20=SHAPE_REPRESENTATION_RELATIONSHIP('None',
'relationship between pf6612088076ypmu-None and pf6612088076ypmu-None',
#32,#21);
#21=ADVANCED_BREP_SHAPE_REPRESENTATION('pf6612088076ypmu-None',(#38),#576);
#22=SHAPE_DEFINITION_REPRESENTATION(#23,#32);
#23=PRODUCT_DEFINITION_SHAPE('','',#24);
#24=PRODUCT_DEFINITION(' ','',#26,#25);
#25=PRODUCT_DEFINITION_CONTEXT('part definition',#31,'design');
#26=PRODUCT_DEFINITION_FORMATION_WITH_SPECIFIED_SOURCE(' ',' ',#28,
 .NOT_KNOWN.);
#27=PRODUCT_RELATED_PRODUCT_CATEGORY('part','',(#28));
#28=PRODUCT('pf6612088076ypmu','pf6612088076ypmu',' ',(#29));
#29=PRODUCT_CONTEXT(' ',#31,'mechanical');
#30=APPLICATION_PROTOCOL_DEFINITION('international standard',
'automotive_design',2010,#31);
#31=APPLICATION_CONTEXT(
'core data for automotive mechanical design processes');
#32=SHAPE_REPRESENTATION('pf6612088076ypmu-None',(#340),#576);
#33=SURFACE_STYLE_USAGE(.BOTH.,#34);
#34=SURFACE_SIDE_STYLE('',(#35));
#35=SURFACE_STYLE_FILL_AREA(#36);
#36=FILL_AREA_STYLE('',(#37));
#37=FILL_AREA_STYLE_COLOUR('',#336);
#38=MANIFOLD_SOLID_BREP('\X\B0\X2\014100AE0106\X0\-\X\A6\X2\016E015E0158\X0\9',
#39);
#39=CLOSED_SHELL('',(#82,#83,#84,#85,#86,#87,#88,#89,#90,#91,#92,#93,#94,
#95,#96,#97,#98,#99,#100));
#40=PLANE('',#358);
#41=PLANE('',#365);
#42=PLANE('',#370);
#43=PLANE('',#374);
#44=PLANE('',#381);
#45=PLANE('',#384);
#46=TOROIDAL_SURFACE('',#351,28.,0.5);
#47=TOROIDAL_SURFACE('',#375,28.,0.5);
#48=TOROIDAL_SURFACE('',#378,26.8,0.8);
#49=FACE_BOUND('',#114,.T.);
#50=FACE_BOUND('',#115,.T.);
#51=FACE_BOUND('',#116,.T.);
#52=FACE_BOUND('',#117,.T.);
#53=FACE_BOUND('',#120,.T.);
#54=FACE_BOUND('',#121,.T.);
#55=FACE_BOUND('',#122,.T.);
#56=FACE_BOUND('',#123,.T.);
#57=FACE_BOUND('',#124,.T.);
#58=FACE_BOUND('',#125,.T.);
#59=FACE_BOUND('',#126,.T.);
#60=FACE_BOUND('',#127,.T.);
#61=FACE_BOUND('',#128,.T.);
#62=FACE_BOUND('',#129,.T.);
#63=FACE_BOUND('',#130,.T.);
#64=FACE_BOUND('',#131,.T.);
#65=FACE_BOUND('',#132,.T.);
#66=FACE_BOUND('',#133,.T.);
#67=FACE_BOUND('',#134,.T.);
#68=FACE_BOUND('',#135,.T.);
#69=FACE_BOUND('',#136,.T.);
#70=FACE_BOUND('',#137,.T.);
#71=FACE_BOUND('',#138,.T.);
#72=FACE_BOUND('',#139,.T.);
#73=FACE_BOUND('',#142,.T.);
#74=FACE_BOUND('',#143,.T.);
#75=FACE_BOUND('',#144,.T.);
#76=FACE_BOUND('',#145,.T.);
#77=CYLINDRICAL_SURFACE('',#348,26.);
#78=CYLINDRICAL_SURFACE('',#353,27.5);
#79=CYLINDRICAL_SURFACE('',#356,26.);
#80=CYLINDRICAL_SURFACE('',#362,31.5);
#81=CYLINDRICAL_SURFACE('',#371,31.5);
#82=ADVANCED_FACE('',(#106),#101,.T.);
#83=ADVANCED_FACE('',(#107),#77,.T.);
#84=ADVANCED_FACE('',(#49,#50),#46,.F.);
#85=ADVANCED_FACE('',(#51,#52),#78,.T.);
#86=ADVANCED_FACE('',(#108),#79,.T.);
#87=ADVANCED_FACE('',(#109),#40,.T.);
#88=ADVANCED_FACE('',(#53,#54),#80,.T.);
#89=ADVANCED_FACE('',(#55,#56),#41,.T.);
#90=ADVANCED_FACE('',(#57,#58),#102,.T.);
#91=ADVANCED_FACE('',(#59,#60),#42,.T.);
#92=ADVANCED_FACE('',(#61,#62),#81,.T.);
#93=ADVANCED_FACE('',(#63,#64),#103,.T.);
#94=ADVANCED_FACE('',(#65,#66),#43,.T.);
#95=ADVANCED_FACE('',(#67,#68),#47,.F.);
#96=ADVANCED_FACE('',(#69,#70),#48,.F.);
#97=ADVANCED_FACE('',(#71,#72),#44,.T.);
#98=ADVANCED_FACE('',(#110),#104,.T.);
#99=ADVANCED_FACE('',(#111),#45,.T.);
#100=ADVANCED_FACE('',(#73,#74,#75,#76),#105,.T.);
#101=CONICAL_SURFACE('',#346,20.,24.9999999999999);
#102=CONICAL_SURFACE('',#367,28.8975952641916,60.0000000000003);
#103=CONICAL_SURFACE('',#373,31.5,60.);
#104=CONICAL_SURFACE('',#382,20.,24.9999999999999);
#105=CONICAL_SURFACE('',#385,24.215428458585,2.86810000000001);
#106=FACE_OUTER_BOUND('',#112,.T.);
#107=FACE_OUTER_BOUND('',#113,.T.);
#108=FACE_OUTER_BOUND('',#118,.T.);
#109=FACE_OUTER_BOUND('',#119,.T.);
#110=FACE_OUTER_BOUND('',#140,.T.);
#111=FACE_OUTER_BOUND('',#141,.T.);
#112=EDGE_LOOP('',(#166,#167,#168,#169));
#113=EDGE_LOOP('',(#170,#171,#172,#173));
#114=EDGE_LOOP('',(#174));
#115=EDGE_LOOP('',(#175));
#116=EDGE_LOOP('',(#176));
#117=EDGE_LOOP('',(#177));
#118=EDGE_LOOP('',(#178,#179,#180,#181));
#119=EDGE_LOOP('',(#182,#183));
#120=EDGE_LOOP('',(#184));
#121=EDGE_LOOP('',(#185,#186,#187,#188,#189,#190));
#122=EDGE_LOOP('',(#191));
#123=EDGE_LOOP('',(#192));
#124=EDGE_LOOP('',(#193));
#125=EDGE_LOOP('',(#194));
#126=EDGE_LOOP('',(#195));
#127=EDGE_LOOP('',(#196));
#128=EDGE_LOOP('',(#197));
#129=EDGE_LOOP('',(#198));
#130=EDGE_LOOP('',(#199));
#131=EDGE_LOOP('',(#200));
#132=EDGE_LOOP('',(#201));
#133=EDGE_LOOP('',(#202));
#134=EDGE_LOOP('',(#203));
#135=EDGE_LOOP('',(#204));
#136=EDGE_LOOP('',(#205));
#137=EDGE_LOOP('',(#206,#207,#208,#209,#210,#211));
#138=EDGE_LOOP('',(#212,#213));
#139=EDGE_LOOP('',(#214,#215));
#140=EDGE_LOOP('',(#216,#217,#218,#219));
#141=EDGE_LOOP('',(#220));
#142=EDGE_LOOP('',(#221,#222));
#143=EDGE_LOOP('',(#223));
#144=EDGE_LOOP('',(#224,#225));
#145=EDGE_LOOP('',(#226,#227,#228,#229,#230,#231));
#146=LINE('',#495,#156);
#147=LINE('',#499,#157);
#148=LINE('',#504,#158);
#149=LINE('',#505,#159);
#150=LINE('',#522,#160);
#151=LINE('',#527,#161);
#152=LINE('',#564,#162);
#153=LINE('',#567,#163);
#154=LINE('',#570,#164);
#155=LINE('',#572,#165);
#156=VECTOR('',#396,1.);
#157=VECTOR('',#399,1.);
#158=VECTOR('',#404,1.);
#159=VECTOR('',#405,1.);
#160=VECTOR('',#430,1.);
#161=VECTOR('',#433,1.);
#162=VECTOR('',#482,1.);
#163=VECTOR('',#483,1.);
#164=VECTOR('',#484,1.);
#165=VECTOR('',#485,1.);
#166=ORIENTED_EDGE('',*,*,#263,.F.);
#167=ORIENTED_EDGE('',*,*,#264,.F.);
#168=ORIENTED_EDGE('',*,*,#265,.F.);
#169=ORIENTED_EDGE('',*,*,#266,.T.);
#170=ORIENTED_EDGE('',*,*,#267,.T.);
#171=ORIENTED_EDGE('',*,*,#268,.T.);
#172=ORIENTED_EDGE('',*,*,#265,.T.);
#173=ORIENTED_EDGE('',*,*,#269,.F.);
#174=ORIENTED_EDGE('',*,*,#270,.F.);
#175=ORIENTED_EDGE('',*,*,#271,.F.);
#176=ORIENTED_EDGE('',*,*,#272,.T.);
#177=ORIENTED_EDGE('',*,*,#270,.T.);
#178=ORIENTED_EDGE('',*,*,#268,.F.);
#179=ORIENTED_EDGE('',*,*,#273,.T.);
#180=ORIENTED_EDGE('',*,*,#269,.T.);
#181=ORIENTED_EDGE('',*,*,#274,.T.);
#182=ORIENTED_EDGE('',*,*,#263,.T.);
#183=ORIENTED_EDGE('',*,*,#275,.T.);
#184=ORIENTED_EDGE('',*,*,#276,.T.);
#185=ORIENTED_EDGE('',*,*,#277,.T.);
#186=ORIENTED_EDGE('',*,*,#277,.F.);
#187=ORIENTED_EDGE('',*,*,#278,.F.);
#188=ORIENTED_EDGE('',*,*,#279,.T.);
#189=ORIENTED_EDGE('',*,*,#279,.F.);
#190=ORIENTED_EDGE('',*,*,#280,.F.);
#191=ORIENTED_EDGE('',*,*,#281,.T.);
#192=ORIENTED_EDGE('',*,*,#282,.T.);
#193=ORIENTED_EDGE('',*,*,#282,.F.);
#194=ORIENTED_EDGE('',*,*,#283,.T.);
#195=ORIENTED_EDGE('',*,*,#284,.T.);
#196=ORIENTED_EDGE('',*,*,#285,.T.);
#197=ORIENTED_EDGE('',*,*,#283,.F.);
#198=ORIENTED_EDGE('',*,*,#284,.F.);
#199=ORIENTED_EDGE('',*,*,#286,.T.);
#200=ORIENTED_EDGE('',*,*,#276,.F.);
#201=ORIENTED_EDGE('',*,*,#271,.T.);
#202=ORIENTED_EDGE('',*,*,#286,.F.);
#203=ORIENTED_EDGE('',*,*,#272,.F.);
#204=ORIENTED_EDGE('',*,*,#281,.F.);
#205=ORIENTED_EDGE('',*,*,#285,.F.);
#206=ORIENTED_EDGE('',*,*,#287,.F.);
#207=ORIENTED_EDGE('',*,*,#267,.F.);
#208=ORIENTED_EDGE('',*,*,#288,.T.);
#209=ORIENTED_EDGE('',*,*,#288,.F.);
#210=ORIENTED_EDGE('',*,*,#273,.F.);
#211=ORIENTED_EDGE('',*,*,#287,.T.);
#212=ORIENTED_EDGE('',*,*,#289,.F.);
#213=ORIENTED_EDGE('',*,*,#290,.F.);
#214=ORIENTED_EDGE('',*,*,#280,.T.);
#215=ORIENTED_EDGE('',*,*,#278,.T.);
#216=ORIENTED_EDGE('',*,*,#264,.T.);
#217=ORIENTED_EDGE('',*,*,#275,.F.);
#218=ORIENTED_EDGE('',*,*,#266,.F.);
#219=ORIENTED_EDGE('',*,*,#274,.F.);
#220=ORIENTED_EDGE('',*,*,#291,.T.);
#221=ORIENTED_EDGE('',*,*,#292,.F.);
#222=ORIENTED_EDGE('',*,*,#292,.T.);
#223=ORIENTED_EDGE('',*,*,#291,.F.);
#224=ORIENTED_EDGE('',*,*,#293,.F.);
#225=ORIENTED_EDGE('',*,*,#293,.T.);
#226=ORIENTED_EDGE('',*,*,#294,.T.);
#227=ORIENTED_EDGE('',*,*,#294,.F.);
#228=ORIENTED_EDGE('',*,*,#289,.T.);
#229=ORIENTED_EDGE('',*,*,#295,.T.);
#230=ORIENTED_EDGE('',*,*,#295,.F.);
#231=ORIENTED_EDGE('',*,*,#290,.T.);
#232=VERTEX_POINT('',#493);
#233=VERTEX_POINT('',#494);
#234=VERTEX_POINT('',#496);
#235=VERTEX_POINT('',#498);
#236=VERTEX_POINT('',#502);
#237=VERTEX_POINT('',#503);
#238=VERTEX_POINT('',#508);
#239=VERTEX_POINT('',#510);
#240=VERTEX_POINT('',#513);
#241=VERTEX_POINT('',#521);
#242=VERTEX_POINT('',#523);
#243=VERTEX_POINT('',#524);
#244=VERTEX_POINT('',#526);
#245=VERTEX_POINT('',#528);
#246=VERTEX_POINT('',#532);
#247=VERTEX_POINT('',#534);
#248=VERTEX_POINT('',#537);
#249=VERTEX_POINT('',#540);
#250=VERTEX_POINT('',#542);
#251=VERTEX_POINT('',#546);
#252=VERTEX_POINT('',#551);
#253=VERTEX_POINT('',#553);
#254=VERTEX_POINT('',#556);
#255=VERTEX_POINT('',#557);
#256=VERTEX_POINT('',#562);
#257=VERTEX_POINT('',#565);
#258=VERTEX_POINT('',#566);
#259=VERTEX_POINT('',#568);
#260=VERTEX_POINT('',#569);
#261=VERTEX_POINT('',#571);
#262=VERTEX_POINT('',#573);
#263=EDGE_CURVE('',#232,#233,#296,.T.);
#264=EDGE_CURVE('',#234,#232,#146,.T.);
#265=EDGE_CURVE('',#235,#234,#297,.T.);
#266=EDGE_CURVE('',#235,#233,#147,.T.);
#267=EDGE_CURVE('',#236,#237,#298,.T.);
#268=EDGE_CURVE('',#237,#235,#148,.T.);
#269=EDGE_CURVE('',#236,#234,#149,.T.);
#270=EDGE_CURVE('',#238,#238,#299,.T.);
#271=EDGE_CURVE('',#239,#239,#300,.T.);
#272=EDGE_CURVE('',#240,#240,#301,.T.);
#273=EDGE_CURVE('',#237,#236,#302,.T.);
#274=EDGE_CURVE('',#234,#235,#303,.T.);
#275=EDGE_CURVE('',#233,#232,#304,.T.);
#276=EDGE_CURVE('',#241,#241,#305,.T.);
#277=EDGE_CURVE('',#242,#243,#150,.T.);
#278=EDGE_CURVE('',#244,#242,#306,.T.);
#279=EDGE_CURVE('',#244,#245,#151,.T.);
#280=EDGE_CURVE('',#242,#244,#307,.T.);
#281=EDGE_CURVE('',#246,#246,#308,.T.);
#282=EDGE_CURVE('',#247,#247,#309,.T.);
#283=EDGE_CURVE('',#248,#248,#310,.T.);
#284=EDGE_CURVE('',#249,#249,#311,.T.);
#285=EDGE_CURVE('',#250,#250,#312,.T.);
#286=EDGE_CURVE('',#251,#251,#313,.T.);
#287=EDGE_CURVE('',#237,#252,#314,.T.);
#288=EDGE_CURVE('',#236,#253,#315,.T.);
#289=EDGE_CURVE('',#254,#255,#316,.T.);
#290=EDGE_CURVE('',#255,#254,#317,.T.);
#291=EDGE_CURVE('',#256,#256,#318,.T.);
#292=EDGE_CURVE('',#257,#258,#152,.T.);
#293=EDGE_CURVE('',#259,#260,#153,.T.);
#294=EDGE_CURVE('',#254,#261,#154,.T.);
#295=EDGE_CURVE('',#255,#262,#155,.T.);
#296=CIRCLE('',#344,20.);
#297=CIRCLE('',#345,26.);
#298=CIRCLE('',#347,26.);
#299=CIRCLE('',#349,27.5);
#300=CIRCLE('',#350,28.);
#301=CIRCLE('',#352,27.5);
#302=CIRCLE('',#354,26.);
#303=CIRCLE('',#355,26.);
#304=CIRCLE('',#357,20.);
#305=CIRCLE('',#359,31.5);
#306=CIRCLE('',#360,31.5);
#307=CIRCLE('',#361,31.5);
#308=CIRCLE('',#363,28.);
#309=CIRCLE('',#364,28.8975952641916);
#310=CIRCLE('',#366,31.5);
#311=CIRCLE('',#368,31.5);
#312=CIRCLE('',#369,26.8);
#313=CIRCLE('',#372,28.8975952641916);
#314=CIRCLE('',#376,0.799999999999999);
#315=CIRCLE('',#377,0.799999999999999);
#316=CIRCLE('',#379,24.3156277416478);
#317=CIRCLE('',#380,24.3156277416478);
#318=CIRCLE('',#383,22.7124392126429);
#319=INVISIBILITY((#320,#321,#322,#323));
#320=PRESENTATION_LAYER_ASSIGNMENT('100','Layer 100',(#341));
#321=PRESENTATION_LAYER_ASSIGNMENT('101','Layer 101',(#342));
#322=PRESENTATION_LAYER_ASSIGNMENT('102','Layer 102',(#343));
#323=PRESENTATION_LAYER_ASSIGNMENT('98','Layer 98',(#38));
#324=STYLED_ITEM('',(#328),#341);
#325=STYLED_ITEM('',(#329),#342);
#326=STYLED_ITEM('',(#330),#343);
#327=STYLED_ITEM('',(#331),#38);
#328=PRESENTATION_STYLE_ASSIGNMENT((#332));
#329=PRESENTATION_STYLE_ASSIGNMENT((#333));
#330=PRESENTATION_STYLE_ASSIGNMENT((#334));
#331=PRESENTATION_STYLE_ASSIGNMENT((#33));
#332=CURVE_STYLE('',#337,POSITIVE_LENGTH_MEASURE(0.7),#335);
#333=CURVE_STYLE('',#338,POSITIVE_LENGTH_MEASURE(0.7),#335);
#334=CURVE_STYLE('',#339,POSITIVE_LENGTH_MEASURE(0.7),#335);
#335=COLOUR_RGB('Medium Maroon',0.6,0.4,0.4);
#336=COLOUR_RGB('Medium Gray',0.490196078431373,0.490196078431373,0.490196078431373);
#337=DRAUGHTING_PRE_DEFINED_CURVE_FONT('continuous');
#338=DRAUGHTING_PRE_DEFINED_CURVE_FONT('continuous');
#339=DRAUGHTING_PRE_DEFINED_CURVE_FONT('continuous');
#340=AXIS2_PLACEMENT_3D('',#488,#386,#387);
#341=AXIS2_PLACEMENT_3D('PCS',#489,#388,#389);
#342=AXIS2_PLACEMENT_3D('CSW',#490,#390,#391);
#343=AXIS2_PLACEMENT_3D('MCS',#491,#392,#393);
#344=AXIS2_PLACEMENT_3D('',#492,#394,#395);
#345=AXIS2_PLACEMENT_3D('',#497,#397,#398);
#346=AXIS2_PLACEMENT_3D('',#500,#400,#401);
#347=AXIS2_PLACEMENT_3D('',#501,#402,#403);
#348=AXIS2_PLACEMENT_3D('',#506,#406,#407);
#349=AXIS2_PLACEMENT_3D('',#507,#408,#409);
#350=AXIS2_PLACEMENT_3D('',#509,#410,#411);
#351=AXIS2_PLACEMENT_3D('',#511,#412,#413);
#352=AXIS2_PLACEMENT_3D('',#512,#414,#415);
#353=AXIS2_PLACEMENT_3D('',#514,#416,#417);
#354=AXIS2_PLACEMENT_3D('',#515,#418,#419);
#355=AXIS2_PLACEMENT_3D('',#516,#420,#421);
#356=AXIS2_PLACEMENT_3D('',#517,#422,#423);
#357=AXIS2_PLACEMENT_3D('',#518,#424,#425);
#358=AXIS2_PLACEMENT_3D('',#519,#426,#427);
#359=AXIS2_PLACEMENT_3D('',#520,#428,#429);
#360=AXIS2_PLACEMENT_3D('',#525,#431,#432);
#361=AXIS2_PLACEMENT_3D('',#529,#434,#435);
#362=AXIS2_PLACEMENT_3D('',#530,#436,#437);
#363=AXIS2_PLACEMENT_3D('',#531,#438,#439);
#364=AXIS2_PLACEMENT_3D('',#533,#440,#441);
#365=AXIS2_PLACEMENT_3D('',#535,#442,#443);
#366=AXIS2_PLACEMENT_3D('',#536,#444,#445);
#367=AXIS2_PLACEMENT_3D('',#538,#446,#447);
#368=AXIS2_PLACEMENT_3D('',#539,#448,#449);
#369=AXIS2_PLACEMENT_3D('',#541,#450,#451);
#370=AXIS2_PLACEMENT_3D('',#543,#452,#453);
#371=AXIS2_PLACEMENT_3D('',#544,#454,#455);
#372=AXIS2_PLACEMENT_3D('',#545,#456,#457);
#373=AXIS2_PLACEMENT_3D('',#547,#458,#459);
#374=AXIS2_PLACEMENT_3D('',#548,#460,#461);
#375=AXIS2_PLACEMENT_3D('',#549,#462,#463);
#376=AXIS2_PLACEMENT_3D('',#550,#464,#465);
#377=AXIS2_PLACEMENT_3D('',#552,#466,#467);
#378=AXIS2_PLACEMENT_3D('',#554,#468,#469);
#379=AXIS2_PLACEMENT_3D('',#555,#470,#471);
#380=AXIS2_PLACEMENT_3D('',#558,#472,#473);
#381=AXIS2_PLACEMENT_3D('',#559,#474,#475);
#382=AXIS2_PLACEMENT_3D('',#560,#476,#477);
#383=AXIS2_PLACEMENT_3D('',#561,#478,#479);
#384=AXIS2_PLACEMENT_3D('',#563,#480,#481);
#385=AXIS2_PLACEMENT_3D('',#574,#486,#487);
#386=DIRECTION('',(0.,0.,1.));
#387=DIRECTION('',(1.,0.,0.));
#388=DIRECTION('',(0.,0.,1.));
#389=DIRECTION('',(1.,0.,0.));
#390=DIRECTION('',(0.,0.,1.));
#391=DIRECTION('',(1.,0.,0.));
#392=DIRECTION('',(0.,0.,1.));
#393=DIRECTION('',(1.,0.,0.));
#394=DIRECTION('',(0.,0.,-1.));
#395=DIRECTION('',(-1.,0.,0.));
#396=DIRECTION('',(-0.422618261740697,5.17558101501963E-17,-0.906307787036651));
#397=DIRECTION('',(0.,0.,1.));
#398=DIRECTION('',(1.,0.,0.));
#399=DIRECTION('',(0.422618261740697,0.,-0.906307787036651));
#400=DIRECTION('',(0.,0.,1.));
#401=DIRECTION('',(1.,0.,5.70741076151893E-17));
#402=DIRECTION('',(0.,0.,-1.));
#403=DIRECTION('',(1.,0.,0.));
#404=DIRECTION('',(0.,0.,-1.));
#405=DIRECTION('',(0.,0.,-1.));
#406=DIRECTION('',(0.,0.,-1.));
#407=DIRECTION('',(-1.,0.,0.));
#408=DIRECTION('',(0.,0.,-1.));
#409=DIRECTION('',(1.,0.,0.));
#410=DIRECTION('',(0.,0.,1.));
#411=DIRECTION('',(1.,0.,0.));
#412=DIRECTION('',(0.,0.,-1.));
#413=DIRECTION('',(-1.,0.,0.));
#414=DIRECTION('',(0.,0.,1.));
#415=DIRECTION('',(-1.,0.,0.));
#416=DIRECTION('',(0.,0.,1.));
#417=DIRECTION('',(1.,0.,0.));
#418=DIRECTION('',(0.,0.,-1.));
#419=DIRECTION('',(1.,0.,0.));
#420=DIRECTION('',(0.,0.,1.));
#421=DIRECTION('',(1.,0.,0.));
#422=DIRECTION('',(0.,0.,-1.));
#423=DIRECTION('',(-1.,0.,0.));
#424=DIRECTION('',(0.,0.,-1.));
#425=DIRECTION('',(-1.,0.,0.));
#426=DIRECTION('',(0.,0.,-1.));
#427=DIRECTION('',(-1.,0.,0.));
#428=DIRECTION('',(0.,0.,1.));
#429=DIRECTION('',(-1.,0.,0.));
#430=DIRECTION('',(0.,0.,-1.));
#431=DIRECTION('',(0.,0.,1.));
#432=DIRECTION('',(1.,0.,0.));
#433=DIRECTION('',(0.,0.,-1.));
#434=DIRECTION('',(0.,0.,1.));
#435=DIRECTION('',(1.,0.,0.));
#436=DIRECTION('',(0.,0.,-1.));
#437=DIRECTION('',(-1.,0.,0.));
#438=DIRECTION('',(0.,0.,-1.));
#439=DIRECTION('',(-1.,0.,0.));
#440=DIRECTION('',(0.,0.,1.));
#441=DIRECTION('',(-1.,0.,0.));
#442=DIRECTION('',(0.,0.,1.));
#443=DIRECTION('',(1.,0.,0.));
#444=DIRECTION('',(0.,0.,1.));
#445=DIRECTION('',(-1.,0.,0.));
#446=DIRECTION('',(0.,0.,-1.));
#447=DIRECTION('',(-1.,0.,-4.72851599245745E-17));
#448=DIRECTION('',(0.,0.,-1.));
#449=DIRECTION('',(-1.,0.,0.));
#450=DIRECTION('',(0.,0.,1.));
#451=DIRECTION('',(1.,0.,0.));
#452=DIRECTION('',(0.,0.,-1.));
#453=DIRECTION('',(-1.,0.,0.));
#454=DIRECTION('',(0.,0.,-1.));
#455=DIRECTION('',(-1.,0.,0.));
#456=DIRECTION('',(0.,0.,1.));
#457=DIRECTION('',(-1.,0.,0.));
#458=DIRECTION('',(0.,0.,1.));
#459=DIRECTION('',(1.,0.,2.75423067591171E-17));
#460=DIRECTION('',(0.,0.,-1.));
#461=DIRECTION('',(-1.,0.,0.));
#462=DIRECTION('',(0.,0.,1.));
#463=DIRECTION('',(1.,0.,0.));
#464=DIRECTION('',(1.22464679914735E-16,-1.,0.));
#465=DIRECTION('',(-1.,-1.22464679914735E-16,0.));
#466=DIRECTION('',(0.,1.,0.));
#467=DIRECTION('',(1.,0.,0.));
#468=DIRECTION('',(0.,0.,-1.));
#469=DIRECTION('',(-1.,0.,0.));
#470=DIRECTION('',(0.,0.,1.));
#471=DIRECTION('',(1.,0.,0.));
#472=DIRECTION('',(0.,0.,1.));
#473=DIRECTION('',(1.,0.,0.));
#474=DIRECTION('',(0.,0.,1.));
#475=DIRECTION('',(1.,0.,0.));
#476=DIRECTION('',(0.,0.,1.));
#477=DIRECTION('',(1.,0.,5.70741076151893E-17));
#478=DIRECTION('',(0.,0.,1.));
#479=DIRECTION('',(1.,0.,0.));
#480=DIRECTION('',(0.,0.,1.));
#481=DIRECTION('',(1.,0.,0.));
#482=DIRECTION('',(0.0500368852433456,0.,-0.998747370517262));
#483=DIRECTION('',(-0.0500368852433456,-6.12775113525666E-18,-0.998747370517262));
#484=DIRECTION('',(0.0500368852433456,6.12775113525666E-18,0.998747370517262));
#485=DIRECTION('',(-0.0500368852433456,0.,0.998747370517262));
#486=DIRECTION('',(0.,0.,-1.));
#487=DIRECTION('',(-1.,0.,9.33712893608539E-17));
#488=CARTESIAN_POINT('',(0.,0.,0.));
#489=CARTESIAN_POINT('',(0.,0.,0.));
#490=CARTESIAN_POINT('',(0.,0.,-100.));
#491=CARTESIAN_POINT('',(0.,0.,0.));
#492=CARTESIAN_POINT('',(-4.41465075792613E-14,1.49883571991992E-29,-100.));
#493=CARTESIAN_POINT('',(20.,-2.44929359829469E-15,-100.));
#494=CARTESIAN_POINT('',(-20.,1.49883571991992E-29,-100.));
#495=CARTESIAN_POINT('',(20.,-2.44929359829469E-15,-100.));
#496=CARTESIAN_POINT('',(25.9999999999999,-1.59204083889154E-15,-87.1329584769426));
#497=CARTESIAN_POINT('',(-4.41465075792613E-14,1.49883571991992E-29,-87.1329584769426));
#498=CARTESIAN_POINT('',(-26.,-1.59204083889154E-15,-87.1329584769426));
#499=CARTESIAN_POINT('',(-20.,1.49883571991992E-29,-100.));
#500=CARTESIAN_POINT('',(-4.41465075792613E-14,1.49883571991992E-29,-100.));
#501=CARTESIAN_POINT('',(-4.41465075792613E-14,1.49883571991992E-29,-26.8));
#502=CARTESIAN_POINT('',(25.9999999999999,1.49883571991992E-29,-26.8));
#503=CARTESIAN_POINT('',(-26.,-3.1840816777831E-15,-26.8));
#504=CARTESIAN_POINT('',(-26.,-3.1840816777831E-15,-104.539422307193));
#505=CARTESIAN_POINT('',(25.9999999999999,1.49883571991992E-29,-104.539422307193));
#506=CARTESIAN_POINT('',(-4.41465075792613E-14,1.49883571991992E-29,-104.539422307193));
#507=CARTESIAN_POINT('',(-4.41465075792613E-14,1.49883571991992E-29,-16.625));
#508=CARTESIAN_POINT('',(27.5,1.49883571991992E-29,-16.625));
#509=CARTESIAN_POINT('',(-4.41465075792613E-14,1.49883571991992E-29,-16.125));
#510=CARTESIAN_POINT('',(28.,1.49883571991992E-29,-16.125));
#511=CARTESIAN_POINT('',(-4.41465075792613E-14,1.49883571991992E-29,-16.625));
#512=CARTESIAN_POINT('',(-4.41465075792613E-14,1.49883571991992E-29,-19.375));
#513=CARTESIAN_POINT('',(-27.5,1.49883571991992E-29,-19.375));
#514=CARTESIAN_POINT('',(-4.41465075792613E-14,1.49883571991992E-29,-6.93889390390723E-15));
#515=CARTESIAN_POINT('',(-4.41465075792613E-14,1.49883571991992E-29,-26.8));
#516=CARTESIAN_POINT('',(-4.41465075792613E-14,1.49883571991992E-29,-87.1329584769426));
#517=CARTESIAN_POINT('',(-4.41465075792613E-14,1.49883571991992E-29,-104.539422307193));
#518=CARTESIAN_POINT('',(-4.41465075792613E-14,1.49883571991992E-29,-100.));
#519=CARTESIAN_POINT('',(-4.41465075792613E-14,-20.,-100.));
#520=CARTESIAN_POINT('',(-4.41465075792613E-14,1.49883571991992E-29,-14.6225009252407));
#521=CARTESIAN_POINT('',(-31.5,1.49883571991992E-29,-14.6225009252407));
#522=CARTESIAN_POINT('',(-31.5,-3.85763741731415E-15,-104.539422307193));
#523=CARTESIAN_POINT('',(-31.5,-3.85763741731415E-15,0.));
#524=CARTESIAN_POINT('',(-31.5,8.9819249039087E-14,-3.80000052996436));
#525=CARTESIAN_POINT('',(-4.41465075792613E-14,1.49883571991992E-29,0.));
#526=CARTESIAN_POINT('',(31.4999999999999,1.49883571991992E-29,0.));
#527=CARTESIAN_POINT('',(31.4999999999999,1.49883571991992E-29,-104.539422307193));
#528=CARTESIAN_POINT('',(31.4999999999999,-2.30816478126782E-16,-3.8000002982412));
#529=CARTESIAN_POINT('',(-4.41465075792613E-14,1.49883571991992E-29,0.));
#530=CARTESIAN_POINT('',(-4.41465075792613E-14,1.49883571991992E-29,-104.539422307193));
#531=CARTESIAN_POINT('',(-4.41465075792613E-14,1.49883571991992E-29,-19.875));
#532=CARTESIAN_POINT('',(-28.,1.49883571991992E-29,-19.875));
#533=CARTESIAN_POINT('',(-4.41465075792613E-14,1.49883571991992E-29,-19.875));
#534=CARTESIAN_POINT('',(-28.8975952641917,1.49883571991992E-29,-19.875));
#535=CARTESIAN_POINT('',(-4.41465075792613E-14,-27.5,-19.875));
#536=CARTESIAN_POINT('',(-4.41465075792613E-14,1.49883571991992E-29,-21.3774990747593));
#537=CARTESIAN_POINT('',(-31.5,1.49883571991992E-29,-21.3774990747593));
#538=CARTESIAN_POINT('',(-4.41465075792613E-14,1.49883571991992E-29,-19.875));
#539=CARTESIAN_POINT('',(-4.41465075792613E-14,1.49883571991992E-29,-26.));
#540=CARTESIAN_POINT('',(-31.5,1.49883571991992E-29,-26.));
#541=CARTESIAN_POINT('',(-4.41465075792613E-14,1.49883571991992E-29,-26.));
#542=CARTESIAN_POINT('',(26.7999999999999,1.49883571991992E-29,-26.));
#543=CARTESIAN_POINT('',(-4.41465075792613E-14,-31.5,-26.));
#544=CARTESIAN_POINT('',(-4.41465075792613E-14,1.49883571991992E-29,-104.539422307193));
#545=CARTESIAN_POINT('',(-4.41465075792613E-14,1.49883571991992E-29,-16.125));
#546=CARTESIAN_POINT('',(-28.8975952641917,1.49883571991992E-29,-16.125));
#547=CARTESIAN_POINT('',(-4.41465075792613E-14,1.49883571991992E-29,-14.6225009252407));
#548=CARTESIAN_POINT('',(-4.41465075792613E-14,-28.8975952641916,-16.125));
#549=CARTESIAN_POINT('',(-4.41465075792613E-14,1.49883571991992E-29,-19.375));
#550=CARTESIAN_POINT('',(-26.8,-3.28205342171489E-15,-26.8));
#551=CARTESIAN_POINT('',(-26.5,-3.24531401774047E-15,-26.0583801512904));
#552=CARTESIAN_POINT('',(26.7999999999999,1.49883571991992E-29,-26.8));
#553=CARTESIAN_POINT('',(26.5,1.49883571991992E-29,-26.0583801512904));
#554=CARTESIAN_POINT('',(-4.41465075792613E-14,1.49883571991992E-29,-26.8));
#555=CARTESIAN_POINT('',(-4.41465075792613E-14,1.49883571991992E-29,-6.93889390390723E-15));
#556=CARTESIAN_POINT('',(-24.3156277416479,1.49883571991992E-29,-6.93889390390723E-15));
#557=CARTESIAN_POINT('',(24.3156277416478,1.49883571991992E-29,-6.93889390390723E-15));
#558=CARTESIAN_POINT('',(-4.41465075792613E-14,1.49883571991992E-29,-6.93889390390723E-15));
#559=CARTESIAN_POINT('',(-4.41465075792613E-14,-25.3689215179895,-6.93889390390723E-15));
#560=CARTESIAN_POINT('',(-4.41465075792613E-14,1.49883571991992E-29,-100.));
#561=CARTESIAN_POINT('',(-4.41465075792613E-14,1.49883571991992E-29,32.));
#562=CARTESIAN_POINT('',(22.7124392126429,1.49883571991992E-29,32.));
#563=CARTESIAN_POINT('',(-4.41465075792613E-14,1.59445180865035E-14,32.));
#564=CARTESIAN_POINT('',(24.215428458585,1.49883571991992E-29,1.99999999999999));
#565=CARTESIAN_POINT('',(23.2134356279569,1.49883571991992E-29,22.));
#566=CARTESIAN_POINT('',(23.6541363759516,4.25210509743927E-15,13.203514944943));
#567=CARTESIAN_POINT('',(-24.2154284585851,-2.96553469517877E-15,1.99999999999999));
#568=CARTESIAN_POINT('',(-23.0130370618314,-2.8182842176431E-15,26.));
#569=CARTESIAN_POINT('',(-23.654136375894,-1.71763564668711E-13,13.2035149460955));
#570=CARTESIAN_POINT('',(-24.2154284585851,-2.96553469517877E-15,1.99999999999999));
#571=CARTESIAN_POINT('',(-24.0735223585634,-2.43697752527248E-13,4.83247735281102));
#572=CARTESIAN_POINT('',(24.215428458585,1.49883571991992E-29,1.99999999999999));
#573=CARTESIAN_POINT('',(24.0735223605089,-8.25714230817537E-10,4.83247731397711));
#574=CARTESIAN_POINT('',(-4.41465075792613E-14,1.49883571991992E-29,1.99999999999999));
#575=MECHANICAL_DESIGN_GEOMETRIC_PRESENTATION_REPRESENTATION('',(#324,#325,
#326,#327),#576);
#576=(
GEOMETRIC_REPRESENTATION_CONTEXT(3)
GLOBAL_UNCERTAINTY_ASSIGNED_CONTEXT((#577))
GLOBAL_UNIT_ASSIGNED_CONTEXT((#583,#579,#578))
REPRESENTATION_CONTEXT('HSK.63A-W.20.100','TOP_LEVEL_ASSEMBLY_PART')
);
#577=UNCERTAINTY_MEASURE_WITH_UNIT(LENGTH_MEASURE(2.E-5),#583,
'DISTANCE_ACCURACY_VALUE','Maximum Tolerance applied to model');
#578=(
NAMED_UNIT(*)
SI_UNIT($,.STERADIAN.)
SOLID_ANGLE_UNIT()
);
#579=(
CONVERSION_BASED_UNIT('DEGREE',#581)
NAMED_UNIT(#580)
PLANE_ANGLE_UNIT()
);
#580=DIMENSIONAL_EXPONENTS(0.,0.,0.,0.,0.,0.,0.);
#581=PLANE_ANGLE_MEASURE_WITH_UNIT(PLANE_ANGLE_MEASURE(0.0174532925),#582);
#582=(
NAMED_UNIT(*)
PLANE_ANGLE_UNIT()
SI_UNIT($,.RADIAN.)
);
#583=(
LENGTH_UNIT()
NAMED_UNIT(*)
SI_UNIT(.MILLI.,.METRE.)
);
ENDSEC;
END-ISO-10303-21;
