ISO-10303-21;
HEADER;
/* Generated by software containing ST-Developer
 * from STEP Tools, Inc. (www.steptools.com) 
 */
/* OPTION: using custom schema-name function */

FILE_DESCRIPTION(
/* description */ (''),
/* implementation_level */ '2;1');

FILE_NAME(
/* name */ 'HSK.63A-SC.14.090.C.stp',
/* time_stamp */ '2024-07-21T14:09:08+02:00',
/* author */ (''),
/* organization */ (''),
/* preprocessor_version */ 'ST-DEVELOPER v16.7',
/* originating_system */ 'SIEMENS PLM Software NX 12.0',
/* authorisation */ '');

FILE_SCHEMA (('AUTOMOTIVE_DESIGN { 1 0 10303 214 3 1 1 1 }'));
ENDSEC;

DATA;
#10=CONSTRUCTIVE_GEOMETRY_REPRESENTATION_RELATIONSHIP(
'supplemental geometry','',#32,#11);
#11=CONSTRUCTIVE_GEOMETRY_REPRESENTATION('supplemental geometry',(#336,
#337,#338),#575);
#12=PROPERTY_DEFINITION_REPRESENTATION(#16,#14);
#13=PROPERTY_DEFINITION_REPRESENTATION(#17,#15);
#14=REPRESENTATION('',(#18),#575);
#15=REPRESENTATION('',(#19),#575);
#16=PROPERTY_DEFINITION('pmi validation property','',#23);
#17=PROPERTY_DEFINITION('pmi validation property','',#23);
#18=VALUE_REPRESENTATION_ITEM('number of annotations',COUNT_MEASURE(0.));
#19=VALUE_REPRESENTATION_ITEM('number of views',COUNT_MEASURE(0.));
#20=SHAPE_REPRESENTATION_RELATIONSHIP('None',
'relationship between pf6612088076yp4s-None and pf6612088076yp4s-None',
#32,#21);
#21=ADVANCED_BREP_SHAPE_REPRESENTATION('pf6612088076yp4s-None',(#38),#575);
#22=SHAPE_DEFINITION_REPRESENTATION(#23,#32);
#23=PRODUCT_DEFINITION_SHAPE('','',#24);
#24=PRODUCT_DEFINITION(' ','',#26,#25);
#25=PRODUCT_DEFINITION_CONTEXT('part definition',#31,'design');
#26=PRODUCT_DEFINITION_FORMATION_WITH_SPECIFIED_SOURCE(' ',' ',#28,
 .NOT_KNOWN.);
#27=PRODUCT_RELATED_PRODUCT_CATEGORY('part','',(#28));
#28=PRODUCT('pf6612088076yp4s','pf6612088076yp4s',' ',(#29));
#29=PRODUCT_CONTEXT(' ',#31,'mechanical');
#30=APPLICATION_PROTOCOL_DEFINITION('international standard',
'automotive_design',2010,#31);
#31=APPLICATION_CONTEXT(
'core data for automotive mechanical design processes');
#32=SHAPE_REPRESENTATION('pf6612088076yp4s-None',(#335),#575);
#33=SURFACE_STYLE_USAGE(.BOTH.,#34);
#34=SURFACE_SIDE_STYLE('',(#35));
#35=SURFACE_STYLE_FILL_AREA(#36);
#36=FILL_AREA_STYLE('',(#37));
#37=FILL_AREA_STYLE_COLOUR('',#331);
#38=MANIFOLD_SOLID_BREP('',#39);
#39=CLOSED_SHELL('',(#78,#79,#80,#81,#82,#83,#84,#85,#86,#87,#88,#89,#90,
#91,#92,#93,#94,#95,#96));
#40=TOROIDAL_SURFACE('',#355,20.,3.);
#41=TOROIDAL_SURFACE('',#373,28.,0.5);
#42=TOROIDAL_SURFACE('',#376,28.,0.5);
#43=TOROIDAL_SURFACE('',#377,20.,3.);
#44=CYLINDRICAL_SURFACE('',#351,17.);
#45=CYLINDRICAL_SURFACE('',#360,31.5);
#46=CYLINDRICAL_SURFACE('',#367,31.5);
#47=CYLINDRICAL_SURFACE('',#375,27.5);
#48=CONICAL_SURFACE('',#348,15.28626342104,4.5);
#49=CONICAL_SURFACE('',#362,30.1987976321,60.);
#50=CONICAL_SURFACE('',#369,30.1987976321,60.);
#51=CONICAL_SURFACE('',#381,23.49748952252,2.8681);
#52=CONICAL_SURFACE('',#382,23.49748952252,2.8681);
#53=LINE('',#508,#62);
#54=LINE('',#510,#63);
#55=LINE('',#513,#64);
#56=LINE('',#518,#65);
#57=LINE('',#541,#66);
#58=LINE('',#546,#67);
#59=LINE('',#547,#68);
#60=LINE('',#570,#69);
#61=LINE('',#571,#70);
#62=VECTOR('',#409,1.);
#63=VECTOR('',#410,1.);
#64=VECTOR('',#413,1.);
#65=VECTOR('',#416,1.);
#66=VECTOR('',#447,1.);
#67=VECTOR('',#450,1.);
#68=VECTOR('',#451,1.);
#69=VECTOR('',#482,1.);
#70=VECTOR('',#483,1.);
#71=FACE_OUTER_BOUND('',#129,.T.);
#72=FACE_OUTER_BOUND('',#134,.T.);
#73=FACE_OUTER_BOUND('',#143,.T.);
#74=FACE_OUTER_BOUND('',#154,.T.);
#75=FACE_OUTER_BOUND('',#155,.T.);
#76=FACE_OUTER_BOUND('',#156,.T.);
#77=FACE_OUTER_BOUND('',#157,.T.);
#78=ADVANCED_FACE('',(#103,#104),#97,.F.);
#79=ADVANCED_FACE('',(#71),#98,.T.);
#80=ADVANCED_FACE('',(#105,#106),#48,.T.);
#81=ADVANCED_FACE('',(#107,#108),#44,.T.);
#82=ADVANCED_FACE('',(#72),#40,.F.);
#83=ADVANCED_FACE('',(#109,#110),#99,.T.);
#84=ADVANCED_FACE('',(#111,#112),#45,.T.);
#85=ADVANCED_FACE('',(#113,#114),#49,.T.);
#86=ADVANCED_FACE('',(#115,#116),#100,.F.);
#87=ADVANCED_FACE('',(#73),#46,.T.);
#88=ADVANCED_FACE('',(#117,#118),#50,.T.);
#89=ADVANCED_FACE('',(#119,#120),#101,.T.);
#90=ADVANCED_FACE('',(#121,#122),#41,.F.);
#91=ADVANCED_FACE('',(#123,#124),#47,.T.);
#92=ADVANCED_FACE('',(#125,#126),#42,.F.);
#93=ADVANCED_FACE('',(#74),#43,.F.);
#94=ADVANCED_FACE('',(#75),#102,.F.);
#95=ADVANCED_FACE('',(#76),#51,.T.);
#96=ADVANCED_FACE('',(#77),#52,.T.);
#97=PLANE('',#343);
#98=PLANE('',#346);
#99=PLANE('',#358);
#100=PLANE('',#364);
#101=PLANE('',#371);
#102=PLANE('',#380);
#103=FACE_BOUND('',#127,.T.);
#104=FACE_BOUND('',#128,.T.);
#105=FACE_BOUND('',#130,.T.);
#106=FACE_BOUND('',#131,.T.);
#107=FACE_BOUND('',#132,.T.);
#108=FACE_BOUND('',#133,.T.);
#109=FACE_BOUND('',#135,.T.);
#110=FACE_BOUND('',#136,.T.);
#111=FACE_BOUND('',#137,.T.);
#112=FACE_BOUND('',#138,.T.);
#113=FACE_BOUND('',#139,.T.);
#114=FACE_BOUND('',#140,.T.);
#115=FACE_BOUND('',#141,.T.);
#116=FACE_BOUND('',#142,.T.);
#117=FACE_BOUND('',#144,.T.);
#118=FACE_BOUND('',#145,.T.);
#119=FACE_BOUND('',#146,.T.);
#120=FACE_BOUND('',#147,.T.);
#121=FACE_BOUND('',#148,.T.);
#122=FACE_BOUND('',#149,.T.);
#123=FACE_BOUND('',#150,.T.);
#124=FACE_BOUND('',#151,.T.);
#125=FACE_BOUND('',#152,.T.);
#126=FACE_BOUND('',#153,.T.);
#127=EDGE_LOOP('',(#158,#159));
#128=EDGE_LOOP('',(#160,#161));
#129=EDGE_LOOP('',(#162,#163));
#130=EDGE_LOOP('',(#164));
#131=EDGE_LOOP('',(#165,#166,#167,#168,#169,#170));
#132=EDGE_LOOP('',(#171));
#133=EDGE_LOOP('',(#172,#173,#174,#175,#176,#177));
#134=EDGE_LOOP('',(#178,#179,#180,#181));
#135=EDGE_LOOP('',(#182));
#136=EDGE_LOOP('',(#183,#184));
#137=EDGE_LOOP('',(#185));
#138=EDGE_LOOP('',(#186));
#139=EDGE_LOOP('',(#187));
#140=EDGE_LOOP('',(#188));
#141=EDGE_LOOP('',(#189));
#142=EDGE_LOOP('',(#190));
#143=EDGE_LOOP('',(#191,#192,#193,#194,#195,#196,#197,#198,#199,#200));
#144=EDGE_LOOP('',(#201,#202));
#145=EDGE_LOOP('',(#203));
#146=EDGE_LOOP('',(#204));
#147=EDGE_LOOP('',(#205));
#148=EDGE_LOOP('',(#206));
#149=EDGE_LOOP('',(#207));
#150=EDGE_LOOP('',(#208));
#151=EDGE_LOOP('',(#209));
#152=EDGE_LOOP('',(#210));
#153=EDGE_LOOP('',(#211));
#154=EDGE_LOOP('',(#212,#213,#214,#215));
#155=EDGE_LOOP('',(#216,#217));
#156=EDGE_LOOP('',(#218,#219,#220,#221));
#157=EDGE_LOOP('',(#222,#223,#224,#225));
#158=ORIENTED_EDGE('',*,*,#255,.T.);
#159=ORIENTED_EDGE('',*,*,#256,.T.);
#160=ORIENTED_EDGE('',*,*,#257,.T.);
#161=ORIENTED_EDGE('',*,*,#258,.T.);
#162=ORIENTED_EDGE('',*,*,#259,.F.);
#163=ORIENTED_EDGE('',*,*,#260,.F.);
#164=ORIENTED_EDGE('',*,*,#261,.F.);
#165=ORIENTED_EDGE('',*,*,#262,.T.);
#166=ORIENTED_EDGE('',*,*,#262,.F.);
#167=ORIENTED_EDGE('',*,*,#260,.T.);
#168=ORIENTED_EDGE('',*,*,#263,.T.);
#169=ORIENTED_EDGE('',*,*,#263,.F.);
#170=ORIENTED_EDGE('',*,*,#259,.T.);
#171=ORIENTED_EDGE('',*,*,#261,.T.);
#172=ORIENTED_EDGE('',*,*,#264,.T.);
#173=ORIENTED_EDGE('',*,*,#264,.F.);
#174=ORIENTED_EDGE('',*,*,#265,.T.);
#175=ORIENTED_EDGE('',*,*,#266,.T.);
#176=ORIENTED_EDGE('',*,*,#266,.F.);
#177=ORIENTED_EDGE('',*,*,#267,.F.);
#178=ORIENTED_EDGE('',*,*,#268,.T.);
#179=ORIENTED_EDGE('',*,*,#267,.T.);
#180=ORIENTED_EDGE('',*,*,#269,.F.);
#181=ORIENTED_EDGE('',*,*,#270,.T.);
#182=ORIENTED_EDGE('',*,*,#271,.F.);
#183=ORIENTED_EDGE('',*,*,#270,.F.);
#184=ORIENTED_EDGE('',*,*,#272,.F.);
#185=ORIENTED_EDGE('',*,*,#271,.T.);
#186=ORIENTED_EDGE('',*,*,#273,.T.);
#187=ORIENTED_EDGE('',*,*,#273,.F.);
#188=ORIENTED_EDGE('',*,*,#274,.T.);
#189=ORIENTED_EDGE('',*,*,#274,.F.);
#190=ORIENTED_EDGE('',*,*,#275,.T.);
#191=ORIENTED_EDGE('',*,*,#276,.F.);
#192=ORIENTED_EDGE('',*,*,#277,.T.);
#193=ORIENTED_EDGE('',*,*,#278,.T.);
#194=ORIENTED_EDGE('',*,*,#256,.F.);
#195=ORIENTED_EDGE('',*,*,#279,.F.);
#196=ORIENTED_EDGE('',*,*,#279,.T.);
#197=ORIENTED_EDGE('',*,*,#255,.F.);
#198=ORIENTED_EDGE('',*,*,#278,.F.);
#199=ORIENTED_EDGE('',*,*,#280,.T.);
#200=ORIENTED_EDGE('',*,*,#276,.T.);
#201=ORIENTED_EDGE('',*,*,#277,.F.);
#202=ORIENTED_EDGE('',*,*,#280,.F.);
#203=ORIENTED_EDGE('',*,*,#281,.F.);
#204=ORIENTED_EDGE('',*,*,#281,.T.);
#205=ORIENTED_EDGE('',*,*,#282,.T.);
#206=ORIENTED_EDGE('',*,*,#282,.F.);
#207=ORIENTED_EDGE('',*,*,#283,.F.);
#208=ORIENTED_EDGE('',*,*,#283,.T.);
#209=ORIENTED_EDGE('',*,*,#284,.T.);
#210=ORIENTED_EDGE('',*,*,#284,.F.);
#211=ORIENTED_EDGE('',*,*,#275,.F.);
#212=ORIENTED_EDGE('',*,*,#269,.T.);
#213=ORIENTED_EDGE('',*,*,#265,.F.);
#214=ORIENTED_EDGE('',*,*,#268,.F.);
#215=ORIENTED_EDGE('',*,*,#272,.T.);
#216=ORIENTED_EDGE('',*,*,#285,.T.);
#217=ORIENTED_EDGE('',*,*,#286,.T.);
#218=ORIENTED_EDGE('',*,*,#285,.F.);
#219=ORIENTED_EDGE('',*,*,#287,.T.);
#220=ORIENTED_EDGE('',*,*,#258,.F.);
#221=ORIENTED_EDGE('',*,*,#288,.F.);
#222=ORIENTED_EDGE('',*,*,#286,.F.);
#223=ORIENTED_EDGE('',*,*,#288,.T.);
#224=ORIENTED_EDGE('',*,*,#257,.F.);
#225=ORIENTED_EDGE('',*,*,#287,.F.);
#226=VERTEX_POINT('',#493);
#227=VERTEX_POINT('',#494);
#228=VERTEX_POINT('',#497);
#229=VERTEX_POINT('',#498);
#230=VERTEX_POINT('',#502);
#231=VERTEX_POINT('',#503);
#232=VERTEX_POINT('',#507);
#233=VERTEX_POINT('',#509);
#234=VERTEX_POINT('',#511);
#235=VERTEX_POINT('',#514);
#236=VERTEX_POINT('',#515);
#237=VERTEX_POINT('',#517);
#238=VERTEX_POINT('',#519);
#239=VERTEX_POINT('',#523);
#240=VERTEX_POINT('',#525);
#241=VERTEX_POINT('',#529);
#242=VERTEX_POINT('',#533);
#243=VERTEX_POINT('',#536);
#244=VERTEX_POINT('',#539);
#245=VERTEX_POINT('',#542);
#246=VERTEX_POINT('',#543);
#247=VERTEX_POINT('',#545);
#248=VERTEX_POINT('',#548);
#249=VERTEX_POINT('',#552);
#250=VERTEX_POINT('',#555);
#251=VERTEX_POINT('',#558);
#252=VERTEX_POINT('',#561);
#253=VERTEX_POINT('',#566);
#254=VERTEX_POINT('',#567);
#255=EDGE_CURVE('',#226,#227,#289,.T.);
#256=EDGE_CURVE('',#227,#226,#290,.T.);
#257=EDGE_CURVE('',#228,#229,#291,.T.);
#258=EDGE_CURVE('',#229,#228,#292,.T.);
#259=EDGE_CURVE('',#230,#231,#293,.T.);
#260=EDGE_CURVE('',#231,#230,#294,.T.);
#261=EDGE_CURVE('',#232,#232,#295,.T.);
#262=EDGE_CURVE('',#231,#233,#53,.T.);
#263=EDGE_CURVE('',#230,#234,#54,.T.);
#264=EDGE_CURVE('',#235,#236,#55,.T.);
#265=EDGE_CURVE('',#235,#237,#296,.T.);
#266=EDGE_CURVE('',#237,#238,#56,.T.);
#267=EDGE_CURVE('',#235,#237,#297,.T.);
#268=EDGE_CURVE('',#239,#235,#298,.T.);
#269=EDGE_CURVE('',#240,#237,#299,.T.);
#270=EDGE_CURVE('',#240,#239,#300,.T.);
#271=EDGE_CURVE('',#241,#241,#301,.T.);
#272=EDGE_CURVE('',#239,#240,#302,.T.);
#273=EDGE_CURVE('',#242,#242,#303,.T.);
#274=EDGE_CURVE('',#243,#243,#304,.T.);
#275=EDGE_CURVE('',#244,#244,#305,.T.);
#276=EDGE_CURVE('',#245,#246,#57,.T.);
#277=EDGE_CURVE('',#245,#247,#306,.T.);
#278=EDGE_CURVE('',#247,#226,#58,.T.);
#279=EDGE_CURVE('',#248,#227,#59,.T.);
#280=EDGE_CURVE('',#247,#245,#307,.T.);
#281=EDGE_CURVE('',#249,#249,#308,.T.);
#282=EDGE_CURVE('',#250,#250,#309,.T.);
#283=EDGE_CURVE('',#251,#251,#310,.T.);
#284=EDGE_CURVE('',#252,#252,#311,.T.);
#285=EDGE_CURVE('',#253,#254,#312,.T.);
#286=EDGE_CURVE('',#254,#253,#313,.T.);
#287=EDGE_CURVE('',#253,#228,#60,.T.);
#288=EDGE_CURVE('',#254,#229,#61,.T.);
#289=CIRCLE('',#339,31.5);
#290=CIRCLE('',#340,31.5);
#291=CIRCLE('',#341,24.3206277416436);
#292=CIRCLE('',#342,24.3206277416436);
#293=CIRCLE('',#344,13.5000000000027);
#294=CIRCLE('',#345,13.5000000000027);
#295=CIRCLE('',#347,17.);
#296=CIRCLE('',#349,17.);
#297=CIRCLE('',#350,17.);
#298=CIRCLE('',#352,3.);
#299=CIRCLE('',#353,3.);
#300=CIRCLE('',#354,20.);
#301=CIRCLE('',#356,31.5);
#302=CIRCLE('',#357,20.);
#303=CIRCLE('',#359,31.5);
#304=CIRCLE('',#361,28.89759526419);
#305=CIRCLE('',#363,28.);
#306=CIRCLE('',#365,31.5);
#307=CIRCLE('',#366,31.5);
#308=CIRCLE('',#368,28.89759526419);
#309=CIRCLE('',#370,28.);
#310=CIRCLE('',#372,27.5);
#311=CIRCLE('',#374,27.5);
#312=CIRCLE('',#378,22.7174392126387);
#313=CIRCLE('',#379,22.7174392126387);
#314=INVISIBILITY((#315,#316,#317,#318));
#315=PRESENTATION_LAYER_ASSIGNMENT('100','Layer 100',(#336));
#316=PRESENTATION_LAYER_ASSIGNMENT('101','Layer 101',(#337));
#317=PRESENTATION_LAYER_ASSIGNMENT('102','Layer 102',(#338));
#318=PRESENTATION_LAYER_ASSIGNMENT('98','Layer 98',(#38));
#319=STYLED_ITEM('',(#323),#336);
#320=STYLED_ITEM('',(#324),#337);
#321=STYLED_ITEM('',(#325),#338);
#322=STYLED_ITEM('',(#326),#38);
#323=PRESENTATION_STYLE_ASSIGNMENT((#327));
#324=PRESENTATION_STYLE_ASSIGNMENT((#328));
#325=PRESENTATION_STYLE_ASSIGNMENT((#329));
#326=PRESENTATION_STYLE_ASSIGNMENT((#33));
#327=CURVE_STYLE('',#332,POSITIVE_LENGTH_MEASURE(0.7),#330);
#328=CURVE_STYLE('',#333,POSITIVE_LENGTH_MEASURE(0.7),#330);
#329=CURVE_STYLE('',#334,POSITIVE_LENGTH_MEASURE(0.7),#330);
#330=COLOUR_RGB('Medium Maroon',0.6,0.4,0.4);
#331=COLOUR_RGB('Medium Gray',0.490196078431373,0.490196078431373,0.490196078431373);
#332=DRAUGHTING_PRE_DEFINED_CURVE_FONT('continuous');
#333=DRAUGHTING_PRE_DEFINED_CURVE_FONT('continuous');
#334=DRAUGHTING_PRE_DEFINED_CURVE_FONT('continuous');
#335=AXIS2_PLACEMENT_3D('',#488,#383,#384);
#336=AXIS2_PLACEMENT_3D('PCS',#489,#385,#386);
#337=AXIS2_PLACEMENT_3D('CSW',#490,#387,#388);
#338=AXIS2_PLACEMENT_3D('MCS',#491,#389,#390);
#339=AXIS2_PLACEMENT_3D('',#492,#391,#392);
#340=AXIS2_PLACEMENT_3D('',#495,#393,#394);
#341=AXIS2_PLACEMENT_3D('',#496,#395,#396);
#342=AXIS2_PLACEMENT_3D('',#499,#397,#398);
#343=AXIS2_PLACEMENT_3D('',#500,#399,#400);
#344=AXIS2_PLACEMENT_3D('',#501,#401,#402);
#345=AXIS2_PLACEMENT_3D('',#504,#403,#404);
#346=AXIS2_PLACEMENT_3D('',#505,#405,#406);
#347=AXIS2_PLACEMENT_3D('',#506,#407,#408);
#348=AXIS2_PLACEMENT_3D('',#512,#411,#412);
#349=AXIS2_PLACEMENT_3D('',#516,#414,#415);
#350=AXIS2_PLACEMENT_3D('',#520,#417,#418);
#351=AXIS2_PLACEMENT_3D('',#521,#419,#420);
#352=AXIS2_PLACEMENT_3D('',#522,#421,#422);
#353=AXIS2_PLACEMENT_3D('',#524,#423,#424);
#354=AXIS2_PLACEMENT_3D('',#526,#425,#426);
#355=AXIS2_PLACEMENT_3D('',#527,#427,#428);
#356=AXIS2_PLACEMENT_3D('',#528,#429,#430);
#357=AXIS2_PLACEMENT_3D('',#530,#431,#432);
#358=AXIS2_PLACEMENT_3D('',#531,#433,#434);
#359=AXIS2_PLACEMENT_3D('',#532,#435,#436);
#360=AXIS2_PLACEMENT_3D('',#534,#437,#438);
#361=AXIS2_PLACEMENT_3D('',#535,#439,#440);
#362=AXIS2_PLACEMENT_3D('',#537,#441,#442);
#363=AXIS2_PLACEMENT_3D('',#538,#443,#444);
#364=AXIS2_PLACEMENT_3D('',#540,#445,#446);
#365=AXIS2_PLACEMENT_3D('',#544,#448,#449);
#366=AXIS2_PLACEMENT_3D('',#549,#452,#453);
#367=AXIS2_PLACEMENT_3D('',#550,#454,#455);
#368=AXIS2_PLACEMENT_3D('',#551,#456,#457);
#369=AXIS2_PLACEMENT_3D('',#553,#458,#459);
#370=AXIS2_PLACEMENT_3D('',#554,#460,#461);
#371=AXIS2_PLACEMENT_3D('',#556,#462,#463);
#372=AXIS2_PLACEMENT_3D('',#557,#464,#465);
#373=AXIS2_PLACEMENT_3D('',#559,#466,#467);
#374=AXIS2_PLACEMENT_3D('',#560,#468,#469);
#375=AXIS2_PLACEMENT_3D('',#562,#470,#471);
#376=AXIS2_PLACEMENT_3D('',#563,#472,#473);
#377=AXIS2_PLACEMENT_3D('',#564,#474,#475);
#378=AXIS2_PLACEMENT_3D('',#565,#476,#477);
#379=AXIS2_PLACEMENT_3D('',#568,#478,#479);
#380=AXIS2_PLACEMENT_3D('',#569,#480,#481);
#381=AXIS2_PLACEMENT_3D('',#572,#484,#485);
#382=AXIS2_PLACEMENT_3D('',#573,#486,#487);
#383=DIRECTION('',(0.,0.,1.));
#384=DIRECTION('',(1.,0.,0.));
#385=DIRECTION('',(0.,0.,1.));
#386=DIRECTION('',(1.,0.,0.));
#387=DIRECTION('',(0.,0.,1.));
#388=DIRECTION('',(1.,0.,0.));
#389=DIRECTION('',(0.,0.,1.));
#390=DIRECTION('',(1.,0.,0.));
#391=DIRECTION('',(0.,0.,1.));
#392=DIRECTION('',(-1.,0.,0.));
#393=DIRECTION('',(0.,0.,1.));
#394=DIRECTION('',(-1.,0.,0.));
#395=DIRECTION('',(0.,0.,-1.));
#396=DIRECTION('',(-1.,0.,0.));
#397=DIRECTION('',(0.,0.,-1.));
#398=DIRECTION('',(-1.,0.,0.));
#399=DIRECTION('',(0.,0.,-1.));
#400=DIRECTION('',(0.,-1.,0.));
#401=DIRECTION('',(0.,0.,1.));
#402=DIRECTION('',(-1.,0.,0.));
#403=DIRECTION('',(0.,0.,1.));
#404=DIRECTION('',(-1.,0.,0.));
#405=DIRECTION('',(0.,0.,-1.));
#406=DIRECTION('',(0.,-1.,0.));
#407=DIRECTION('',(0.,0.,1.));
#408=DIRECTION('',(0.114327936496304,-0.993443064768433,0.));
#409=DIRECTION('',(0.,-0.0784590957278422,0.996917333733128));
#410=DIRECTION('',(0.,0.0784590957278422,0.996917333733128));
#411=DIRECTION('',(0.,0.,1.));
#412=DIRECTION('',(0.,1.,2.95309873626205E-16));
#413=DIRECTION('',(0.,0.,-1.));
#414=DIRECTION('',(0.,0.,-1.));
#415=DIRECTION('',(0.,-1.,0.));
#416=DIRECTION('',(0.,0.,-1.));
#417=DIRECTION('',(0.,0.,1.));
#418=DIRECTION('',(0.,-1.,0.));
#419=DIRECTION('',(0.,0.,-1.));
#420=DIRECTION('',(0.,-1.,0.));
#421=DIRECTION('',(-1.,0.,0.));
#422=DIRECTION('',(0.,1.,0.));
#423=DIRECTION('',(1.,0.,0.));
#424=DIRECTION('',(0.,-1.,0.));
#425=DIRECTION('',(0.,0.,-1.));
#426=DIRECTION('',(0.,1.,0.));
#427=DIRECTION('',(0.,0.,-1.));
#428=DIRECTION('',(0.,-1.,0.));
#429=DIRECTION('',(0.,0.,1.));
#430=DIRECTION('',(-1.,0.,0.));
#431=DIRECTION('',(0.,0.,-1.));
#432=DIRECTION('',(0.,-1.,0.));
#433=DIRECTION('',(0.,0.,-1.));
#434=DIRECTION('',(0.,-1.,0.));
#435=DIRECTION('',(0.,0.,-1.));
#436=DIRECTION('',(-0.967212554703614,0.253968253968304,0.));
#437=DIRECTION('',(0.,0.,-1.));
#438=DIRECTION('',(0.,-1.,0.));
#439=DIRECTION('',(0.,0.,-1.));
#440=DIRECTION('',(-0.960916131215481,0.276839644505394,0.));
#441=DIRECTION('',(0.,0.,-1.));
#442=DIRECTION('',(0.,-1.,5.51252866608657E-17));
#443=DIRECTION('',(0.,0.,-1.));
#444=DIRECTION('',(-0.958314847499905,0.285714285714302,0.));
#445=DIRECTION('',(0.,0.,-1.));
#446=DIRECTION('',(0.,-1.,0.));
#447=DIRECTION('',(0.,0.,1.));
#448=DIRECTION('',(0.,0.,1.));
#449=DIRECTION('',(0.958314847499905,0.285714285714302,0.));
#450=DIRECTION('',(3.308477055609E-14,0.,1.));
#451=DIRECTION('',(-9.33264607387E-13,2.13162820728E-14,1.));
#452=DIRECTION('',(0.,0.,1.));
#453=DIRECTION('',(0.,-1.,0.));
#454=DIRECTION('',(0.,0.,-1.));
#455=DIRECTION('',(0.,-1.,0.));
#456=DIRECTION('',(0.,0.,-1.));
#457=DIRECTION('',(-0.960916131215481,0.276839644505394,0.));
#458=DIRECTION('',(0.,0.,1.));
#459=DIRECTION('',(0.,1.,-8.85942107049627E-18));
#460=DIRECTION('',(0.,0.,1.));
#461=DIRECTION('',(0.946933827397333,0.321428571428611,0.));
#462=DIRECTION('',(0.,0.,-1.));
#463=DIRECTION('',(0.,-1.,0.));
#464=DIRECTION('',(0.,0.,-1.));
#465=DIRECTION('',(-0.96363636363636,0.267217062849089,0.));
#466=DIRECTION('',(0.,0.,-1.));
#467=DIRECTION('',(-0.00403519109815584,0.999991858583259,0.));
#468=DIRECTION('',(0.,0.,1.));
#469=DIRECTION('',(-0.96363636363636,-0.267217062849089,0.));
#470=DIRECTION('',(0.,0.,-1.));
#471=DIRECTION('',(0.,-1.,0.));
#472=DIRECTION('',(0.,0.,-1.));
#473=DIRECTION('',(-0.00422980117842993,0.999991054350983,0.));
#474=DIRECTION('',(0.,0.,-1.));
#475=DIRECTION('',(0.,-1.,0.));
#476=DIRECTION('',(0.,0.,1.));
#477=DIRECTION('',(-1.,0.,0.));
#478=DIRECTION('',(0.,0.,1.));
#479=DIRECTION('',(-1.,0.,0.));
#480=DIRECTION('',(0.,0.,-1.));
#481=DIRECTION('',(0.,-1.,0.));
#482=DIRECTION('',(1.87233229922393E-14,-0.0500368852433381,-0.998747370517262));
#483=DIRECTION('',(-1.84941077733493E-14,0.0500368852433481,-0.998747370517262));
#484=DIRECTION('',(0.,0.,-1.));
#485=DIRECTION('',(0.,-1.,-3.77128499686941E-16));
#486=DIRECTION('',(0.,0.,-1.));
#487=DIRECTION('',(0.,-1.,-3.77128499686941E-16));
#488=CARTESIAN_POINT('',(0.,0.,0.));
#489=CARTESIAN_POINT('',(0.,0.,0.));
#490=CARTESIAN_POINT('',(0.,0.,-90.));
#491=CARTESIAN_POINT('',(0.,0.,0.));
#492=CARTESIAN_POINT('',(0.,0.,0.));
#493=CARTESIAN_POINT('',(4.83782088067779E-13,31.5,0.));
#494=CARTESIAN_POINT('',(-1.3998969110805E-12,-31.5,0.));
#495=CARTESIAN_POINT('',(0.,0.,0.));
#496=CARTESIAN_POINT('',(0.,0.,0.));
#497=CARTESIAN_POINT('',(0.,-24.3206277416436,0.));
#498=CARTESIAN_POINT('',(2.67034791029395E-13,24.3206277416436,0.));
#499=CARTESIAN_POINT('',(0.,0.,0.));
#500=CARTESIAN_POINT('',(0.,0.,0.));
#501=CARTESIAN_POINT('',(0.,0.,-90.));
#502=CARTESIAN_POINT('',(-1.968657534839E-13,13.4999999999953,-90.));
#503=CARTESIAN_POINT('',(1.972847417197E-13,-13.4999999999953,-90.));
#504=CARTESIAN_POINT('',(0.,0.,-90.));
#505=CARTESIAN_POINT('',(0.,0.,-90.));
#506=CARTESIAN_POINT('',(0.,0.,-45.52828342339));
#507=CARTESIAN_POINT('',(1.94357492043716,-16.8885321010634,-45.52828342339));
#508=CARTESIAN_POINT('',(1.972847417197E-13,-13.57252684207,-89.07845909573));
#509=CARTESIAN_POINT('',(4.93211854299275E-14,-16.8054716866329,-48.));
#510=CARTESIAN_POINT('',(-1.968657534839E-13,13.57252684207,-89.07845909573));
#511=CARTESIAN_POINT('',(-4.92164383709299E-14,16.8054716866329,-48.));
#512=CARTESIAN_POINT('',(0.,0.,-67.30337125956));
#513=CARTESIAN_POINT('',(0.,-17.,-44.));
#514=CARTESIAN_POINT('',(0.,-17.,-29.));
#515=CARTESIAN_POINT('',(-7.70371977754894E-31,-17.,-44.));
#516=CARTESIAN_POINT('',(0.,0.,-29.));
#517=CARTESIAN_POINT('',(0.,17.,-29.));
#518=CARTESIAN_POINT('',(0.,17.,-44.));
#519=CARTESIAN_POINT('',(7.70371977754894E-31,17.,-44.));
#520=CARTESIAN_POINT('',(0.,0.,-29.));
#521=CARTESIAN_POINT('',(0.,0.,-22.8));
#522=CARTESIAN_POINT('',(0.,-20.,-29.));
#523=CARTESIAN_POINT('',(0.,-20.,-26.));
#524=CARTESIAN_POINT('',(0.,20.,-29.));
#525=CARTESIAN_POINT('',(0.,20.,-26.));
#526=CARTESIAN_POINT('',(0.,0.,-26.));
#527=CARTESIAN_POINT('',(0.,0.,-29.));
#528=CARTESIAN_POINT('',(0.,0.,-26.));
#529=CARTESIAN_POINT('',(-31.5,0.,-26.));
#530=CARTESIAN_POINT('',(0.,0.,-26.));
#531=CARTESIAN_POINT('',(0.,0.,-26.));
#532=CARTESIAN_POINT('',(0.,0.,-21.377499074759));
#533=CARTESIAN_POINT('',(-30.4671954731638,8.00000000000156,-21.377499074759));
#534=CARTESIAN_POINT('',(0.,0.,34.9));
#535=CARTESIAN_POINT('',(0.,0.,-19.875));
#536=CARTESIAN_POINT('',(-27.7681654426962,7.99999999999913,-19.875));
#537=CARTESIAN_POINT('',(0.,0.,-20.62624953738));
#538=CARTESIAN_POINT('',(0.,0.,-19.875));
#539=CARTESIAN_POINT('',(-26.8328157299973,8.00000000000044,-19.875));
#540=CARTESIAN_POINT('',(0.,0.,-19.875));
#541=CARTESIAN_POINT('',(0.,-31.5,-14.62250092524));
#542=CARTESIAN_POINT('',(0.,-31.5,-14.62250092524));
#543=CARTESIAN_POINT('',(0.,-31.5,-12.5));
#544=CARTESIAN_POINT('',(0.,0.,-14.62250092524));
#545=CARTESIAN_POINT('',(0.,31.5,-14.62250092524));
#546=CARTESIAN_POINT('',(0.,31.5,-14.62250092524));
#547=CARTESIAN_POINT('',(0.,-31.5,-1.5));
#548=CARTESIAN_POINT('',(1.64425221160302E-26,-31.5,-1.50000000000004));
#549=CARTESIAN_POINT('',(0.,0.,-14.62250092524));
#550=CARTESIAN_POINT('',(0.,0.,34.9));
#551=CARTESIAN_POINT('',(0.,0.,-16.125));
#552=CARTESIAN_POINT('',(-27.7681654426962,7.99999999999913,-16.125));
#553=CARTESIAN_POINT('',(0.,0.,-15.37375046262));
#554=CARTESIAN_POINT('',(0.,0.,-16.125));
#555=CARTESIAN_POINT('',(26.5141471671253,9.00000000000112,-16.125));
#556=CARTESIAN_POINT('',(0.,0.,-16.125));
#557=CARTESIAN_POINT('',(0.,0.,-16.625));
#558=CARTESIAN_POINT('',(-26.4999999999999,7.34846922834994,-16.625));
#559=CARTESIAN_POINT('',(0.,0.,-16.625));
#560=CARTESIAN_POINT('',(0.,0.,-19.375));
#561=CARTESIAN_POINT('',(-26.4999999999999,-7.34846922834994,-19.375));
#562=CARTESIAN_POINT('',(0.,0.,34.9));
#563=CARTESIAN_POINT('',(0.,0.,-19.375));
#564=CARTESIAN_POINT('',(0.,0.,-29.));
#565=CARTESIAN_POINT('',(0.,0.,32.));
#566=CARTESIAN_POINT('',(-5.62404173816516E-13,-22.7174392126482,32.));
#567=CARTESIAN_POINT('',(5.55519092794337E-13,22.7174392126479,32.));
#568=CARTESIAN_POINT('',(0.,0.,32.));
#569=CARTESIAN_POINT('',(0.,0.,32.));
#570=CARTESIAN_POINT('',(0.,-24.22042845859,2.));
#571=CARTESIAN_POINT('',(0.,24.22042845859,2.));
#572=CARTESIAN_POINT('',(0.,0.,16.43002213115));
#573=CARTESIAN_POINT('',(0.,0.,16.43002213115));
#574=MECHANICAL_DESIGN_GEOMETRIC_PRESENTATION_REPRESENTATION('',(#319,#320,
#321,#322),#575);
#575=(
GEOMETRIC_REPRESENTATION_CONTEXT(3)
GLOBAL_UNCERTAINTY_ASSIGNED_CONTEXT((#576))
GLOBAL_UNIT_ASSIGNED_CONTEXT((#582,#578,#577))
REPRESENTATION_CONTEXT('HSK.63A-SC.14.090','TOP_LEVEL_ASSEMBLY_PART')
);
#576=UNCERTAINTY_MEASURE_WITH_UNIT(LENGTH_MEASURE(2.E-5),#582,
'DISTANCE_ACCURACY_VALUE','Maximum Tolerance applied to model');
#577=(
NAMED_UNIT(*)
SI_UNIT($,.STERADIAN.)
SOLID_ANGLE_UNIT()
);
#578=(
CONVERSION_BASED_UNIT('DEGREE',#580)
NAMED_UNIT(#579)
PLANE_ANGLE_UNIT()
);
#579=DIMENSIONAL_EXPONENTS(0.,0.,0.,0.,0.,0.,0.);
#580=PLANE_ANGLE_MEASURE_WITH_UNIT(PLANE_ANGLE_MEASURE(0.0174532925),#581);
#581=(
NAMED_UNIT(*)
PLANE_ANGLE_UNIT()
SI_UNIT($,.RADIAN.)
);
#582=(
LENGTH_UNIT()
NAMED_UNIT(*)
SI_UNIT(.MILLI.,.METRE.)
);
ENDSEC;
END-ISO-10303-21;
