ISO-10303-21;
HEADER;
/* Generated by software containing ST-Developer
 * from STEP Tools, Inc. (www.steptools.com) 
 */
/* OPTION: using custom schema-name function */

FILE_DESCRIPTION(
/* description */ (''),
/* implementation_level */ '2;1');

FILE_NAME(
/* name */ 'HSK.63A-SC.10.160.C.stp',
/* time_stamp */ '2024-07-21T13:54:27+02:00',
/* author */ (''),
/* organization */ (''),
/* preprocessor_version */ 'ST-DEVELOPER v16.7',
/* originating_system */ 'SIEMENS PLM Software NX 12.0',
/* authorisation */ '');

FILE_SCHEMA (('AUTOMOTIVE_DESIGN { 1 0 10303 214 3 1 1 1 }'));
ENDSEC;

DATA;
#10=CONSTRUCTIVE_GEOMETRY_REPRESENTATION_RELATIONSHIP(
'supplemental geometry','',#32,#11);
#11=CONSTRUCTIVE_GEOMETRY_REPRESENTATION('supplemental geometry',(#372,
#373,#374),#642);
#12=PROPERTY_DEFINITION_REPRESENTATION(#16,#14);
#13=PROPERTY_DEFINITION_REPRESENTATION(#17,#15);
#14=REPRESENTATION('',(#18),#642);
#15=REPRESENTATION('',(#19),#642);
#16=PROPERTY_DEFINITION('pmi validation property','',#23);
#17=PROPERTY_DEFINITION('pmi validation property','',#23);
#18=VALUE_REPRESENTATION_ITEM('number of annotations',COUNT_MEASURE(0.));
#19=VALUE_REPRESENTATION_ITEM('number of views',COUNT_MEASURE(0.));
#20=SHAPE_REPRESENTATION_RELATIONSHIP('None',
'relationship between pf6612088076yp2h-None and pf6612088076yp2h-None',
#32,#21);
#21=ADVANCED_BREP_SHAPE_REPRESENTATION('pf6612088076yp2h-None',(#38),#642);
#22=SHAPE_DEFINITION_REPRESENTATION(#23,#32);
#23=PRODUCT_DEFINITION_SHAPE('','',#24);
#24=PRODUCT_DEFINITION(' ','',#26,#25);
#25=PRODUCT_DEFINITION_CONTEXT('part definition',#31,'design');
#26=PRODUCT_DEFINITION_FORMATION_WITH_SPECIFIED_SOURCE(' ',' ',#28,
 .NOT_KNOWN.);
#27=PRODUCT_RELATED_PRODUCT_CATEGORY('part','',(#28));
#28=PRODUCT('pf6612088076yp2h','pf6612088076yp2h',' ',(#29));
#29=PRODUCT_CONTEXT(' ',#31,'mechanical');
#30=APPLICATION_PROTOCOL_DEFINITION('international standard',
'automotive_design',2010,#31);
#31=APPLICATION_CONTEXT(
'core data for automotive mechanical design processes');
#32=SHAPE_REPRESENTATION('pf6612088076yp2h-None',(#371),#642);
#33=SURFACE_STYLE_USAGE(.BOTH.,#34);
#34=SURFACE_SIDE_STYLE('',(#35));
#35=SURFACE_STYLE_FILL_AREA(#36);
#36=FILL_AREA_STYLE('',(#37));
#37=FILL_AREA_STYLE_COLOUR('',#367);
#38=MANIFOLD_SOLID_BREP('93.05.271.105-1-SOLID1',#39);
#39=CLOSED_SHELL('',(#86,#87,#88,#89,#90,#91,#92,#93,#94,#95,#96,#97,#98,
#99,#100,#101,#102,#103,#104,#105,#106,#107,#108));
#40=TOROIDAL_SURFACE('',#390,18.8,3.);
#41=TOROIDAL_SURFACE('',#402,18.8,3.);
#42=TOROIDAL_SURFACE('',#407,28.5,0.999999999999999);
#43=TOROIDAL_SURFACE('',#412,28.5,1.);
#44=FACE_OUTER_BOUND('',#148,.T.);
#45=FACE_OUTER_BOUND('',#149,.T.);
#46=FACE_OUTER_BOUND('',#150,.T.);
#47=FACE_OUTER_BOUND('',#151,.T.);
#48=FACE_OUTER_BOUND('',#154,.T.);
#49=FACE_OUTER_BOUND('',#155,.T.);
#50=FACE_OUTER_BOUND('',#174,.T.);
#51=FACE_OUTER_BOUND('',#175,.T.);
#52=FACE_OUTER_BOUND('',#176,.T.);
#53=FACE_OUTER_BOUND('',#177,.T.);
#54=CONICAL_SURFACE('',#385,12.0787017068246,4.50000000000017);
#55=CONICAL_SURFACE('',#410,31.5,59.9999999999999);
#56=CONICAL_SURFACE('',#415,28.8975952641917,59.9999999999997);
#57=CONICAL_SURFACE('',#424,24.3206228424601,2.86805555555558);
#58=CONICAL_SURFACE('',#425,24.3206228424601,2.86805555555558);
#59=CYLINDRICAL_SURFACE('',#381,31.5);
#60=CYLINDRICAL_SURFACE('',#393,15.8);
#61=CYLINDRICAL_SURFACE('',#395,16.);
#62=CYLINDRICAL_SURFACE('',#397,16.);
#63=CYLINDRICAL_SURFACE('',#400,15.8);
#64=CYLINDRICAL_SURFACE('',#405,27.5);
#65=CYLINDRICAL_SURFACE('',#419,31.5);
#66=LINE('',#559,#76);
#67=LINE('',#561,#77);
#68=LINE('',#568,#78);
#69=LINE('',#573,#79);
#70=LINE('',#589,#80);
#71=LINE('',#591,#81);
#72=LINE('',#593,#82);
#73=LINE('',#597,#83);
#74=LINE('',#637,#84);
#75=LINE('',#638,#85);
#76=VECTOR('',#444,1.);
#77=VECTOR('',#445,1.);
#78=VECTOR('',#452,1.);
#79=VECTOR('',#455,1.);
#80=VECTOR('',#472,1.);
#81=VECTOR('',#475,1.);
#82=VECTOR('',#478,1.);
#83=VECTOR('',#481,1.);
#84=VECTOR('',#540,1.);
#85=VECTOR('',#541,1.);
#86=ADVANCED_FACE('',(#116,#117),#109,.F.);
#87=ADVANCED_FACE('',(#118,#119),#59,.T.);
#88=ADVANCED_FACE('',(#120,#121),#54,.T.);
#89=ADVANCED_FACE('',(#44),#40,.F.);
#90=ADVANCED_FACE('',(#45),#60,.T.);
#91=ADVANCED_FACE('',(#46),#61,.T.);
#92=ADVANCED_FACE('',(#47),#62,.T.);
#93=ADVANCED_FACE('',(#122,#123),#110,.F.);
#94=ADVANCED_FACE('',(#48),#63,.T.);
#95=ADVANCED_FACE('',(#49),#41,.F.);
#96=ADVANCED_FACE('',(#124,#125),#64,.T.);
#97=ADVANCED_FACE('',(#126,#127),#42,.F.);
#98=ADVANCED_FACE('',(#128,#129),#111,.T.);
#99=ADVANCED_FACE('',(#130,#131),#55,.T.);
#100=ADVANCED_FACE('',(#132,#133),#43,.F.);
#101=ADVANCED_FACE('',(#134,#135),#56,.T.);
#102=ADVANCED_FACE('',(#136,#137),#112,.T.);
#103=ADVANCED_FACE('',(#138,#139),#113,.F.);
#104=ADVANCED_FACE('',(#140,#141),#65,.T.);
#105=ADVANCED_FACE('',(#50),#114,.F.);
#106=ADVANCED_FACE('',(#51),#115,.F.);
#107=ADVANCED_FACE('',(#52),#57,.T.);
#108=ADVANCED_FACE('',(#53),#58,.T.);
#109=PLANE('',#379);
#110=PLANE('',#399);
#111=PLANE('',#409);
#112=PLANE('',#416);
#113=PLANE('',#418);
#114=PLANE('',#420);
#115=PLANE('',#423);
#116=FACE_BOUND('',#142,.T.);
#117=FACE_BOUND('',#143,.T.);
#118=FACE_BOUND('',#144,.T.);
#119=FACE_BOUND('',#145,.T.);
#120=FACE_BOUND('',#146,.T.);
#121=FACE_BOUND('',#147,.T.);
#122=FACE_BOUND('',#152,.T.);
#123=FACE_BOUND('',#153,.T.);
#124=FACE_BOUND('',#156,.T.);
#125=FACE_BOUND('',#157,.T.);
#126=FACE_BOUND('',#158,.T.);
#127=FACE_BOUND('',#159,.T.);
#128=FACE_BOUND('',#160,.T.);
#129=FACE_BOUND('',#161,.T.);
#130=FACE_BOUND('',#162,.T.);
#131=FACE_BOUND('',#163,.T.);
#132=FACE_BOUND('',#164,.T.);
#133=FACE_BOUND('',#165,.T.);
#134=FACE_BOUND('',#166,.T.);
#135=FACE_BOUND('',#167,.T.);
#136=FACE_BOUND('',#168,.T.);
#137=FACE_BOUND('',#169,.T.);
#138=FACE_BOUND('',#170,.T.);
#139=FACE_BOUND('',#171,.T.);
#140=FACE_BOUND('',#172,.T.);
#141=FACE_BOUND('',#173,.T.);
#142=EDGE_LOOP('',(#178,#179));
#143=EDGE_LOOP('',(#180,#181));
#144=EDGE_LOOP('',(#182,#183,#184,#185,#186,#187));
#145=EDGE_LOOP('',(#188));
#146=EDGE_LOOP('',(#189));
#147=EDGE_LOOP('',(#190,#191,#192,#193,#194,#195));
#148=EDGE_LOOP('',(#196,#197,#198,#199));
#149=EDGE_LOOP('',(#200,#201,#202,#203));
#150=EDGE_LOOP('',(#204,#205,#206,#207));
#151=EDGE_LOOP('',(#208,#209,#210,#211));
#152=EDGE_LOOP('',(#212,#213));
#153=EDGE_LOOP('',(#214,#215));
#154=EDGE_LOOP('',(#216,#217,#218,#219));
#155=EDGE_LOOP('',(#220,#221,#222,#223));
#156=EDGE_LOOP('',(#224));
#157=EDGE_LOOP('',(#225));
#158=EDGE_LOOP('',(#226));
#159=EDGE_LOOP('',(#227));
#160=EDGE_LOOP('',(#228));
#161=EDGE_LOOP('',(#229));
#162=EDGE_LOOP('',(#230));
#163=EDGE_LOOP('',(#231));
#164=EDGE_LOOP('',(#232));
#165=EDGE_LOOP('',(#233));
#166=EDGE_LOOP('',(#234));
#167=EDGE_LOOP('',(#235));
#168=EDGE_LOOP('',(#236));
#169=EDGE_LOOP('',(#237));
#170=EDGE_LOOP('',(#238));
#171=EDGE_LOOP('',(#239,#240));
#172=EDGE_LOOP('',(#241));
#173=EDGE_LOOP('',(#242));
#174=EDGE_LOOP('',(#243));
#175=EDGE_LOOP('',(#244,#245));
#176=EDGE_LOOP('',(#246,#247,#248,#249));
#177=EDGE_LOOP('',(#250,#251,#252,#253));
#178=ORIENTED_EDGE('',*,*,#284,.T.);
#179=ORIENTED_EDGE('',*,*,#285,.T.);
#180=ORIENTED_EDGE('',*,*,#286,.T.);
#181=ORIENTED_EDGE('',*,*,#287,.T.);
#182=ORIENTED_EDGE('',*,*,#288,.F.);
#183=ORIENTED_EDGE('',*,*,#288,.T.);
#184=ORIENTED_EDGE('',*,*,#284,.F.);
#185=ORIENTED_EDGE('',*,*,#289,.F.);
#186=ORIENTED_EDGE('',*,*,#289,.T.);
#187=ORIENTED_EDGE('',*,*,#285,.F.);
#188=ORIENTED_EDGE('',*,*,#290,.T.);
#189=ORIENTED_EDGE('',*,*,#291,.F.);
#190=ORIENTED_EDGE('',*,*,#292,.F.);
#191=ORIENTED_EDGE('',*,*,#292,.T.);
#192=ORIENTED_EDGE('',*,*,#293,.F.);
#193=ORIENTED_EDGE('',*,*,#294,.F.);
#194=ORIENTED_EDGE('',*,*,#294,.T.);
#195=ORIENTED_EDGE('',*,*,#295,.F.);
#196=ORIENTED_EDGE('',*,*,#296,.F.);
#197=ORIENTED_EDGE('',*,*,#297,.F.);
#198=ORIENTED_EDGE('',*,*,#298,.T.);
#199=ORIENTED_EDGE('',*,*,#299,.T.);
#200=ORIENTED_EDGE('',*,*,#300,.T.);
#201=ORIENTED_EDGE('',*,*,#301,.F.);
#202=ORIENTED_EDGE('',*,*,#302,.F.);
#203=ORIENTED_EDGE('',*,*,#303,.T.);
#204=ORIENTED_EDGE('',*,*,#295,.T.);
#205=ORIENTED_EDGE('',*,*,#304,.F.);
#206=ORIENTED_EDGE('',*,*,#305,.F.);
#207=ORIENTED_EDGE('',*,*,#306,.T.);
#208=ORIENTED_EDGE('',*,*,#304,.T.);
#209=ORIENTED_EDGE('',*,*,#293,.T.);
#210=ORIENTED_EDGE('',*,*,#306,.F.);
#211=ORIENTED_EDGE('',*,*,#307,.F.);
#212=ORIENTED_EDGE('',*,*,#300,.F.);
#213=ORIENTED_EDGE('',*,*,#308,.F.);
#214=ORIENTED_EDGE('',*,*,#305,.T.);
#215=ORIENTED_EDGE('',*,*,#307,.T.);
#216=ORIENTED_EDGE('',*,*,#301,.T.);
#217=ORIENTED_EDGE('',*,*,#308,.T.);
#218=ORIENTED_EDGE('',*,*,#303,.F.);
#219=ORIENTED_EDGE('',*,*,#298,.F.);
#220=ORIENTED_EDGE('',*,*,#297,.T.);
#221=ORIENTED_EDGE('',*,*,#309,.F.);
#222=ORIENTED_EDGE('',*,*,#299,.F.);
#223=ORIENTED_EDGE('',*,*,#302,.T.);
#224=ORIENTED_EDGE('',*,*,#310,.F.);
#225=ORIENTED_EDGE('',*,*,#311,.T.);
#226=ORIENTED_EDGE('',*,*,#312,.F.);
#227=ORIENTED_EDGE('',*,*,#310,.T.);
#228=ORIENTED_EDGE('',*,*,#313,.F.);
#229=ORIENTED_EDGE('',*,*,#312,.T.);
#230=ORIENTED_EDGE('',*,*,#290,.F.);
#231=ORIENTED_EDGE('',*,*,#313,.T.);
#232=ORIENTED_EDGE('',*,*,#311,.F.);
#233=ORIENTED_EDGE('',*,*,#314,.T.);
#234=ORIENTED_EDGE('',*,*,#315,.F.);
#235=ORIENTED_EDGE('',*,*,#316,.T.);
#236=ORIENTED_EDGE('',*,*,#314,.F.);
#237=ORIENTED_EDGE('',*,*,#315,.T.);
#238=ORIENTED_EDGE('',*,*,#317,.F.);
#239=ORIENTED_EDGE('',*,*,#309,.T.);
#240=ORIENTED_EDGE('',*,*,#296,.T.);
#241=ORIENTED_EDGE('',*,*,#316,.F.);
#242=ORIENTED_EDGE('',*,*,#317,.T.);
#243=ORIENTED_EDGE('',*,*,#291,.T.);
#244=ORIENTED_EDGE('',*,*,#318,.T.);
#245=ORIENTED_EDGE('',*,*,#319,.T.);
#246=ORIENTED_EDGE('',*,*,#287,.F.);
#247=ORIENTED_EDGE('',*,*,#320,.T.);
#248=ORIENTED_EDGE('',*,*,#319,.F.);
#249=ORIENTED_EDGE('',*,*,#321,.F.);
#250=ORIENTED_EDGE('',*,*,#286,.F.);
#251=ORIENTED_EDGE('',*,*,#321,.T.);
#252=ORIENTED_EDGE('',*,*,#318,.F.);
#253=ORIENTED_EDGE('',*,*,#320,.F.);
#254=VERTEX_POINT('',#551);
#255=VERTEX_POINT('',#552);
#256=VERTEX_POINT('',#555);
#257=VERTEX_POINT('',#556);
#258=VERTEX_POINT('',#560);
#259=VERTEX_POINT('',#562);
#260=VERTEX_POINT('',#564);
#261=VERTEX_POINT('',#567);
#262=VERTEX_POINT('',#569);
#263=VERTEX_POINT('',#570);
#264=VERTEX_POINT('',#572);
#265=VERTEX_POINT('',#574);
#266=VERTEX_POINT('',#578);
#267=VERTEX_POINT('',#579);
#268=VERTEX_POINT('',#581);
#269=VERTEX_POINT('',#583);
#270=VERTEX_POINT('',#587);
#271=VERTEX_POINT('',#588);
#272=VERTEX_POINT('',#594);
#273=VERTEX_POINT('',#596);
#274=VERTEX_POINT('',#607);
#275=VERTEX_POINT('',#609);
#276=VERTEX_POINT('',#612);
#277=VERTEX_POINT('',#615);
#278=VERTEX_POINT('',#619);
#279=VERTEX_POINT('',#622);
#280=VERTEX_POINT('',#624);
#281=VERTEX_POINT('',#628);
#282=VERTEX_POINT('',#633);
#283=VERTEX_POINT('',#634);
#284=EDGE_CURVE('',#254,#255,#322,.T.);
#285=EDGE_CURVE('',#255,#254,#323,.T.);
#286=EDGE_CURVE('',#256,#257,#324,.T.);
#287=EDGE_CURVE('',#257,#256,#325,.T.);
#288=EDGE_CURVE('',#258,#255,#66,.T.);
#289=EDGE_CURVE('',#259,#254,#67,.T.);
#290=EDGE_CURVE('',#260,#260,#326,.T.);
#291=EDGE_CURVE('',#261,#261,#327,.T.);
#292=EDGE_CURVE('',#262,#263,#68,.T.);
#293=EDGE_CURVE('',#264,#263,#328,.T.);
#294=EDGE_CURVE('',#265,#264,#69,.T.);
#295=EDGE_CURVE('',#263,#264,#329,.T.);
#296=EDGE_CURVE('',#266,#267,#330,.T.);
#297=EDGE_CURVE('',#268,#266,#331,.T.);
#298=EDGE_CURVE('',#268,#269,#332,.T.);
#299=EDGE_CURVE('',#269,#267,#333,.T.);
#300=EDGE_CURVE('',#270,#271,#334,.T.);
#301=EDGE_CURVE('',#268,#271,#70,.T.);
#302=EDGE_CURVE('',#269,#268,#335,.T.);
#303=EDGE_CURVE('',#269,#270,#71,.T.);
#304=EDGE_CURVE('',#272,#264,#72,.T.);
#305=EDGE_CURVE('',#273,#272,#336,.T.);
#306=EDGE_CURVE('',#273,#263,#73,.T.);
#307=EDGE_CURVE('',#272,#273,#337,.T.);
#308=EDGE_CURVE('',#271,#270,#338,.T.);
#309=EDGE_CURVE('',#267,#266,#339,.T.);
#310=EDGE_CURVE('',#274,#274,#340,.T.);
#311=EDGE_CURVE('',#275,#275,#341,.T.);
#312=EDGE_CURVE('',#276,#276,#342,.T.);
#313=EDGE_CURVE('',#277,#277,#343,.T.);
#314=EDGE_CURVE('',#278,#278,#344,.T.);
#315=EDGE_CURVE('',#279,#279,#345,.T.);
#316=EDGE_CURVE('',#280,#280,#346,.T.);
#317=EDGE_CURVE('',#281,#281,#347,.T.);
#318=EDGE_CURVE('',#282,#283,#348,.T.);
#319=EDGE_CURVE('',#283,#282,#349,.T.);
#320=EDGE_CURVE('',#257,#282,#74,.T.);
#321=EDGE_CURVE('',#256,#283,#75,.T.);
#322=CIRCLE('',#375,31.5);
#323=CIRCLE('',#376,31.5);
#324=CIRCLE('',#377,24.3206228424601);
#325=CIRCLE('',#378,24.3206228424601);
#326=CIRCLE('',#380,31.5);
#327=CIRCLE('',#382,12.);
#328=CIRCLE('',#383,16.);
#329=CIRCLE('',#384,16.);
#330=CIRCLE('',#386,18.8);
#331=CIRCLE('',#387,3.);
#332=CIRCLE('',#388,15.8);
#333=CIRCLE('',#389,3.);
#334=CIRCLE('',#391,15.8);
#335=CIRCLE('',#392,15.8);
#336=CIRCLE('',#394,16.);
#337=CIRCLE('',#396,16.);
#338=CIRCLE('',#398,15.8);
#339=CIRCLE('',#401,18.8);
#340=CIRCLE('',#403,27.5);
#341=CIRCLE('',#404,27.5);
#342=CIRCLE('',#406,28.5);
#343=CIRCLE('',#408,28.8975952641917);
#344=CIRCLE('',#411,28.5);
#345=CIRCLE('',#413,28.8975952641917);
#346=CIRCLE('',#414,31.5);
#347=CIRCLE('',#417,31.5);
#348=CIRCLE('',#421,22.7174591982184);
#349=CIRCLE('',#422,22.7174591982184);
#350=INVISIBILITY((#351,#352,#353,#354));
#351=PRESENTATION_LAYER_ASSIGNMENT('100','Layer 100',(#372));
#352=PRESENTATION_LAYER_ASSIGNMENT('101','Layer 101',(#373));
#353=PRESENTATION_LAYER_ASSIGNMENT('102','Layer 102',(#374));
#354=PRESENTATION_LAYER_ASSIGNMENT('98','Layer 98',(#38));
#355=STYLED_ITEM('',(#359),#372);
#356=STYLED_ITEM('',(#360),#373);
#357=STYLED_ITEM('',(#361),#374);
#358=STYLED_ITEM('',(#362),#38);
#359=PRESENTATION_STYLE_ASSIGNMENT((#363));
#360=PRESENTATION_STYLE_ASSIGNMENT((#364));
#361=PRESENTATION_STYLE_ASSIGNMENT((#365));
#362=PRESENTATION_STYLE_ASSIGNMENT((#33));
#363=CURVE_STYLE('',#368,POSITIVE_LENGTH_MEASURE(0.7),#366);
#364=CURVE_STYLE('',#369,POSITIVE_LENGTH_MEASURE(0.7),#366);
#365=CURVE_STYLE('',#370,POSITIVE_LENGTH_MEASURE(0.7),#366);
#366=COLOUR_RGB('Medium Maroon',0.6,0.4,0.4);
#367=COLOUR_RGB('Medium Gray',0.490196078431373,0.490196078431373,0.490196078431373);
#368=DRAUGHTING_PRE_DEFINED_CURVE_FONT('continuous');
#369=DRAUGHTING_PRE_DEFINED_CURVE_FONT('continuous');
#370=DRAUGHTING_PRE_DEFINED_CURVE_FONT('continuous');
#371=AXIS2_PLACEMENT_3D('',#546,#426,#427);
#372=AXIS2_PLACEMENT_3D('PCS',#547,#428,#429);
#373=AXIS2_PLACEMENT_3D('CSW',#548,#430,#431);
#374=AXIS2_PLACEMENT_3D('MCS',#549,#432,#433);
#375=AXIS2_PLACEMENT_3D('',#550,#434,#435);
#376=AXIS2_PLACEMENT_3D('',#553,#436,#437);
#377=AXIS2_PLACEMENT_3D('',#554,#438,#439);
#378=AXIS2_PLACEMENT_3D('',#557,#440,#441);
#379=AXIS2_PLACEMENT_3D('',#558,#442,#443);
#380=AXIS2_PLACEMENT_3D('',#563,#446,#447);
#381=AXIS2_PLACEMENT_3D('',#565,#448,#449);
#382=AXIS2_PLACEMENT_3D('',#566,#450,#451);
#383=AXIS2_PLACEMENT_3D('',#571,#453,#454);
#384=AXIS2_PLACEMENT_3D('',#575,#456,#457);
#385=AXIS2_PLACEMENT_3D('',#576,#458,#459);
#386=AXIS2_PLACEMENT_3D('',#577,#460,#461);
#387=AXIS2_PLACEMENT_3D('',#580,#462,#463);
#388=AXIS2_PLACEMENT_3D('',#582,#464,#465);
#389=AXIS2_PLACEMENT_3D('',#584,#466,#467);
#390=AXIS2_PLACEMENT_3D('',#585,#468,#469);
#391=AXIS2_PLACEMENT_3D('',#586,#470,#471);
#392=AXIS2_PLACEMENT_3D('',#590,#473,#474);
#393=AXIS2_PLACEMENT_3D('',#592,#476,#477);
#394=AXIS2_PLACEMENT_3D('',#595,#479,#480);
#395=AXIS2_PLACEMENT_3D('',#598,#482,#483);
#396=AXIS2_PLACEMENT_3D('',#599,#484,#485);
#397=AXIS2_PLACEMENT_3D('',#600,#486,#487);
#398=AXIS2_PLACEMENT_3D('',#601,#488,#489);
#399=AXIS2_PLACEMENT_3D('',#602,#490,#491);
#400=AXIS2_PLACEMENT_3D('',#603,#492,#493);
#401=AXIS2_PLACEMENT_3D('',#604,#494,#495);
#402=AXIS2_PLACEMENT_3D('',#605,#496,#497);
#403=AXIS2_PLACEMENT_3D('',#606,#498,#499);
#404=AXIS2_PLACEMENT_3D('',#608,#500,#501);
#405=AXIS2_PLACEMENT_3D('',#610,#502,#503);
#406=AXIS2_PLACEMENT_3D('',#611,#504,#505);
#407=AXIS2_PLACEMENT_3D('',#613,#506,#507);
#408=AXIS2_PLACEMENT_3D('',#614,#508,#509);
#409=AXIS2_PLACEMENT_3D('',#616,#510,#511);
#410=AXIS2_PLACEMENT_3D('',#617,#512,#513);
#411=AXIS2_PLACEMENT_3D('',#618,#514,#515);
#412=AXIS2_PLACEMENT_3D('',#620,#516,#517);
#413=AXIS2_PLACEMENT_3D('',#621,#518,#519);
#414=AXIS2_PLACEMENT_3D('',#623,#520,#521);
#415=AXIS2_PLACEMENT_3D('',#625,#522,#523);
#416=AXIS2_PLACEMENT_3D('',#626,#524,#525);
#417=AXIS2_PLACEMENT_3D('',#627,#526,#527);
#418=AXIS2_PLACEMENT_3D('',#629,#528,#529);
#419=AXIS2_PLACEMENT_3D('',#630,#530,#531);
#420=AXIS2_PLACEMENT_3D('',#631,#532,#533);
#421=AXIS2_PLACEMENT_3D('',#632,#534,#535);
#422=AXIS2_PLACEMENT_3D('',#635,#536,#537);
#423=AXIS2_PLACEMENT_3D('',#636,#538,#539);
#424=AXIS2_PLACEMENT_3D('',#639,#542,#543);
#425=AXIS2_PLACEMENT_3D('',#640,#544,#545);
#426=DIRECTION('',(0.,0.,1.));
#427=DIRECTION('',(1.,0.,0.));
#428=DIRECTION('',(0.,0.,1.));
#429=DIRECTION('',(1.,0.,0.));
#430=DIRECTION('',(0.,0.,1.));
#431=DIRECTION('',(1.,0.,0.));
#432=DIRECTION('',(0.,0.,1.));
#433=DIRECTION('',(1.,0.,0.));
#434=DIRECTION('',(0.,0.,1.));
#435=DIRECTION('',(-1.,0.,0.));
#436=DIRECTION('',(0.,0.,1.));
#437=DIRECTION('',(-1.,0.,0.));
#438=DIRECTION('',(0.,0.,-1.));
#439=DIRECTION('',(-1.,0.,0.));
#440=DIRECTION('',(0.,0.,-1.));
#441=DIRECTION('',(-1.,0.,0.));
#442=DIRECTION('',(0.,0.,-1.));
#443=DIRECTION('',(-1.,0.,0.));
#444=DIRECTION('',(0.,0.,1.));
#445=DIRECTION('',(0.,0.,1.));
#446=DIRECTION('',(0.,0.,1.));
#447=DIRECTION('',(-1.,0.,0.));
#448=DIRECTION('',(0.,0.,1.));
#449=DIRECTION('',(1.,0.,0.));
#450=DIRECTION('',(0.,0.,-1.));
#451=DIRECTION('',(1.,0.,0.));
#452=DIRECTION('',(-0.0784590957278479,0.,0.996917333733128));
#453=DIRECTION('',(0.,0.,1.));
#454=DIRECTION('',(-1.,0.,0.));
#455=DIRECTION('',(0.0784590957278479,-9.60846804471047E-18,0.996917333733128));
#456=DIRECTION('',(0.,0.,1.));
#457=DIRECTION('',(-1.,0.,0.));
#458=DIRECTION('',(0.,0.,1.));
#459=DIRECTION('',(1.,0.,-3.05744114447496E-16));
#460=DIRECTION('',(0.,0.,1.));
#461=DIRECTION('',(-1.,0.,0.));
#462=DIRECTION('',(1.22464679914735E-16,1.,0.));
#463=DIRECTION('',(-1.,1.22464679914735E-16,0.));
#464=DIRECTION('',(0.,0.,1.));
#465=DIRECTION('',(-1.,0.,0.));
#466=DIRECTION('',(0.,-1.,0.));
#467=DIRECTION('',(1.,0.,0.));
#468=DIRECTION('',(0.,0.,1.));
#469=DIRECTION('',(1.,0.,0.));
#470=DIRECTION('',(0.,0.,1.));
#471=DIRECTION('',(-1.,0.,0.));
#472=DIRECTION('',(0.,0.,-1.));
#473=DIRECTION('',(0.,0.,1.));
#474=DIRECTION('',(-1.,0.,0.));
#475=DIRECTION('',(0.,0.,-1.));
#476=DIRECTION('',(0.,0.,1.));
#477=DIRECTION('',(1.,0.,0.));
#478=DIRECTION('',(0.,0.,-1.));
#479=DIRECTION('',(0.,0.,1.));
#480=DIRECTION('',(-1.,0.,0.));
#481=DIRECTION('',(0.,0.,-1.));
#482=DIRECTION('',(0.,0.,1.));
#483=DIRECTION('',(1.,0.,0.));
#484=DIRECTION('',(0.,0.,1.));
#485=DIRECTION('',(-1.,0.,0.));
#486=DIRECTION('',(0.,0.,1.));
#487=DIRECTION('',(1.,0.,0.));
#488=DIRECTION('',(0.,0.,1.));
#489=DIRECTION('',(-1.,0.,0.));
#490=DIRECTION('',(0.,0.,-1.));
#491=DIRECTION('',(-1.,0.,0.));
#492=DIRECTION('',(0.,0.,1.));
#493=DIRECTION('',(1.,0.,0.));
#494=DIRECTION('',(0.,0.,1.));
#495=DIRECTION('',(-1.,0.,0.));
#496=DIRECTION('',(0.,0.,1.));
#497=DIRECTION('',(1.,0.,0.));
#498=DIRECTION('',(0.,0.,1.));
#499=DIRECTION('',(-1.,0.,0.));
#500=DIRECTION('',(0.,0.,1.));
#501=DIRECTION('',(-1.,0.,0.));
#502=DIRECTION('',(0.,0.,1.));
#503=DIRECTION('',(1.,0.,0.));
#504=DIRECTION('',(0.,0.,1.));
#505=DIRECTION('',(-1.,0.,0.));
#506=DIRECTION('',(0.,0.,1.));
#507=DIRECTION('',(1.,0.,0.));
#508=DIRECTION('',(0.,0.,1.));
#509=DIRECTION('',(-1.,0.,0.));
#510=DIRECTION('',(0.,0.,-1.));
#511=DIRECTION('',(-1.,0.,0.));
#512=DIRECTION('',(0.,0.,1.));
#513=DIRECTION('',(1.,0.,2.36076915078147E-17));
#514=DIRECTION('',(0.,0.,1.));
#515=DIRECTION('',(-1.,0.,0.));
#516=DIRECTION('',(0.,0.,1.));
#517=DIRECTION('',(1.,0.,0.));
#518=DIRECTION('',(0.,0.,1.));
#519=DIRECTION('',(-1.,0.,0.));
#520=DIRECTION('',(0.,0.,1.));
#521=DIRECTION('',(-1.,0.,0.));
#522=DIRECTION('',(0.,0.,-1.));
#523=DIRECTION('',(-1.,0.,-5.12255899182903E-17));
#524=DIRECTION('',(0.,0.,1.));
#525=DIRECTION('',(1.,0.,0.));
#526=DIRECTION('',(0.,0.,1.));
#527=DIRECTION('',(-1.,0.,0.));
#528=DIRECTION('',(0.,0.,1.));
#529=DIRECTION('',(1.,0.,0.));
#530=DIRECTION('',(0.,0.,1.));
#531=DIRECTION('',(1.,0.,0.));
#532=DIRECTION('',(0.,0.,1.));
#533=DIRECTION('',(1.,0.,0.));
#534=DIRECTION('',(0.,2.16840434497101E-16,1.));
#535=DIRECTION('',(0.,1.,-3.05443220712438E-16));
#536=DIRECTION('',(0.,2.16840434497101E-16,1.));
#537=DIRECTION('',(0.,1.,-3.05443220712438E-16));
#538=DIRECTION('',(0.,-2.16840434497101E-16,-1.));
#539=DIRECTION('',(0.,1.,-2.15105711021124E-16));
#540=DIRECTION('',(6.12765625816611E-18,-0.0500361105131079,0.998747409330668));
#541=DIRECTION('',(0.,0.0500361105131084,0.998747409330668));
#542=DIRECTION('',(0.,-2.16840434497101E-16,-1.));
#543=DIRECTION('',(0.,1.,0.));
#544=DIRECTION('',(0.,-2.16840434497101E-16,-1.));
#545=DIRECTION('',(0.,1.,0.));
#546=CARTESIAN_POINT('',(0.,0.,0.));
#547=CARTESIAN_POINT('',(0.,0.,0.));
#548=CARTESIAN_POINT('',(0.,0.,-160.));
#549=CARTESIAN_POINT('',(0.,0.,0.));
#550=CARTESIAN_POINT('',(-7.98459345489235E-14,-8.67746995743113E-30,0.));
#551=CARTESIAN_POINT('',(-31.5000000000001,-8.67746995743113E-30,0.));
#552=CARTESIAN_POINT('',(31.4999999999999,-3.85763741731417E-15,0.));
#553=CARTESIAN_POINT('',(-7.98459345489235E-14,-8.67746995743113E-30,0.));
#554=CARTESIAN_POINT('',(-8.01101406480496E-14,-1.02182139129409E-29,0.));
#555=CARTESIAN_POINT('',(-7.68675172571946E-14,-24.3206228424601,0.));
#556=CARTESIAN_POINT('',(-7.98459345489235E-14,24.3206228424601,0.));
#557=CARTESIAN_POINT('',(-8.01101406480496E-14,-1.02182139129409E-29,0.));
#558=CARTESIAN_POINT('',(-7.98459345489235E-14,-8.67746995743113E-30,0.));
#559=CARTESIAN_POINT('',(31.4999999999999,-3.85763741731417E-15,0.));
#560=CARTESIAN_POINT('',(31.4999999999999,-3.85763741731417E-15,-4.99999999999998));
#561=CARTESIAN_POINT('',(-31.5000000000001,-8.67746995743113E-30,0.));
#562=CARTESIAN_POINT('',(-31.5000000000001,8.67361737988395E-16,-4.99999999999998));
#563=CARTESIAN_POINT('',(-7.98459345489235E-14,-8.67746995743113E-30,-14.6225009252407));
#564=CARTESIAN_POINT('',(-31.5000000000001,-8.67746995743113E-30,-14.6225009252407));
#565=CARTESIAN_POINT('',(-7.98459345489235E-14,-8.67746995743113E-30,0.));
#566=CARTESIAN_POINT('',(-7.98459345489235E-14,-8.67746995743113E-30,-160.));
#567=CARTESIAN_POINT('',(11.9999999999999,-8.67746995743113E-30,-160.));
#568=CARTESIAN_POINT('',(-12.0787017068247,-8.67746995743113E-30,-159.));
#569=CARTESIAN_POINT('',(-12.0787017068247,-8.67746995743113E-30,-159.));
#570=CARTESIAN_POINT('',(-16.0000000000001,-8.67746995743113E-30,-109.175181055303));
#571=CARTESIAN_POINT('',(-7.98459345489235E-14,-8.67746995743113E-30,-109.175181055303));
#572=CARTESIAN_POINT('',(15.9999999999999,-1.95943487863577E-15,-109.175181055303));
#573=CARTESIAN_POINT('',(12.0787017068245,-1.47921433831185E-15,-159.));
#574=CARTESIAN_POINT('',(12.0787017068245,-1.47921433831185E-15,-159.));
#575=CARTESIAN_POINT('',(-7.98459345489235E-14,-8.67746995743113E-30,-109.175181055303));
#576=CARTESIAN_POINT('',(-7.98459345489235E-14,-8.67746995743113E-30,-159.));
#577=CARTESIAN_POINT('',(-7.98459345489235E-14,-8.67746995743113E-30,-26.));
#578=CARTESIAN_POINT('',(18.7999999999999,-2.30233598239703E-15,-26.));
#579=CARTESIAN_POINT('',(-18.8000000000001,-8.67746995743113E-30,-26.));
#580=CARTESIAN_POINT('',(18.7999999999999,-2.30233598239703E-15,-29.));
#581=CARTESIAN_POINT('',(15.7999999999999,-1.93494194265283E-15,-29.));
#582=CARTESIAN_POINT('',(-7.98459345489235E-14,-8.67746995743113E-30,-29.));
#583=CARTESIAN_POINT('',(-15.8000000000001,-8.67746995743113E-30,-29.));
#584=CARTESIAN_POINT('',(-18.8000000000001,-8.67746995743113E-30,-29.));
#585=CARTESIAN_POINT('',(-7.98459345489235E-14,-8.67746995743113E-30,-29.));
#586=CARTESIAN_POINT('',(-7.98459345489235E-14,-8.67746995743113E-30,-31.));
#587=CARTESIAN_POINT('',(-15.8000000000001,-8.67746995743113E-30,-31.));
#588=CARTESIAN_POINT('',(15.7999999999999,-1.93494194265283E-15,-31.));
#589=CARTESIAN_POINT('',(15.7999999999999,-1.93494194265283E-15,34.9876173311003));
#590=CARTESIAN_POINT('',(-7.98459345489235E-14,-8.67746995743113E-30,-29.));
#591=CARTESIAN_POINT('',(-15.8000000000001,-8.67746995743113E-30,34.9876173311003));
#592=CARTESIAN_POINT('',(-7.98459345489235E-14,-8.67746995743113E-30,34.9876173311003));
#593=CARTESIAN_POINT('',(15.9999999999999,-1.95943487863577E-15,34.9876173311003));
#594=CARTESIAN_POINT('',(15.9999999999999,-1.95943487863577E-15,-31.));
#595=CARTESIAN_POINT('',(-7.98459345489235E-14,-8.67746995743113E-30,-31.));
#596=CARTESIAN_POINT('',(-16.0000000000001,-8.67746995743113E-30,-31.));
#597=CARTESIAN_POINT('',(-16.0000000000001,-8.67746995743113E-30,34.9876173311003));
#598=CARTESIAN_POINT('',(-7.98459345489235E-14,-8.67746995743113E-30,34.9876173311003));
#599=CARTESIAN_POINT('',(-7.98459345489235E-14,-8.67746995743113E-30,-31.));
#600=CARTESIAN_POINT('',(-7.98459345489235E-14,-8.67746995743113E-30,34.9876173311003));
#601=CARTESIAN_POINT('',(-7.98459345489235E-14,-8.67746995743113E-30,-31.));
#602=CARTESIAN_POINT('',(-7.98459345489235E-14,-15.8,-31.));
#603=CARTESIAN_POINT('',(-7.98459345489235E-14,-8.67746995743113E-30,34.9876173311003));
#604=CARTESIAN_POINT('',(-7.98459345489235E-14,-8.67746995743113E-30,-26.));
#605=CARTESIAN_POINT('',(-7.98459345489235E-14,-8.67746995743113E-30,-29.));
#606=CARTESIAN_POINT('',(-7.98459345489234E-14,-8.67746995743113E-30,-17.125));
#607=CARTESIAN_POINT('',(-27.5000000000001,-8.67746995743113E-30,-17.125));
#608=CARTESIAN_POINT('',(-7.98459345489234E-14,-8.67746995743113E-30,-18.875));
#609=CARTESIAN_POINT('',(-27.5000000000001,-8.67746995743113E-30,-18.875));
#610=CARTESIAN_POINT('',(-7.98459345489235E-14,-8.67746995743113E-30,0.));
#611=CARTESIAN_POINT('',(-7.98459345489235E-14,-8.67746995743113E-30,-16.125));
#612=CARTESIAN_POINT('',(-28.5000000000001,-8.67746995743113E-30,-16.125));
#613=CARTESIAN_POINT('',(-7.98459345489234E-14,-8.67746995743113E-30,-17.125));
#614=CARTESIAN_POINT('',(-7.98459345489234E-14,-8.67746995743113E-30,-16.125));
#615=CARTESIAN_POINT('',(-28.8975952641918,-8.67746995743113E-30,-16.125));
#616=CARTESIAN_POINT('',(-7.98459345489234E-14,-28.8975952641917,-16.125));
#617=CARTESIAN_POINT('',(-7.98459345489235E-14,-8.67746995743113E-30,-14.6225009252407));
#618=CARTESIAN_POINT('',(-7.98459345489235E-14,-8.67746995743113E-30,-19.875));
#619=CARTESIAN_POINT('',(-28.5000000000001,-8.67746995743113E-30,-19.875));
#620=CARTESIAN_POINT('',(-7.98459345489235E-14,-8.67746995743113E-30,-18.875));
#621=CARTESIAN_POINT('',(-7.98459345489235E-14,-8.67746995743113E-30,-19.875));
#622=CARTESIAN_POINT('',(-28.8975952641917,-8.67746995743113E-30,-19.875));
#623=CARTESIAN_POINT('',(-7.98459345489235E-14,-8.67746995743113E-30,-21.3774990747593));
#624=CARTESIAN_POINT('',(-31.5000000000001,-8.67746995743113E-30,-21.3774990747593));
#625=CARTESIAN_POINT('',(-7.98459345489235E-14,-8.67746995743113E-30,-19.875));
#626=CARTESIAN_POINT('',(-7.98459345489235E-14,-28.8975952641917,-19.875));
#627=CARTESIAN_POINT('',(-7.98459345489235E-14,-8.67746995743113E-30,-26.));
#628=CARTESIAN_POINT('',(-31.5000000000001,-8.67746995743113E-30,-26.));
#629=CARTESIAN_POINT('',(-7.98459345489235E-14,-31.5,-26.));
#630=CARTESIAN_POINT('',(-7.98459345489235E-14,-8.67746995743113E-30,0.));
#631=CARTESIAN_POINT('',(-7.98459345489235E-14,-8.67746995743113E-30,-160.));
#632=CARTESIAN_POINT('',(-7.98459345489235E-14,6.93889390390722E-15,32.));
#633=CARTESIAN_POINT('',(-8.26280209181093E-14,22.7174591982184,32.));
#634=CARTESIAN_POINT('',(-7.98459345489235E-14,-22.7174591982184,32.));
#635=CARTESIAN_POINT('',(-7.98459345489235E-14,6.93889390390722E-15,32.));
#636=CARTESIAN_POINT('',(-7.98459345489234E-14,-22.7174591982184,32.));
#637=CARTESIAN_POINT('',(-8.28243518406523E-14,24.3206228424601,-1.38777878078145E-14));
#638=CARTESIAN_POINT('',(-7.98459345489235E-14,-24.3206228424601,0.));
#639=CARTESIAN_POINT('',(-7.98459345489235E-14,-1.02182139129409E-29,0.));
#640=CARTESIAN_POINT('',(-7.98459345489235E-14,-1.02182139129409E-29,0.));
#641=MECHANICAL_DESIGN_GEOMETRIC_PRESENTATION_REPRESENTATION('',(#355,#356,
#357,#358),#642);
#642=(
GEOMETRIC_REPRESENTATION_CONTEXT(3)
GLOBAL_UNCERTAINTY_ASSIGNED_CONTEXT((#643))
GLOBAL_UNIT_ASSIGNED_CONTEXT((#649,#645,#644))
REPRESENTATION_CONTEXT('HSK.63A-SC.10.160','TOP_LEVEL_ASSEMBLY_PART')
);
#643=UNCERTAINTY_MEASURE_WITH_UNIT(LENGTH_MEASURE(2.E-5),#649,
'DISTANCE_ACCURACY_VALUE','Maximum Tolerance applied to model');
#644=(
NAMED_UNIT(*)
SI_UNIT($,.STERADIAN.)
SOLID_ANGLE_UNIT()
);
#645=(
CONVERSION_BASED_UNIT('DEGREE',#647)
NAMED_UNIT(#646)
PLANE_ANGLE_UNIT()
);
#646=DIMENSIONAL_EXPONENTS(0.,0.,0.,0.,0.,0.,0.);
#647=PLANE_ANGLE_MEASURE_WITH_UNIT(PLANE_ANGLE_MEASURE(0.0174532925),#648);
#648=(
NAMED_UNIT(*)
PLANE_ANGLE_UNIT()
SI_UNIT($,.RADIAN.)
);
#649=(
LENGTH_UNIT()
NAMED_UNIT(*)
SI_UNIT(.MILLI.,.METRE.)
);
ENDSEC;
END-ISO-10303-21;
