ISO-10303-21;
HEADER;
/* Generated by software containing ST-Developer
 * from STEP Tools, Inc. (www.steptools.com) 
 */
/* OPTION: using custom schema-name function */

FILE_DESCRIPTION(
/* description */ (''),
/* implementation_level */ '2;1');

FILE_NAME(
/* name */ 'HSK.63A-SC.05.160.stp',
/* time_stamp */ '2024-07-21T13:30:47+02:00',
/* author */ (''),
/* organization */ (''),
/* preprocessor_version */ 'ST-DEVELOPER v16.7',
/* originating_system */ 'SIEMENS PLM Software NX 12.0',
/* authorisation */ '');

FILE_SCHEMA (('AUTOMOTIVE_DESIGN { 1 0 10303 214 3 1 1 1 }'));
ENDSEC;

DATA;
#10=CONSTRUCTIVE_GEOMETRY_REPRESENTATION_RELATIONSHIP(
'supplemental geometry','',#32,#11);
#11=CONSTRUCTIVE_GEOMETRY_REPRESENTATION('supplemental geometry',(#341,
#342,#343),#589);
#12=PROPERTY_DEFINITION_REPRESENTATION(#16,#14);
#13=PROPERTY_DEFINITION_REPRESENTATION(#17,#15);
#14=REPRESENTATION('',(#18),#589);
#15=REPRESENTATION('',(#19),#589);
#16=PROPERTY_DEFINITION('pmi validation property','',#23);
#17=PROPERTY_DEFINITION('pmi validation property','',#23);
#18=VALUE_REPRESENTATION_ITEM('number of annotations',COUNT_MEASURE(0.));
#19=VALUE_REPRESENTATION_ITEM('number of views',COUNT_MEASURE(0.));
#20=SHAPE_REPRESENTATION_RELATIONSHIP('None',
'relationship between pf6612088076yoy6-None and pf6612088076yoy6-None',
#32,#21);
#21=ADVANCED_BREP_SHAPE_REPRESENTATION('pf6612088076yoy6-None',(#38),#589);
#22=SHAPE_DEFINITION_REPRESENTATION(#23,#32);
#23=PRODUCT_DEFINITION_SHAPE('','',#24);
#24=PRODUCT_DEFINITION(' ','',#26,#25);
#25=PRODUCT_DEFINITION_CONTEXT('part definition',#31,'design');
#26=PRODUCT_DEFINITION_FORMATION_WITH_SPECIFIED_SOURCE(' ',' ',#28,
 .NOT_KNOWN.);
#27=PRODUCT_RELATED_PRODUCT_CATEGORY('part','',(#28));
#28=PRODUCT('pf6612088076yoy6','pf6612088076yoy6',' ',(#29));
#29=PRODUCT_CONTEXT(' ',#31,'mechanical');
#30=APPLICATION_PROTOCOL_DEFINITION('international standard',
'automotive_design',2010,#31);
#31=APPLICATION_CONTEXT(
'core data for automotive mechanical design processes');
#32=SHAPE_REPRESENTATION('pf6612088076yoy6-None',(#340),#589);
#33=SURFACE_STYLE_USAGE(.BOTH.,#34);
#34=SURFACE_SIDE_STYLE('',(#35));
#35=SURFACE_STYLE_FILL_AREA(#36);
#36=FILL_AREA_STYLE('',(#37));
#37=FILL_AREA_STYLE_COLOUR('',#336);
#38=MANIFOLD_SOLID_BREP('',#39);
#39=CLOSED_SHELL('',(#84,#85,#86,#87,#88,#89,#90,#91,#92,#93,#94,#95,#96,
#97,#98,#99,#100,#101,#102,#103,#104));
#40=TOROIDAL_SURFACE('',#360,28.,0.5);
#41=TOROIDAL_SURFACE('',#369,28.,0.5);
#42=TOROIDAL_SURFACE('',#374,13.,3.);
#43=TOROIDAL_SURFACE('',#376,13.,3.);
#44=CONICAL_SURFACE('',#353,30.1987976321,60.);
#45=CONICAL_SURFACE('',#364,30.1987976321,60.);
#46=CONICAL_SURFACE('',#382,8.786263421037,4.5);
#47=CONICAL_SURFACE('',#384,8.786263421037,4.5);
#48=CONICAL_SURFACE('',#389,23.49748952252,2.8681);
#49=CONICAL_SURFACE('',#390,23.49748952252,2.8681);
#50=CYLINDRICAL_SURFACE('',#351,31.5);
#51=CYLINDRICAL_SURFACE('',#365,31.5);
#52=CYLINDRICAL_SURFACE('',#370,27.5);
#53=CYLINDRICAL_SURFACE('',#378,10.);
#54=CYLINDRICAL_SURFACE('',#380,10.);
#55=FACE_OUTER_BOUND('',#133,.T.);
#56=FACE_OUTER_BOUND('',#152,.T.);
#57=FACE_OUTER_BOUND('',#153,.T.);
#58=FACE_OUTER_BOUND('',#154,.T.);
#59=FACE_OUTER_BOUND('',#155,.T.);
#60=FACE_OUTER_BOUND('',#156,.T.);
#61=FACE_OUTER_BOUND('',#157,.T.);
#62=FACE_OUTER_BOUND('',#158,.T.);
#63=FACE_OUTER_BOUND('',#159,.T.);
#64=FACE_OUTER_BOUND('',#160,.T.);
#65=FACE_OUTER_BOUND('',#161,.T.);
#66=LINE('',#515,#75);
#67=LINE('',#520,#76);
#68=LINE('',#521,#77);
#69=LINE('',#565,#78);
#70=LINE('',#566,#79);
#71=LINE('',#570,#80);
#72=LINE('',#572,#81);
#73=LINE('',#584,#82);
#74=LINE('',#585,#83);
#75=VECTOR('',#409,1.);
#76=VECTOR('',#412,1.);
#77=VECTOR('',#413,1.);
#78=VECTOR('',#470,1.);
#79=VECTOR('',#471,1.);
#80=VECTOR('',#478,1.);
#81=VECTOR('',#479,1.);
#82=VECTOR('',#496,1.);
#83=VECTOR('',#497,1.);
#84=ADVANCED_FACE('',(#111,#112),#105,.F.);
#85=ADVANCED_FACE('',(#55),#50,.T.);
#86=ADVANCED_FACE('',(#113,#114),#44,.T.);
#87=ADVANCED_FACE('',(#115,#116),#106,.T.);
#88=ADVANCED_FACE('',(#117,#118),#40,.F.);
#89=ADVANCED_FACE('',(#119,#120),#107,.F.);
#90=ADVANCED_FACE('',(#121,#122),#45,.T.);
#91=ADVANCED_FACE('',(#123,#124),#51,.T.);
#92=ADVANCED_FACE('',(#125,#126),#108,.T.);
#93=ADVANCED_FACE('',(#127,#128),#41,.F.);
#94=ADVANCED_FACE('',(#129,#130),#52,.T.);
#95=ADVANCED_FACE('',(#56),#42,.F.);
#96=ADVANCED_FACE('',(#57),#43,.F.);
#97=ADVANCED_FACE('',(#58),#53,.T.);
#98=ADVANCED_FACE('',(#59),#54,.T.);
#99=ADVANCED_FACE('',(#60),#46,.T.);
#100=ADVANCED_FACE('',(#61),#47,.T.);
#101=ADVANCED_FACE('',(#62),#109,.T.);
#102=ADVANCED_FACE('',(#63),#110,.F.);
#103=ADVANCED_FACE('',(#64),#48,.T.);
#104=ADVANCED_FACE('',(#65),#49,.T.);
#105=PLANE('',#348);
#106=PLANE('',#357);
#107=PLANE('',#362);
#108=PLANE('',#367);
#109=PLANE('',#385);
#110=PLANE('',#388);
#111=FACE_BOUND('',#131,.T.);
#112=FACE_BOUND('',#132,.T.);
#113=FACE_BOUND('',#134,.T.);
#114=FACE_BOUND('',#135,.T.);
#115=FACE_BOUND('',#136,.T.);
#116=FACE_BOUND('',#137,.T.);
#117=FACE_BOUND('',#138,.T.);
#118=FACE_BOUND('',#139,.T.);
#119=FACE_BOUND('',#140,.T.);
#120=FACE_BOUND('',#141,.T.);
#121=FACE_BOUND('',#142,.T.);
#122=FACE_BOUND('',#143,.T.);
#123=FACE_BOUND('',#144,.T.);
#124=FACE_BOUND('',#145,.T.);
#125=FACE_BOUND('',#146,.T.);
#126=FACE_BOUND('',#147,.T.);
#127=FACE_BOUND('',#148,.T.);
#128=FACE_BOUND('',#149,.T.);
#129=FACE_BOUND('',#150,.T.);
#130=FACE_BOUND('',#151,.T.);
#131=EDGE_LOOP('',(#162,#163));
#132=EDGE_LOOP('',(#164,#165));
#133=EDGE_LOOP('',(#166,#167,#168,#169,#170,#171,#172,#173,#174,#175));
#134=EDGE_LOOP('',(#176));
#135=EDGE_LOOP('',(#177,#178));
#136=EDGE_LOOP('',(#179));
#137=EDGE_LOOP('',(#180,#181));
#138=EDGE_LOOP('',(#182));
#139=EDGE_LOOP('',(#183));
#140=EDGE_LOOP('',(#184));
#141=EDGE_LOOP('',(#185));
#142=EDGE_LOOP('',(#186));
#143=EDGE_LOOP('',(#187));
#144=EDGE_LOOP('',(#188));
#145=EDGE_LOOP('',(#189));
#146=EDGE_LOOP('',(#190));
#147=EDGE_LOOP('',(#191));
#148=EDGE_LOOP('',(#192));
#149=EDGE_LOOP('',(#193));
#150=EDGE_LOOP('',(#194));
#151=EDGE_LOOP('',(#195));
#152=EDGE_LOOP('',(#196,#197,#198,#199));
#153=EDGE_LOOP('',(#200,#201,#202,#203));
#154=EDGE_LOOP('',(#204,#205,#206,#207));
#155=EDGE_LOOP('',(#208,#209,#210,#211));
#156=EDGE_LOOP('',(#212,#213,#214,#215));
#157=EDGE_LOOP('',(#216,#217,#218,#219));
#158=EDGE_LOOP('',(#220,#221));
#159=EDGE_LOOP('',(#222,#223));
#160=EDGE_LOOP('',(#224,#225,#226,#227));
#161=EDGE_LOOP('',(#228,#229,#230,#231));
#162=ORIENTED_EDGE('',*,*,#258,.T.);
#163=ORIENTED_EDGE('',*,*,#259,.T.);
#164=ORIENTED_EDGE('',*,*,#260,.T.);
#165=ORIENTED_EDGE('',*,*,#261,.T.);
#166=ORIENTED_EDGE('',*,*,#262,.F.);
#167=ORIENTED_EDGE('',*,*,#263,.F.);
#168=ORIENTED_EDGE('',*,*,#264,.F.);
#169=ORIENTED_EDGE('',*,*,#259,.F.);
#170=ORIENTED_EDGE('',*,*,#265,.T.);
#171=ORIENTED_EDGE('',*,*,#265,.F.);
#172=ORIENTED_EDGE('',*,*,#258,.F.);
#173=ORIENTED_EDGE('',*,*,#264,.T.);
#174=ORIENTED_EDGE('',*,*,#266,.F.);
#175=ORIENTED_EDGE('',*,*,#262,.T.);
#176=ORIENTED_EDGE('',*,*,#267,.F.);
#177=ORIENTED_EDGE('',*,*,#266,.T.);
#178=ORIENTED_EDGE('',*,*,#263,.T.);
#179=ORIENTED_EDGE('',*,*,#268,.F.);
#180=ORIENTED_EDGE('',*,*,#269,.F.);
#181=ORIENTED_EDGE('',*,*,#270,.F.);
#182=ORIENTED_EDGE('',*,*,#271,.F.);
#183=ORIENTED_EDGE('',*,*,#272,.F.);
#184=ORIENTED_EDGE('',*,*,#273,.F.);
#185=ORIENTED_EDGE('',*,*,#271,.T.);
#186=ORIENTED_EDGE('',*,*,#274,.F.);
#187=ORIENTED_EDGE('',*,*,#273,.T.);
#188=ORIENTED_EDGE('',*,*,#268,.T.);
#189=ORIENTED_EDGE('',*,*,#274,.T.);
#190=ORIENTED_EDGE('',*,*,#275,.T.);
#191=ORIENTED_EDGE('',*,*,#267,.T.);
#192=ORIENTED_EDGE('',*,*,#276,.F.);
#193=ORIENTED_EDGE('',*,*,#275,.F.);
#194=ORIENTED_EDGE('',*,*,#272,.T.);
#195=ORIENTED_EDGE('',*,*,#276,.T.);
#196=ORIENTED_EDGE('',*,*,#277,.T.);
#197=ORIENTED_EDGE('',*,*,#278,.F.);
#198=ORIENTED_EDGE('',*,*,#279,.F.);
#199=ORIENTED_EDGE('',*,*,#270,.T.);
#200=ORIENTED_EDGE('',*,*,#279,.T.);
#201=ORIENTED_EDGE('',*,*,#280,.T.);
#202=ORIENTED_EDGE('',*,*,#277,.F.);
#203=ORIENTED_EDGE('',*,*,#269,.T.);
#204=ORIENTED_EDGE('',*,*,#281,.T.);
#205=ORIENTED_EDGE('',*,*,#282,.F.);
#206=ORIENTED_EDGE('',*,*,#280,.F.);
#207=ORIENTED_EDGE('',*,*,#283,.T.);
#208=ORIENTED_EDGE('',*,*,#278,.T.);
#209=ORIENTED_EDGE('',*,*,#282,.T.);
#210=ORIENTED_EDGE('',*,*,#284,.F.);
#211=ORIENTED_EDGE('',*,*,#283,.F.);
#212=ORIENTED_EDGE('',*,*,#285,.F.);
#213=ORIENTED_EDGE('',*,*,#284,.T.);
#214=ORIENTED_EDGE('',*,*,#286,.T.);
#215=ORIENTED_EDGE('',*,*,#287,.T.);
#216=ORIENTED_EDGE('',*,*,#286,.F.);
#217=ORIENTED_EDGE('',*,*,#281,.F.);
#218=ORIENTED_EDGE('',*,*,#285,.T.);
#219=ORIENTED_EDGE('',*,*,#288,.T.);
#220=ORIENTED_EDGE('',*,*,#287,.F.);
#221=ORIENTED_EDGE('',*,*,#288,.F.);
#222=ORIENTED_EDGE('',*,*,#289,.T.);
#223=ORIENTED_EDGE('',*,*,#290,.T.);
#224=ORIENTED_EDGE('',*,*,#289,.F.);
#225=ORIENTED_EDGE('',*,*,#291,.T.);
#226=ORIENTED_EDGE('',*,*,#260,.F.);
#227=ORIENTED_EDGE('',*,*,#292,.F.);
#228=ORIENTED_EDGE('',*,*,#290,.F.);
#229=ORIENTED_EDGE('',*,*,#292,.T.);
#230=ORIENTED_EDGE('',*,*,#261,.F.);
#231=ORIENTED_EDGE('',*,*,#291,.F.);
#232=VERTEX_POINT('',#507);
#233=VERTEX_POINT('',#508);
#234=VERTEX_POINT('',#511);
#235=VERTEX_POINT('',#512);
#236=VERTEX_POINT('',#516);
#237=VERTEX_POINT('',#517);
#238=VERTEX_POINT('',#519);
#239=VERTEX_POINT('',#522);
#240=VERTEX_POINT('',#526);
#241=VERTEX_POINT('',#529);
#242=VERTEX_POINT('',#531);
#243=VERTEX_POINT('',#532);
#244=VERTEX_POINT('',#536);
#245=VERTEX_POINT('',#538);
#246=VERTEX_POINT('',#541);
#247=VERTEX_POINT('',#544);
#248=VERTEX_POINT('',#548);
#249=VERTEX_POINT('',#551);
#250=VERTEX_POINT('',#555);
#251=VERTEX_POINT('',#557);
#252=VERTEX_POINT('',#563);
#253=VERTEX_POINT('',#564);
#254=VERTEX_POINT('',#571);
#255=VERTEX_POINT('',#573);
#256=VERTEX_POINT('',#580);
#257=VERTEX_POINT('',#581);
#258=EDGE_CURVE('',#232,#233,#293,.T.);
#259=EDGE_CURVE('',#233,#232,#294,.T.);
#260=EDGE_CURVE('',#234,#235,#295,.T.);
#261=EDGE_CURVE('',#235,#234,#296,.T.);
#262=EDGE_CURVE('',#236,#237,#66,.T.);
#263=EDGE_CURVE('',#238,#236,#297,.T.);
#264=EDGE_CURVE('',#232,#238,#67,.T.);
#265=EDGE_CURVE('',#233,#239,#68,.T.);
#266=EDGE_CURVE('',#236,#238,#298,.T.);
#267=EDGE_CURVE('',#240,#240,#299,.T.);
#268=EDGE_CURVE('',#241,#241,#300,.T.);
#269=EDGE_CURVE('',#242,#243,#301,.T.);
#270=EDGE_CURVE('',#243,#242,#302,.T.);
#271=EDGE_CURVE('',#244,#244,#303,.T.);
#272=EDGE_CURVE('',#245,#245,#304,.T.);
#273=EDGE_CURVE('',#246,#246,#305,.T.);
#274=EDGE_CURVE('',#247,#247,#306,.T.);
#275=EDGE_CURVE('',#248,#248,#307,.T.);
#276=EDGE_CURVE('',#249,#249,#308,.T.);
#277=EDGE_CURVE('',#242,#250,#309,.T.);
#278=EDGE_CURVE('',#251,#250,#310,.T.);
#279=EDGE_CURVE('',#243,#251,#311,.T.);
#280=EDGE_CURVE('',#251,#250,#312,.T.);
#281=EDGE_CURVE('',#252,#253,#313,.T.);
#282=EDGE_CURVE('',#250,#253,#69,.T.);
#283=EDGE_CURVE('',#251,#252,#70,.T.);
#284=EDGE_CURVE('',#252,#253,#314,.T.);
#285=EDGE_CURVE('',#252,#254,#71,.T.);
#286=EDGE_CURVE('',#253,#255,#72,.T.);
#287=EDGE_CURVE('',#255,#254,#315,.T.);
#288=EDGE_CURVE('',#254,#255,#316,.T.);
#289=EDGE_CURVE('',#256,#257,#317,.T.);
#290=EDGE_CURVE('',#257,#256,#318,.T.);
#291=EDGE_CURVE('',#256,#235,#73,.T.);
#292=EDGE_CURVE('',#257,#234,#74,.T.);
#293=CIRCLE('',#344,31.5);
#294=CIRCLE('',#345,31.5);
#295=CIRCLE('',#346,24.3206277416436);
#296=CIRCLE('',#347,24.3206277416436);
#297=CIRCLE('',#349,31.5);
#298=CIRCLE('',#350,31.5);
#299=CIRCLE('',#352,28.89759526419);
#300=CIRCLE('',#354,31.5);
#301=CIRCLE('',#355,13.);
#302=CIRCLE('',#356,13.);
#303=CIRCLE('',#358,28.);
#304=CIRCLE('',#359,27.5);
#305=CIRCLE('',#361,28.89759526419);
#306=CIRCLE('',#363,31.5);
#307=CIRCLE('',#366,28.);
#308=CIRCLE('',#368,27.5);
#309=CIRCLE('',#371,3.);
#310=CIRCLE('',#372,10.);
#311=CIRCLE('',#373,3.);
#312=CIRCLE('',#375,10.);
#313=CIRCLE('',#377,10.);
#314=CIRCLE('',#379,10.);
#315=CIRCLE('',#381,7.49999999999596);
#316=CIRCLE('',#383,7.49999999999596);
#317=CIRCLE('',#386,22.7174392126387);
#318=CIRCLE('',#387,22.7174392126387);
#319=INVISIBILITY((#320,#321,#322,#323));
#320=PRESENTATION_LAYER_ASSIGNMENT('100','Layer 100',(#341));
#321=PRESENTATION_LAYER_ASSIGNMENT('101','Layer 101',(#342));
#322=PRESENTATION_LAYER_ASSIGNMENT('102','Layer 102',(#343));
#323=PRESENTATION_LAYER_ASSIGNMENT('98','Layer 98',(#38));
#324=STYLED_ITEM('',(#328),#341);
#325=STYLED_ITEM('',(#329),#342);
#326=STYLED_ITEM('',(#330),#343);
#327=STYLED_ITEM('',(#331),#38);
#328=PRESENTATION_STYLE_ASSIGNMENT((#332));
#329=PRESENTATION_STYLE_ASSIGNMENT((#333));
#330=PRESENTATION_STYLE_ASSIGNMENT((#334));
#331=PRESENTATION_STYLE_ASSIGNMENT((#33));
#332=CURVE_STYLE('',#337,POSITIVE_LENGTH_MEASURE(0.7),#335);
#333=CURVE_STYLE('',#338,POSITIVE_LENGTH_MEASURE(0.7),#335);
#334=CURVE_STYLE('',#339,POSITIVE_LENGTH_MEASURE(0.7),#335);
#335=COLOUR_RGB('Medium Maroon',0.6,0.4,0.4);
#336=COLOUR_RGB('Medium Gray',0.490196078431373,0.490196078431373,0.490196078431373);
#337=DRAUGHTING_PRE_DEFINED_CURVE_FONT('continuous');
#338=DRAUGHTING_PRE_DEFINED_CURVE_FONT('continuous');
#339=DRAUGHTING_PRE_DEFINED_CURVE_FONT('continuous');
#340=AXIS2_PLACEMENT_3D('',#502,#391,#392);
#341=AXIS2_PLACEMENT_3D('PCS',#503,#393,#394);
#342=AXIS2_PLACEMENT_3D('CSW',#504,#395,#396);
#343=AXIS2_PLACEMENT_3D('MCS',#505,#397,#398);
#344=AXIS2_PLACEMENT_3D('',#506,#399,#400);
#345=AXIS2_PLACEMENT_3D('',#509,#401,#402);
#346=AXIS2_PLACEMENT_3D('',#510,#403,#404);
#347=AXIS2_PLACEMENT_3D('',#513,#405,#406);
#348=AXIS2_PLACEMENT_3D('',#514,#407,#408);
#349=AXIS2_PLACEMENT_3D('',#518,#410,#411);
#350=AXIS2_PLACEMENT_3D('',#523,#414,#415);
#351=AXIS2_PLACEMENT_3D('',#524,#416,#417);
#352=AXIS2_PLACEMENT_3D('',#525,#418,#419);
#353=AXIS2_PLACEMENT_3D('',#527,#420,#421);
#354=AXIS2_PLACEMENT_3D('',#528,#422,#423);
#355=AXIS2_PLACEMENT_3D('',#530,#424,#425);
#356=AXIS2_PLACEMENT_3D('',#533,#426,#427);
#357=AXIS2_PLACEMENT_3D('',#534,#428,#429);
#358=AXIS2_PLACEMENT_3D('',#535,#430,#431);
#359=AXIS2_PLACEMENT_3D('',#537,#432,#433);
#360=AXIS2_PLACEMENT_3D('',#539,#434,#435);
#361=AXIS2_PLACEMENT_3D('',#540,#436,#437);
#362=AXIS2_PLACEMENT_3D('',#542,#438,#439);
#363=AXIS2_PLACEMENT_3D('',#543,#440,#441);
#364=AXIS2_PLACEMENT_3D('',#545,#442,#443);
#365=AXIS2_PLACEMENT_3D('',#546,#444,#445);
#366=AXIS2_PLACEMENT_3D('',#547,#446,#447);
#367=AXIS2_PLACEMENT_3D('',#549,#448,#449);
#368=AXIS2_PLACEMENT_3D('',#550,#450,#451);
#369=AXIS2_PLACEMENT_3D('',#552,#452,#453);
#370=AXIS2_PLACEMENT_3D('',#553,#454,#455);
#371=AXIS2_PLACEMENT_3D('',#554,#456,#457);
#372=AXIS2_PLACEMENT_3D('',#556,#458,#459);
#373=AXIS2_PLACEMENT_3D('',#558,#460,#461);
#374=AXIS2_PLACEMENT_3D('',#559,#462,#463);
#375=AXIS2_PLACEMENT_3D('',#560,#464,#465);
#376=AXIS2_PLACEMENT_3D('',#561,#466,#467);
#377=AXIS2_PLACEMENT_3D('',#562,#468,#469);
#378=AXIS2_PLACEMENT_3D('',#567,#472,#473);
#379=AXIS2_PLACEMENT_3D('',#568,#474,#475);
#380=AXIS2_PLACEMENT_3D('',#569,#476,#477);
#381=AXIS2_PLACEMENT_3D('',#574,#480,#481);
#382=AXIS2_PLACEMENT_3D('',#575,#482,#483);
#383=AXIS2_PLACEMENT_3D('',#576,#484,#485);
#384=AXIS2_PLACEMENT_3D('',#577,#486,#487);
#385=AXIS2_PLACEMENT_3D('',#578,#488,#489);
#386=AXIS2_PLACEMENT_3D('',#579,#490,#491);
#387=AXIS2_PLACEMENT_3D('',#582,#492,#493);
#388=AXIS2_PLACEMENT_3D('',#583,#494,#495);
#389=AXIS2_PLACEMENT_3D('',#586,#498,#499);
#390=AXIS2_PLACEMENT_3D('',#587,#500,#501);
#391=DIRECTION('',(0.,0.,1.));
#392=DIRECTION('',(1.,0.,0.));
#393=DIRECTION('',(0.,0.,1.));
#394=DIRECTION('',(1.,0.,0.));
#395=DIRECTION('',(0.,0.,1.));
#396=DIRECTION('',(1.,0.,0.));
#397=DIRECTION('',(0.,0.,1.));
#398=DIRECTION('',(1.,0.,0.));
#399=DIRECTION('',(0.,0.,1.));
#400=DIRECTION('',(-1.,0.,0.));
#401=DIRECTION('',(0.,0.,1.));
#402=DIRECTION('',(-1.,0.,0.));
#403=DIRECTION('',(0.,0.,-1.));
#404=DIRECTION('',(-1.,0.,0.));
#405=DIRECTION('',(0.,0.,-1.));
#406=DIRECTION('',(-1.,0.,0.));
#407=DIRECTION('',(0.,0.,-1.));
#408=DIRECTION('',(0.,-1.,0.));
#409=DIRECTION('',(0.,0.,1.));
#410=DIRECTION('',(0.,0.,-1.));
#411=DIRECTION('',(0.958314847499905,0.285714285714302,0.));
#412=DIRECTION('',(-3.308477055609E-14,0.,-1.));
#413=DIRECTION('',(9.33264607387E-13,-2.13162820728E-14,-1.));
#414=DIRECTION('',(0.,0.,-1.));
#415=DIRECTION('',(0.,-1.,0.));
#416=DIRECTION('',(0.,0.,-1.));
#417=DIRECTION('',(0.,-1.,0.));
#418=DIRECTION('',(0.,0.,-1.));
#419=DIRECTION('',(-0.960916131215481,0.276839644505394,0.));
#420=DIRECTION('',(0.,0.,1.));
#421=DIRECTION('',(0.,1.,-8.85942107049627E-18));
#422=DIRECTION('',(0.,0.,1.));
#423=DIRECTION('',(-1.,0.,0.));
#424=DIRECTION('',(0.,0.,-1.));
#425=DIRECTION('',(0.,1.,0.));
#426=DIRECTION('',(0.,0.,-1.));
#427=DIRECTION('',(0.,-1.,0.));
#428=DIRECTION('',(0.,0.,-1.));
#429=DIRECTION('',(0.,-1.,0.));
#430=DIRECTION('',(0.,0.,-1.));
#431=DIRECTION('',(-0.958314847499905,0.285714285714302,0.));
#432=DIRECTION('',(0.,0.,1.));
#433=DIRECTION('',(0.96363636363636,0.267217062849089,0.));
#434=DIRECTION('',(0.,0.,-1.));
#435=DIRECTION('',(-0.00422980117842993,0.999991054350983,0.));
#436=DIRECTION('',(0.,0.,-1.));
#437=DIRECTION('',(-0.960916131215481,0.276839644505394,0.));
#438=DIRECTION('',(0.,0.,-1.));
#439=DIRECTION('',(0.,-1.,0.));
#440=DIRECTION('',(0.,0.,-1.));
#441=DIRECTION('',(-0.967212554703614,0.253968253968304,0.));
#442=DIRECTION('',(0.,0.,-1.));
#443=DIRECTION('',(0.,-1.,5.51252866608657E-17));
#444=DIRECTION('',(0.,0.,-1.));
#445=DIRECTION('',(0.,-1.,0.));
#446=DIRECTION('',(0.,0.,1.));
#447=DIRECTION('',(0.946933827397333,0.321428571428611,0.));
#448=DIRECTION('',(0.,0.,-1.));
#449=DIRECTION('',(0.,-1.,0.));
#450=DIRECTION('',(0.,0.,-1.));
#451=DIRECTION('',(-0.96363636363636,0.267217062849089,0.));
#452=DIRECTION('',(0.,0.,-1.));
#453=DIRECTION('',(-0.00403519109815584,0.999991858583259,0.));
#454=DIRECTION('',(0.,0.,-1.));
#455=DIRECTION('',(0.,-1.,0.));
#456=DIRECTION('',(1.,0.,0.));
#457=DIRECTION('',(0.,-1.,0.));
#458=DIRECTION('',(0.,0.,-1.));
#459=DIRECTION('',(0.,-1.,0.));
#460=DIRECTION('',(-1.,0.,0.));
#461=DIRECTION('',(0.,1.,0.));
#462=DIRECTION('',(0.,0.,-1.));
#463=DIRECTION('',(0.,-1.,0.));
#464=DIRECTION('',(0.,0.,1.));
#465=DIRECTION('',(0.,-1.,0.));
#466=DIRECTION('',(0.,0.,-1.));
#467=DIRECTION('',(0.,-1.,0.));
#468=DIRECTION('',(0.,0.,1.));
#469=DIRECTION('',(0.,-1.,0.));
#470=DIRECTION('',(0.,0.,-1.));
#471=DIRECTION('',(0.,0.,-1.));
#472=DIRECTION('',(0.,0.,-1.));
#473=DIRECTION('',(0.,-1.,0.));
#474=DIRECTION('',(0.,0.,-1.));
#475=DIRECTION('',(0.,-1.,0.));
#476=DIRECTION('',(0.,0.,-1.));
#477=DIRECTION('',(0.,-1.,0.));
#478=DIRECTION('',(2.30708105608206E-13,0.0784590957278422,-0.996917333733128));
#479=DIRECTION('',(-2.30591951382007E-13,-0.0784590957278422,-0.996917333733128));
#480=DIRECTION('',(0.,0.,1.));
#481=DIRECTION('',(-1.,0.,0.));
#482=DIRECTION('',(0.,0.,1.));
#483=DIRECTION('',(0.,1.,-3.17250194943313E-16));
#484=DIRECTION('',(0.,0.,1.));
#485=DIRECTION('',(-1.,0.,0.));
#486=DIRECTION('',(0.,0.,1.));
#487=DIRECTION('',(0.,1.,-3.17250194943313E-16));
#488=DIRECTION('',(0.,0.,-1.));
#489=DIRECTION('',(0.,-1.,0.));
#490=DIRECTION('',(0.,0.,1.));
#491=DIRECTION('',(-1.,0.,0.));
#492=DIRECTION('',(0.,0.,1.));
#493=DIRECTION('',(-1.,0.,0.));
#494=DIRECTION('',(0.,0.,-1.));
#495=DIRECTION('',(0.,-1.,0.));
#496=DIRECTION('',(-1.84941077733493E-14,0.0500368852433481,-0.998747370517262));
#497=DIRECTION('',(1.87233229922393E-14,-0.0500368852433381,-0.998747370517262));
#498=DIRECTION('',(0.,0.,-1.));
#499=DIRECTION('',(0.,-1.,-3.77128499686941E-16));
#500=DIRECTION('',(0.,0.,-1.));
#501=DIRECTION('',(0.,-1.,-3.77128499686941E-16));
#502=CARTESIAN_POINT('',(0.,0.,0.));
#503=CARTESIAN_POINT('',(0.,0.,0.));
#504=CARTESIAN_POINT('',(0.,0.,-160.));
#505=CARTESIAN_POINT('',(0.,0.,0.));
#506=CARTESIAN_POINT('',(0.,0.,0.));
#507=CARTESIAN_POINT('',(4.83782088067779E-13,31.5,0.));
#508=CARTESIAN_POINT('',(-1.3998969110805E-12,-31.5,0.));
#509=CARTESIAN_POINT('',(0.,0.,0.));
#510=CARTESIAN_POINT('',(0.,0.,0.));
#511=CARTESIAN_POINT('',(0.,-24.3206277416436,0.));
#512=CARTESIAN_POINT('',(2.67034791029395E-13,24.3206277416436,0.));
#513=CARTESIAN_POINT('',(0.,0.,0.));
#514=CARTESIAN_POINT('',(0.,0.,0.));
#515=CARTESIAN_POINT('',(0.,-31.5,-14.62250092524));
#516=CARTESIAN_POINT('',(0.,-31.5,-14.62250092524));
#517=CARTESIAN_POINT('',(0.,-31.5,-12.5));
#518=CARTESIAN_POINT('',(0.,0.,-14.62250092524));
#519=CARTESIAN_POINT('',(0.,31.5,-14.62250092524));
#520=CARTESIAN_POINT('',(0.,31.5,-14.62250092524));
#521=CARTESIAN_POINT('',(0.,-31.5,-1.5));
#522=CARTESIAN_POINT('',(1.61895602373251E-26,-31.5,-1.50000000000004));
#523=CARTESIAN_POINT('',(0.,0.,-14.62250092524));
#524=CARTESIAN_POINT('',(0.,0.,34.9));
#525=CARTESIAN_POINT('',(0.,0.,-16.125));
#526=CARTESIAN_POINT('',(-27.7681654426962,7.99999999999913,-16.125));
#527=CARTESIAN_POINT('',(0.,0.,-15.37375046262));
#528=CARTESIAN_POINT('',(0.,0.,-26.));
#529=CARTESIAN_POINT('',(-31.5,0.,-26.));
#530=CARTESIAN_POINT('',(0.,0.,-26.));
#531=CARTESIAN_POINT('',(0.,13.,-26.));
#532=CARTESIAN_POINT('',(0.,-13.,-26.));
#533=CARTESIAN_POINT('',(0.,0.,-26.));
#534=CARTESIAN_POINT('',(0.,0.,-26.));
#535=CARTESIAN_POINT('',(0.,0.,-19.875));
#536=CARTESIAN_POINT('',(-26.8328157299973,8.00000000000044,-19.875));
#537=CARTESIAN_POINT('',(0.,0.,-19.375));
#538=CARTESIAN_POINT('',(26.4999999999999,7.34846922834994,-19.375));
#539=CARTESIAN_POINT('',(0.,0.,-19.375));
#540=CARTESIAN_POINT('',(0.,0.,-19.875));
#541=CARTESIAN_POINT('',(-27.7681654426962,7.99999999999913,-19.875));
#542=CARTESIAN_POINT('',(0.,0.,-19.875));
#543=CARTESIAN_POINT('',(0.,0.,-21.377499074759));
#544=CARTESIAN_POINT('',(-30.4671954731638,8.00000000000156,-21.377499074759));
#545=CARTESIAN_POINT('',(0.,0.,-20.62624953738));
#546=CARTESIAN_POINT('',(0.,0.,34.9));
#547=CARTESIAN_POINT('',(0.,0.,-16.125));
#548=CARTESIAN_POINT('',(26.5141471671253,9.00000000000112,-16.125));
#549=CARTESIAN_POINT('',(0.,0.,-16.125));
#550=CARTESIAN_POINT('',(0.,0.,-16.625));
#551=CARTESIAN_POINT('',(-26.4999999999999,7.34846922834994,-16.625));
#552=CARTESIAN_POINT('',(0.,0.,-16.625));
#553=CARTESIAN_POINT('',(0.,0.,34.9));
#554=CARTESIAN_POINT('',(0.,13.,-29.));
#555=CARTESIAN_POINT('',(0.,10.,-29.));
#556=CARTESIAN_POINT('',(0.,0.,-29.));
#557=CARTESIAN_POINT('',(0.,-10.,-29.));
#558=CARTESIAN_POINT('',(0.,-13.,-29.));
#559=CARTESIAN_POINT('',(0.,0.,-29.));
#560=CARTESIAN_POINT('',(0.,0.,-29.));
#561=CARTESIAN_POINT('',(0.,0.,-29.));
#562=CARTESIAN_POINT('',(0.,0.,-128.2344881596));
#563=CARTESIAN_POINT('',(0.,-10.,-128.2344881596));
#564=CARTESIAN_POINT('',(0.,10.,-128.2344881596));
#565=CARTESIAN_POINT('',(0.,10.,-128.2344881596));
#566=CARTESIAN_POINT('',(0.,-10.,-128.2344881596));
#567=CARTESIAN_POINT('',(0.,0.,-19.3));
#568=CARTESIAN_POINT('',(0.,0.,-128.2344881596));
#569=CARTESIAN_POINT('',(0.,0.,-19.3));
#570=CARTESIAN_POINT('',(7.136733389802E-12,-7.572526842075,-159.0784590957));
#571=CARTESIAN_POINT('',(7.34999776898115E-12,-7.49999999999789,-160.));
#572=CARTESIAN_POINT('',(-7.133139673937E-12,7.572526842075,-159.0784590957));
#573=CARTESIAN_POINT('',(-7.34629668125388E-12,7.49999999999789,-160.));
#574=CARTESIAN_POINT('',(0.,0.,-160.));
#575=CARTESIAN_POINT('',(0.,0.,-143.6564736276));
#576=CARTESIAN_POINT('',(0.,0.,-160.));
#577=CARTESIAN_POINT('',(0.,0.,-143.6564736276));
#578=CARTESIAN_POINT('',(0.,0.,-160.));
#579=CARTESIAN_POINT('',(0.,0.,32.));
#580=CARTESIAN_POINT('',(5.55519092794337E-13,22.7174392126479,32.));
#581=CARTESIAN_POINT('',(-5.62404173816516E-13,-22.7174392126482,32.));
#582=CARTESIAN_POINT('',(0.,0.,32.));
#583=CARTESIAN_POINT('',(0.,0.,32.));
#584=CARTESIAN_POINT('',(0.,24.22042845859,2.));
#585=CARTESIAN_POINT('',(0.,-24.22042845859,2.));
#586=CARTESIAN_POINT('',(0.,0.,16.43002213115));
#587=CARTESIAN_POINT('',(0.,0.,16.43002213115));
#588=MECHANICAL_DESIGN_GEOMETRIC_PRESENTATION_REPRESENTATION('',(#324,#325,
#326,#327),#589);
#589=(
GEOMETRIC_REPRESENTATION_CONTEXT(3)
GLOBAL_UNCERTAINTY_ASSIGNED_CONTEXT((#590))
GLOBAL_UNIT_ASSIGNED_CONTEXT((#596,#592,#591))
REPRESENTATION_CONTEXT('HSK.63A-SC.05','TOP_LEVEL_ASSEMBLY_PART')
);
#590=UNCERTAINTY_MEASURE_WITH_UNIT(LENGTH_MEASURE(2.E-5),#596,
'DISTANCE_ACCURACY_VALUE','Maximum Tolerance applied to model');
#591=(
NAMED_UNIT(*)
SI_UNIT($,.STERADIAN.)
SOLID_ANGLE_UNIT()
);
#592=(
CONVERSION_BASED_UNIT('DEGREE',#594)
NAMED_UNIT(#593)
PLANE_ANGLE_UNIT()
);
#593=DIMENSIONAL_EXPONENTS(0.,0.,0.,0.,0.,0.,0.);
#594=PLANE_ANGLE_MEASURE_WITH_UNIT(PLANE_ANGLE_MEASURE(0.0174532925),#595);
#595=(
NAMED_UNIT(*)
PLANE_ANGLE_UNIT()
SI_UNIT($,.RADIAN.)
);
#596=(
LENGTH_UNIT()
NAMED_UNIT(*)
SI_UNIT(.MILLI.,.METRE.)
);
ENDSEC;
END-ISO-10303-21;
