ISO-10303-21;
HEADER;
/* Generated by software containing ST-Developer
 * from STEP Tools, Inc. (www.steptools.com) 
 */
/* OPTION: using custom schema-name function */

FILE_DESCRIPTION(
/* description */ (''),
/* implementation_level */ '2;1');

FILE_NAME(
/* name */ 'HSK.63A-QTCC.M5.M22.stp',
/* time_stamp */ '2024-07-21T13:17:52+02:00',
/* author */ (''),
/* organization */ (''),
/* preprocessor_version */ 'ST-DEVELOPER v16.7',
/* originating_system */ 'SIEMENS PLM Software NX 12.0',
/* authorisation */ '');

FILE_SCHEMA (('AUTOMOTIVE_DESIGN { 1 0 10303 214 3 1 1 1 }'));
ENDSEC;

DATA;
#10=CONSTRUCTIVE_GEOMETRY_REPRESENTATION_RELATIONSHIP(
'supplemental geometry','',#32,#11);
#11=CONSTRUCTIVE_GEOMETRY_REPRESENTATION('supplemental geometry',(#413,
#414,#415),#715);
#12=PROPERTY_DEFINITION_REPRESENTATION(#16,#14);
#13=PROPERTY_DEFINITION_REPRESENTATION(#17,#15);
#14=REPRESENTATION('',(#18),#715);
#15=REPRESENTATION('',(#19),#715);
#16=PROPERTY_DEFINITION('pmi validation property','',#23);
#17=PROPERTY_DEFINITION('pmi validation property','',#23);
#18=VALUE_REPRESENTATION_ITEM('number of annotations',COUNT_MEASURE(0.));
#19=VALUE_REPRESENTATION_ITEM('number of views',COUNT_MEASURE(0.));
#20=SHAPE_REPRESENTATION_RELATIONSHIP('None',
'relationship between pf6612088076yovo-None and pf6612088076yovo-None',
#32,#21);
#21=ADVANCED_BREP_SHAPE_REPRESENTATION('pf6612088076yovo-None',(#38),#715);
#22=SHAPE_DEFINITION_REPRESENTATION(#23,#32);
#23=PRODUCT_DEFINITION_SHAPE('','',#24);
#24=PRODUCT_DEFINITION(' ','',#26,#25);
#25=PRODUCT_DEFINITION_CONTEXT('part definition',#31,'design');
#26=PRODUCT_DEFINITION_FORMATION_WITH_SPECIFIED_SOURCE(' ',' ',#28,
 .NOT_KNOWN.);
#27=PRODUCT_RELATED_PRODUCT_CATEGORY('part','',(#28));
#28=PRODUCT('pf6612088076yovo','pf6612088076yovo',' ',(#29));
#29=PRODUCT_CONTEXT(' ',#31,'mechanical');
#30=APPLICATION_PROTOCOL_DEFINITION('international standard',
'automotive_design',2010,#31);
#31=APPLICATION_CONTEXT(
'core data for automotive mechanical design processes');
#32=SHAPE_REPRESENTATION('pf6612088076yovo-None',(#412),#715);
#33=SURFACE_STYLE_USAGE(.BOTH.,#34);
#34=SURFACE_SIDE_STYLE('',(#35));
#35=SURFACE_STYLE_FILL_AREA(#36);
#36=FILL_AREA_STYLE('',(#37));
#37=FILL_AREA_STYLE_COLOUR('',#408);
#38=MANIFOLD_SOLID_BREP('',#39);
#39=CLOSED_SHELL('',(#108,#109,#110,#111,#112,#113,#114,#115,#116,#117,
#118,#119,#120,#121,#122,#123,#124,#125,#126,#127,#128,#129,#130,#131));
#40=TOROIDAL_SURFACE('',#444,28.,0.5);
#41=TOROIDAL_SURFACE('',#447,28.,0.5);
#42=TOROIDAL_SURFACE('',#454,27.4,1.);
#43=TOROIDAL_SURFACE('',#456,27.4,1.);
#44=CYLINDRICAL_SURFACE('',#431,31.5);
#45=CYLINDRICAL_SURFACE('',#442,31.5);
#46=CYLINDRICAL_SURFACE('',#446,27.5);
#47=CYLINDRICAL_SURFACE('',#458,26.4);
#48=CYLINDRICAL_SURFACE('',#460,26.4);
#49=CYLINDRICAL_SURFACE('',#466,25.);
#50=CYLINDRICAL_SURFACE('',#470,27.);
#51=CYLINDRICAL_SURFACE('',#471,27.);
#52=FACE_BOUND('',#155,.T.);
#53=FACE_BOUND('',#156,.T.);
#54=FACE_BOUND('',#158,.T.);
#55=FACE_BOUND('',#159,.T.);
#56=FACE_BOUND('',#160,.T.);
#57=FACE_BOUND('',#161,.T.);
#58=FACE_BOUND('',#162,.T.);
#59=FACE_BOUND('',#163,.T.);
#60=FACE_BOUND('',#164,.T.);
#61=FACE_BOUND('',#165,.T.);
#62=FACE_BOUND('',#166,.T.);
#63=FACE_BOUND('',#167,.T.);
#64=FACE_BOUND('',#168,.T.);
#65=FACE_BOUND('',#169,.T.);
#66=FACE_BOUND('',#170,.T.);
#67=FACE_BOUND('',#171,.T.);
#68=FACE_BOUND('',#172,.T.);
#69=FACE_BOUND('',#173,.T.);
#70=FACE_BOUND('',#174,.T.);
#71=FACE_BOUND('',#175,.T.);
#72=FACE_BOUND('',#180,.T.);
#73=FACE_BOUND('',#181,.T.);
#74=FACE_BOUND('',#182,.T.);
#75=FACE_BOUND('',#183,.T.);
#76=FACE_BOUND('',#184,.T.);
#77=FACE_BOUND('',#185,.T.);
#78=CONICAL_SURFACE('',#423,23.49748952252,2.8681);
#79=CONICAL_SURFACE('',#425,23.49748952252,2.8681);
#80=CONICAL_SURFACE('',#433,30.1987976321,60.);
#81=CONICAL_SURFACE('',#440,30.1987976321,60.);
#82=LINE('',#619,#95);
#83=LINE('',#623,#96);
#84=LINE('',#632,#97);
#85=LINE('',#636,#98);
#86=LINE('',#639,#99);
#87=LINE('',#679,#100);
#88=LINE('',#681,#101);
#89=LINE('',#692,#102);
#90=LINE('',#697,#103);
#91=LINE('',#700,#104);
#92=LINE('',#702,#105);
#93=LINE('',#710,#106);
#94=LINE('',#711,#107);
#95=VECTOR('',#492,1.);
#96=VECTOR('',#495,1.);
#97=VECTOR('',#508,1.);
#98=VECTOR('',#511,1.);
#99=VECTOR('',#514,1.);
#100=VECTOR('',#567,1.);
#101=VECTOR('',#568,1.);
#102=VECTOR('',#583,1.);
#103=VECTOR('',#586,1.);
#104=VECTOR('',#589,1.);
#105=VECTOR('',#590,1.);
#106=VECTOR('',#599,1.);
#107=VECTOR('',#600,1.);
#108=ADVANCED_FACE('',(#140),#132,.T.);
#109=ADVANCED_FACE('',(#141),#133,.F.);
#110=ADVANCED_FACE('',(#142),#78,.T.);
#111=ADVANCED_FACE('',(#143),#79,.T.);
#112=ADVANCED_FACE('',(#52,#53),#134,.F.);
#113=ADVANCED_FACE('',(#144),#44,.T.);
#114=ADVANCED_FACE('',(#54,#55),#80,.T.);
#115=ADVANCED_FACE('',(#56,#57),#135,.T.);
#116=ADVANCED_FACE('',(#58,#59),#136,.F.);
#117=ADVANCED_FACE('',(#60,#61),#81,.T.);
#118=ADVANCED_FACE('',(#62,#63),#45,.T.);
#119=ADVANCED_FACE('',(#64,#65),#40,.F.);
#120=ADVANCED_FACE('',(#66,#67),#46,.T.);
#121=ADVANCED_FACE('',(#68,#69),#41,.F.);
#122=ADVANCED_FACE('',(#70,#71),#137,.T.);
#123=ADVANCED_FACE('',(#145),#42,.F.);
#124=ADVANCED_FACE('',(#146),#43,.F.);
#125=ADVANCED_FACE('',(#147),#47,.T.);
#126=ADVANCED_FACE('',(#148),#48,.T.);
#127=ADVANCED_FACE('',(#72,#73),#138,.T.);
#128=ADVANCED_FACE('',(#74,#75),#49,.T.);
#129=ADVANCED_FACE('',(#76,#77),#139,.F.);
#130=ADVANCED_FACE('',(#149),#50,.T.);
#131=ADVANCED_FACE('',(#150),#51,.T.);
#132=PLANE('',#418);
#133=PLANE('',#421);
#134=PLANE('',#428);
#135=PLANE('',#435);
#136=PLANE('',#438);
#137=PLANE('',#450);
#138=PLANE('',#463);
#139=PLANE('',#469);
#140=FACE_OUTER_BOUND('',#151,.T.);
#141=FACE_OUTER_BOUND('',#152,.T.);
#142=FACE_OUTER_BOUND('',#153,.T.);
#143=FACE_OUTER_BOUND('',#154,.T.);
#144=FACE_OUTER_BOUND('',#157,.T.);
#145=FACE_OUTER_BOUND('',#176,.T.);
#146=FACE_OUTER_BOUND('',#177,.T.);
#147=FACE_OUTER_BOUND('',#178,.T.);
#148=FACE_OUTER_BOUND('',#179,.T.);
#149=FACE_OUTER_BOUND('',#186,.T.);
#150=FACE_OUTER_BOUND('',#187,.T.);
#151=EDGE_LOOP('',(#188,#189));
#152=EDGE_LOOP('',(#190,#191));
#153=EDGE_LOOP('',(#192,#193,#194,#195));
#154=EDGE_LOOP('',(#196,#197,#198,#199));
#155=EDGE_LOOP('',(#200,#201));
#156=EDGE_LOOP('',(#202,#203));
#157=EDGE_LOOP('',(#204,#205,#206,#207,#208,#209,#210,#211,#212,#213));
#158=EDGE_LOOP('',(#214));
#159=EDGE_LOOP('',(#215,#216));
#160=EDGE_LOOP('',(#217));
#161=EDGE_LOOP('',(#218));
#162=EDGE_LOOP('',(#219));
#163=EDGE_LOOP('',(#220));
#164=EDGE_LOOP('',(#221));
#165=EDGE_LOOP('',(#222));
#166=EDGE_LOOP('',(#223));
#167=EDGE_LOOP('',(#224));
#168=EDGE_LOOP('',(#225));
#169=EDGE_LOOP('',(#226));
#170=EDGE_LOOP('',(#227));
#171=EDGE_LOOP('',(#228));
#172=EDGE_LOOP('',(#229));
#173=EDGE_LOOP('',(#230));
#174=EDGE_LOOP('',(#231,#232));
#175=EDGE_LOOP('',(#233));
#176=EDGE_LOOP('',(#234,#235,#236,#237));
#177=EDGE_LOOP('',(#238,#239,#240,#241));
#178=EDGE_LOOP('',(#242,#243,#244,#245));
#179=EDGE_LOOP('',(#246,#247,#248,#249));
#180=EDGE_LOOP('',(#250,#251));
#181=EDGE_LOOP('',(#252,#253));
#182=EDGE_LOOP('',(#254,#255,#256,#257,#258,#259));
#183=EDGE_LOOP('',(#260,#261,#262,#263,#264,#265));
#184=EDGE_LOOP('',(#266,#267));
#185=EDGE_LOOP('',(#268,#269));
#186=EDGE_LOOP('',(#270,#271,#272,#273));
#187=EDGE_LOOP('',(#274,#275,#276,#277));
#188=ORIENTED_EDGE('',*,*,#314,.T.);
#189=ORIENTED_EDGE('',*,*,#315,.T.);
#190=ORIENTED_EDGE('',*,*,#316,.T.);
#191=ORIENTED_EDGE('',*,*,#317,.T.);
#192=ORIENTED_EDGE('',*,*,#316,.F.);
#193=ORIENTED_EDGE('',*,*,#318,.T.);
#194=ORIENTED_EDGE('',*,*,#319,.F.);
#195=ORIENTED_EDGE('',*,*,#320,.F.);
#196=ORIENTED_EDGE('',*,*,#317,.F.);
#197=ORIENTED_EDGE('',*,*,#320,.T.);
#198=ORIENTED_EDGE('',*,*,#321,.F.);
#199=ORIENTED_EDGE('',*,*,#318,.F.);
#200=ORIENTED_EDGE('',*,*,#322,.T.);
#201=ORIENTED_EDGE('',*,*,#323,.T.);
#202=ORIENTED_EDGE('',*,*,#321,.T.);
#203=ORIENTED_EDGE('',*,*,#319,.T.);
#204=ORIENTED_EDGE('',*,*,#324,.T.);
#205=ORIENTED_EDGE('',*,*,#325,.F.);
#206=ORIENTED_EDGE('',*,*,#326,.T.);
#207=ORIENTED_EDGE('',*,*,#326,.F.);
#208=ORIENTED_EDGE('',*,*,#327,.F.);
#209=ORIENTED_EDGE('',*,*,#324,.F.);
#210=ORIENTED_EDGE('',*,*,#323,.F.);
#211=ORIENTED_EDGE('',*,*,#328,.T.);
#212=ORIENTED_EDGE('',*,*,#328,.F.);
#213=ORIENTED_EDGE('',*,*,#322,.F.);
#214=ORIENTED_EDGE('',*,*,#329,.F.);
#215=ORIENTED_EDGE('',*,*,#325,.T.);
#216=ORIENTED_EDGE('',*,*,#327,.T.);
#217=ORIENTED_EDGE('',*,*,#330,.T.);
#218=ORIENTED_EDGE('',*,*,#329,.T.);
#219=ORIENTED_EDGE('',*,*,#331,.F.);
#220=ORIENTED_EDGE('',*,*,#332,.T.);
#221=ORIENTED_EDGE('',*,*,#333,.F.);
#222=ORIENTED_EDGE('',*,*,#331,.T.);
#223=ORIENTED_EDGE('',*,*,#334,.T.);
#224=ORIENTED_EDGE('',*,*,#333,.T.);
#225=ORIENTED_EDGE('',*,*,#335,.F.);
#226=ORIENTED_EDGE('',*,*,#330,.F.);
#227=ORIENTED_EDGE('',*,*,#336,.T.);
#228=ORIENTED_EDGE('',*,*,#335,.T.);
#229=ORIENTED_EDGE('',*,*,#332,.F.);
#230=ORIENTED_EDGE('',*,*,#336,.F.);
#231=ORIENTED_EDGE('',*,*,#337,.F.);
#232=ORIENTED_EDGE('',*,*,#338,.F.);
#233=ORIENTED_EDGE('',*,*,#334,.F.);
#234=ORIENTED_EDGE('',*,*,#338,.T.);
#235=ORIENTED_EDGE('',*,*,#339,.T.);
#236=ORIENTED_EDGE('',*,*,#340,.T.);
#237=ORIENTED_EDGE('',*,*,#341,.F.);
#238=ORIENTED_EDGE('',*,*,#337,.T.);
#239=ORIENTED_EDGE('',*,*,#341,.T.);
#240=ORIENTED_EDGE('',*,*,#342,.F.);
#241=ORIENTED_EDGE('',*,*,#339,.F.);
#242=ORIENTED_EDGE('',*,*,#343,.F.);
#243=ORIENTED_EDGE('',*,*,#340,.F.);
#244=ORIENTED_EDGE('',*,*,#344,.T.);
#245=ORIENTED_EDGE('',*,*,#345,.T.);
#246=ORIENTED_EDGE('',*,*,#344,.F.);
#247=ORIENTED_EDGE('',*,*,#342,.T.);
#248=ORIENTED_EDGE('',*,*,#343,.T.);
#249=ORIENTED_EDGE('',*,*,#346,.T.);
#250=ORIENTED_EDGE('',*,*,#347,.F.);
#251=ORIENTED_EDGE('',*,*,#348,.F.);
#252=ORIENTED_EDGE('',*,*,#346,.F.);
#253=ORIENTED_EDGE('',*,*,#345,.F.);
#254=ORIENTED_EDGE('',*,*,#349,.F.);
#255=ORIENTED_EDGE('',*,*,#349,.T.);
#256=ORIENTED_EDGE('',*,*,#350,.F.);
#257=ORIENTED_EDGE('',*,*,#351,.F.);
#258=ORIENTED_EDGE('',*,*,#351,.T.);
#259=ORIENTED_EDGE('',*,*,#352,.F.);
#260=ORIENTED_EDGE('',*,*,#353,.T.);
#261=ORIENTED_EDGE('',*,*,#353,.F.);
#262=ORIENTED_EDGE('',*,*,#348,.T.);
#263=ORIENTED_EDGE('',*,*,#354,.T.);
#264=ORIENTED_EDGE('',*,*,#354,.F.);
#265=ORIENTED_EDGE('',*,*,#347,.T.);
#266=ORIENTED_EDGE('',*,*,#355,.T.);
#267=ORIENTED_EDGE('',*,*,#356,.T.);
#268=ORIENTED_EDGE('',*,*,#352,.T.);
#269=ORIENTED_EDGE('',*,*,#350,.T.);
#270=ORIENTED_EDGE('',*,*,#357,.F.);
#271=ORIENTED_EDGE('',*,*,#315,.F.);
#272=ORIENTED_EDGE('',*,*,#358,.T.);
#273=ORIENTED_EDGE('',*,*,#355,.F.);
#274=ORIENTED_EDGE('',*,*,#358,.F.);
#275=ORIENTED_EDGE('',*,*,#314,.F.);
#276=ORIENTED_EDGE('',*,*,#357,.T.);
#277=ORIENTED_EDGE('',*,*,#356,.F.);
#278=VERTEX_POINT('',#610);
#279=VERTEX_POINT('',#611);
#280=VERTEX_POINT('',#615);
#281=VERTEX_POINT('',#616);
#282=VERTEX_POINT('',#620);
#283=VERTEX_POINT('',#622);
#284=VERTEX_POINT('',#628);
#285=VERTEX_POINT('',#629);
#286=VERTEX_POINT('',#633);
#287=VERTEX_POINT('',#635);
#288=VERTEX_POINT('',#637);
#289=VERTEX_POINT('',#640);
#290=VERTEX_POINT('',#643);
#291=VERTEX_POINT('',#646);
#292=VERTEX_POINT('',#649);
#293=VERTEX_POINT('',#651);
#294=VERTEX_POINT('',#654);
#295=VERTEX_POINT('',#657);
#296=VERTEX_POINT('',#660);
#297=VERTEX_POINT('',#663);
#298=VERTEX_POINT('',#667);
#299=VERTEX_POINT('',#668);
#300=VERTEX_POINT('',#672);
#301=VERTEX_POINT('',#674);
#302=VERTEX_POINT('',#680);
#303=VERTEX_POINT('',#682);
#304=VERTEX_POINT('',#688);
#305=VERTEX_POINT('',#689);
#306=VERTEX_POINT('',#693);
#307=VERTEX_POINT('',#694);
#308=VERTEX_POINT('',#696);
#309=VERTEX_POINT('',#698);
#310=VERTEX_POINT('',#701);
#311=VERTEX_POINT('',#703);
#312=VERTEX_POINT('',#706);
#313=VERTEX_POINT('',#707);
#314=EDGE_CURVE('',#278,#279,#359,.T.);
#315=EDGE_CURVE('',#279,#278,#360,.T.);
#316=EDGE_CURVE('',#280,#281,#361,.T.);
#317=EDGE_CURVE('',#281,#280,#362,.T.);
#318=EDGE_CURVE('',#280,#282,#82,.T.);
#319=EDGE_CURVE('',#283,#282,#363,.T.);
#320=EDGE_CURVE('',#281,#283,#83,.T.);
#321=EDGE_CURVE('',#282,#283,#364,.T.);
#322=EDGE_CURVE('',#284,#285,#365,.T.);
#323=EDGE_CURVE('',#285,#284,#366,.T.);
#324=EDGE_CURVE('',#284,#286,#84,.T.);
#325=EDGE_CURVE('',#287,#286,#367,.T.);
#326=EDGE_CURVE('',#287,#288,#85,.T.);
#327=EDGE_CURVE('',#286,#287,#368,.T.);
#328=EDGE_CURVE('',#285,#289,#86,.T.);
#329=EDGE_CURVE('',#290,#290,#369,.T.);
#330=EDGE_CURVE('',#291,#291,#370,.T.);
#331=EDGE_CURVE('',#292,#292,#371,.T.);
#332=EDGE_CURVE('',#293,#293,#372,.T.);
#333=EDGE_CURVE('',#294,#294,#373,.T.);
#334=EDGE_CURVE('',#295,#295,#374,.T.);
#335=EDGE_CURVE('',#296,#296,#375,.T.);
#336=EDGE_CURVE('',#297,#297,#376,.T.);
#337=EDGE_CURVE('',#298,#299,#377,.T.);
#338=EDGE_CURVE('',#299,#298,#378,.T.);
#339=EDGE_CURVE('',#298,#300,#379,.T.);
#340=EDGE_CURVE('',#300,#301,#380,.T.);
#341=EDGE_CURVE('',#299,#301,#381,.T.);
#342=EDGE_CURVE('',#300,#301,#382,.T.);
#343=EDGE_CURVE('',#301,#302,#87,.T.);
#344=EDGE_CURVE('',#300,#303,#88,.T.);
#345=EDGE_CURVE('',#303,#302,#383,.T.);
#346=EDGE_CURVE('',#302,#303,#384,.T.);
#347=EDGE_CURVE('',#304,#305,#385,.T.);
#348=EDGE_CURVE('',#305,#304,#386,.T.);
#349=EDGE_CURVE('',#306,#307,#89,.T.);
#350=EDGE_CURVE('',#308,#307,#387,.T.);
#351=EDGE_CURVE('',#309,#308,#90,.T.);
#352=EDGE_CURVE('',#307,#308,#388,.T.);
#353=EDGE_CURVE('',#305,#310,#91,.T.);
#354=EDGE_CURVE('',#304,#311,#92,.T.);
#355=EDGE_CURVE('',#312,#313,#389,.T.);
#356=EDGE_CURVE('',#313,#312,#390,.T.);
#357=EDGE_CURVE('',#278,#312,#93,.T.);
#358=EDGE_CURVE('',#279,#313,#94,.T.);
#359=CIRCLE('',#416,27.);
#360=CIRCLE('',#417,27.);
#361=CIRCLE('',#419,22.7174392126387);
#362=CIRCLE('',#420,22.7174392126387);
#363=CIRCLE('',#422,24.3206277416436);
#364=CIRCLE('',#424,24.3206277416436);
#365=CIRCLE('',#426,31.5);
#366=CIRCLE('',#427,31.5);
#367=CIRCLE('',#429,31.5);
#368=CIRCLE('',#430,31.5);
#369=CIRCLE('',#432,28.89759526419);
#370=CIRCLE('',#434,28.);
#371=CIRCLE('',#436,28.89759526419);
#372=CIRCLE('',#437,28.);
#373=CIRCLE('',#439,31.5);
#374=CIRCLE('',#441,31.5);
#375=CIRCLE('',#443,27.5);
#376=CIRCLE('',#445,27.5);
#377=CIRCLE('',#448,27.4);
#378=CIRCLE('',#449,27.4);
#379=CIRCLE('',#451,1.);
#380=CIRCLE('',#452,26.4);
#381=CIRCLE('',#453,1.);
#382=CIRCLE('',#455,26.4);
#383=CIRCLE('',#457,26.4);
#384=CIRCLE('',#459,26.4);
#385=CIRCLE('',#461,25.);
#386=CIRCLE('',#462,25.);
#387=CIRCLE('',#464,25.);
#388=CIRCLE('',#465,25.);
#389=CIRCLE('',#467,27.);
#390=CIRCLE('',#468,27.);
#391=INVISIBILITY((#392,#393,#394,#395));
#392=PRESENTATION_LAYER_ASSIGNMENT('100','Layer 100',(#413));
#393=PRESENTATION_LAYER_ASSIGNMENT('101','Layer 101',(#414));
#394=PRESENTATION_LAYER_ASSIGNMENT('102','Layer 102',(#415));
#395=PRESENTATION_LAYER_ASSIGNMENT('98','Layer 98',(#38));
#396=STYLED_ITEM('',(#400),#413);
#397=STYLED_ITEM('',(#401),#414);
#398=STYLED_ITEM('',(#402),#415);
#399=STYLED_ITEM('',(#403),#38);
#400=PRESENTATION_STYLE_ASSIGNMENT((#404));
#401=PRESENTATION_STYLE_ASSIGNMENT((#405));
#402=PRESENTATION_STYLE_ASSIGNMENT((#406));
#403=PRESENTATION_STYLE_ASSIGNMENT((#33));
#404=CURVE_STYLE('',#409,POSITIVE_LENGTH_MEASURE(0.7),#407);
#405=CURVE_STYLE('',#410,POSITIVE_LENGTH_MEASURE(0.7),#407);
#406=CURVE_STYLE('',#411,POSITIVE_LENGTH_MEASURE(0.7),#407);
#407=COLOUR_RGB('Medium Maroon',0.6,0.4,0.4);
#408=COLOUR_RGB('Medium Gray',0.490196078431373,0.490196078431373,0.490196078431373);
#409=DRAUGHTING_PRE_DEFINED_CURVE_FONT('continuous');
#410=DRAUGHTING_PRE_DEFINED_CURVE_FONT('continuous');
#411=DRAUGHTING_PRE_DEFINED_CURVE_FONT('continuous');
#412=AXIS2_PLACEMENT_3D('',#605,#472,#473);
#413=AXIS2_PLACEMENT_3D('PCS',#606,#474,#475);
#414=AXIS2_PLACEMENT_3D('CSW',#607,#476,#477);
#415=AXIS2_PLACEMENT_3D('MCS',#608,#478,#479);
#416=AXIS2_PLACEMENT_3D('',#609,#480,#481);
#417=AXIS2_PLACEMENT_3D('',#612,#482,#483);
#418=AXIS2_PLACEMENT_3D('',#613,#484,#485);
#419=AXIS2_PLACEMENT_3D('',#614,#486,#487);
#420=AXIS2_PLACEMENT_3D('',#617,#488,#489);
#421=AXIS2_PLACEMENT_3D('',#618,#490,#491);
#422=AXIS2_PLACEMENT_3D('',#621,#493,#494);
#423=AXIS2_PLACEMENT_3D('',#624,#496,#497);
#424=AXIS2_PLACEMENT_3D('',#625,#498,#499);
#425=AXIS2_PLACEMENT_3D('',#626,#500,#501);
#426=AXIS2_PLACEMENT_3D('',#627,#502,#503);
#427=AXIS2_PLACEMENT_3D('',#630,#504,#505);
#428=AXIS2_PLACEMENT_3D('',#631,#506,#507);
#429=AXIS2_PLACEMENT_3D('',#634,#509,#510);
#430=AXIS2_PLACEMENT_3D('',#638,#512,#513);
#431=AXIS2_PLACEMENT_3D('',#641,#515,#516);
#432=AXIS2_PLACEMENT_3D('',#642,#517,#518);
#433=AXIS2_PLACEMENT_3D('',#644,#519,#520);
#434=AXIS2_PLACEMENT_3D('',#645,#521,#522);
#435=AXIS2_PLACEMENT_3D('',#647,#523,#524);
#436=AXIS2_PLACEMENT_3D('',#648,#525,#526);
#437=AXIS2_PLACEMENT_3D('',#650,#527,#528);
#438=AXIS2_PLACEMENT_3D('',#652,#529,#530);
#439=AXIS2_PLACEMENT_3D('',#653,#531,#532);
#440=AXIS2_PLACEMENT_3D('',#655,#533,#534);
#441=AXIS2_PLACEMENT_3D('',#656,#535,#536);
#442=AXIS2_PLACEMENT_3D('',#658,#537,#538);
#443=AXIS2_PLACEMENT_3D('',#659,#539,#540);
#444=AXIS2_PLACEMENT_3D('',#661,#541,#542);
#445=AXIS2_PLACEMENT_3D('',#662,#543,#544);
#446=AXIS2_PLACEMENT_3D('',#664,#545,#546);
#447=AXIS2_PLACEMENT_3D('',#665,#547,#548);
#448=AXIS2_PLACEMENT_3D('',#666,#549,#550);
#449=AXIS2_PLACEMENT_3D('',#669,#551,#552);
#450=AXIS2_PLACEMENT_3D('',#670,#553,#554);
#451=AXIS2_PLACEMENT_3D('',#671,#555,#556);
#452=AXIS2_PLACEMENT_3D('',#673,#557,#558);
#453=AXIS2_PLACEMENT_3D('',#675,#559,#560);
#454=AXIS2_PLACEMENT_3D('',#676,#561,#562);
#455=AXIS2_PLACEMENT_3D('',#677,#563,#564);
#456=AXIS2_PLACEMENT_3D('',#678,#565,#566);
#457=AXIS2_PLACEMENT_3D('',#683,#569,#570);
#458=AXIS2_PLACEMENT_3D('',#684,#571,#572);
#459=AXIS2_PLACEMENT_3D('',#685,#573,#574);
#460=AXIS2_PLACEMENT_3D('',#686,#575,#576);
#461=AXIS2_PLACEMENT_3D('',#687,#577,#578);
#462=AXIS2_PLACEMENT_3D('',#690,#579,#580);
#463=AXIS2_PLACEMENT_3D('',#691,#581,#582);
#464=AXIS2_PLACEMENT_3D('',#695,#584,#585);
#465=AXIS2_PLACEMENT_3D('',#699,#587,#588);
#466=AXIS2_PLACEMENT_3D('',#704,#591,#592);
#467=AXIS2_PLACEMENT_3D('',#705,#593,#594);
#468=AXIS2_PLACEMENT_3D('',#708,#595,#596);
#469=AXIS2_PLACEMENT_3D('',#709,#597,#598);
#470=AXIS2_PLACEMENT_3D('',#712,#601,#602);
#471=AXIS2_PLACEMENT_3D('',#713,#603,#604);
#472=DIRECTION('',(0.,0.,1.));
#473=DIRECTION('',(1.,0.,0.));
#474=DIRECTION('',(0.,0.,1.));
#475=DIRECTION('',(1.,0.,0.));
#476=DIRECTION('',(0.,0.,1.));
#477=DIRECTION('',(1.,0.,0.));
#478=DIRECTION('',(0.,0.,1.));
#479=DIRECTION('',(1.,0.,0.));
#480=DIRECTION('',(0.,0.,-1.));
#481=DIRECTION('',(-1.,0.,0.));
#482=DIRECTION('',(0.,0.,-1.));
#483=DIRECTION('',(-1.,0.,0.));
#484=DIRECTION('',(0.,0.,-1.));
#485=DIRECTION('',(0.,-1.,0.));
#486=DIRECTION('',(0.,0.,1.));
#487=DIRECTION('',(-1.,0.,0.));
#488=DIRECTION('',(0.,0.,1.));
#489=DIRECTION('',(-1.,0.,0.));
#490=DIRECTION('',(0.,0.,-1.));
#491=DIRECTION('',(0.,-1.,0.));
#492=DIRECTION('',(1.87233229922393E-14,-0.0500368852433381,-0.998747370517262));
#493=DIRECTION('',(0.,0.,-1.));
#494=DIRECTION('',(-1.,0.,0.));
#495=DIRECTION('',(-1.84941077733493E-14,0.0500368852433481,-0.998747370517262));
#496=DIRECTION('',(0.,0.,-1.));
#497=DIRECTION('',(0.,-1.,-3.77128499686941E-16));
#498=DIRECTION('',(0.,0.,-1.));
#499=DIRECTION('',(-1.,0.,0.));
#500=DIRECTION('',(0.,0.,-1.));
#501=DIRECTION('',(0.,-1.,-3.77128499686941E-16));
#502=DIRECTION('',(0.,0.,1.));
#503=DIRECTION('',(-1.,0.,0.));
#504=DIRECTION('',(0.,0.,1.));
#505=DIRECTION('',(-1.,0.,0.));
#506=DIRECTION('',(0.,0.,-1.));
#507=DIRECTION('',(0.,-1.,0.));
#508=DIRECTION('',(-3.308477055609E-14,0.,-1.));
#509=DIRECTION('',(0.,0.,-1.));
#510=DIRECTION('',(0.,-1.,0.));
#511=DIRECTION('',(0.,0.,1.));
#512=DIRECTION('',(0.,0.,-1.));
#513=DIRECTION('',(0.958314847499905,0.285714285714302,0.));
#514=DIRECTION('',(9.33264607387E-13,-2.13162820728E-14,-1.));
#515=DIRECTION('',(0.,0.,-1.));
#516=DIRECTION('',(0.,-1.,0.));
#517=DIRECTION('',(0.,0.,-1.));
#518=DIRECTION('',(-0.960916131215481,0.276839644505394,0.));
#519=DIRECTION('',(0.,0.,1.));
#520=DIRECTION('',(0.,1.,-8.85942107049627E-18));
#521=DIRECTION('',(0.,0.,1.));
#522=DIRECTION('',(0.946933827397333,0.321428571428611,0.));
#523=DIRECTION('',(0.,0.,-1.));
#524=DIRECTION('',(0.,-1.,0.));
#525=DIRECTION('',(0.,0.,-1.));
#526=DIRECTION('',(-0.960916131215481,0.276839644505394,0.));
#527=DIRECTION('',(0.,0.,-1.));
#528=DIRECTION('',(-0.958314847499905,0.285714285714302,0.));
#529=DIRECTION('',(0.,0.,-1.));
#530=DIRECTION('',(0.,-1.,0.));
#531=DIRECTION('',(0.,0.,-1.));
#532=DIRECTION('',(-0.967212554703614,0.253968253968304,0.));
#533=DIRECTION('',(0.,0.,-1.));
#534=DIRECTION('',(0.,-1.,5.51252866608657E-17));
#535=DIRECTION('',(0.,0.,1.));
#536=DIRECTION('',(-1.,0.,0.));
#537=DIRECTION('',(0.,0.,-1.));
#538=DIRECTION('',(0.,-1.,0.));
#539=DIRECTION('',(0.,0.,-1.));
#540=DIRECTION('',(-0.96363636363636,0.267217062849089,0.));
#541=DIRECTION('',(0.,0.,-1.));
#542=DIRECTION('',(-0.00403519109815584,0.999991858583259,0.));
#543=DIRECTION('',(0.,0.,1.));
#544=DIRECTION('',(0.96363636363636,0.267217062849089,0.));
#545=DIRECTION('',(0.,0.,-1.));
#546=DIRECTION('',(0.,-1.,0.));
#547=DIRECTION('',(0.,0.,-1.));
#548=DIRECTION('',(-0.00422980117842993,0.999991054350983,0.));
#549=DIRECTION('',(0.,0.,-1.));
#550=DIRECTION('',(-0.967153284671521,0.254193870793706,0.));
#551=DIRECTION('',(0.,0.,-1.));
#552=DIRECTION('',(0.,1.,0.));
#553=DIRECTION('',(0.,0.,-1.));
#554=DIRECTION('',(0.,-1.,0.));
#555=DIRECTION('',(-1.,0.,0.));
#556=DIRECTION('',(0.,1.,0.));
#557=DIRECTION('',(0.,0.,1.));
#558=DIRECTION('',(0.,-1.,0.));
#559=DIRECTION('',(1.,0.,0.));
#560=DIRECTION('',(0.,-1.,0.));
#561=DIRECTION('',(0.,0.,-1.));
#562=DIRECTION('',(0.,-1.,0.));
#563=DIRECTION('',(0.,0.,-1.));
#564=DIRECTION('',(0.,-1.,0.));
#565=DIRECTION('',(0.,0.,-1.));
#566=DIRECTION('',(0.,-1.,0.));
#567=DIRECTION('',(0.,0.,-1.));
#568=DIRECTION('',(0.,0.,-1.));
#569=DIRECTION('',(0.,0.,1.));
#570=DIRECTION('',(-1.,0.,0.));
#571=DIRECTION('',(0.,0.,-1.));
#572=DIRECTION('',(0.,-1.,0.));
#573=DIRECTION('',(0.,0.,1.));
#574=DIRECTION('',(-1.,0.,0.));
#575=DIRECTION('',(0.,0.,-1.));
#576=DIRECTION('',(0.,-1.,0.));
#577=DIRECTION('',(0.,0.,-1.));
#578=DIRECTION('',(-1.,0.,0.));
#579=DIRECTION('',(0.,0.,-1.));
#580=DIRECTION('',(-1.,0.,0.));
#581=DIRECTION('',(0.,0.,-1.));
#582=DIRECTION('',(0.,-1.,0.));
#583=DIRECTION('',(0.,0.,-1.));
#584=DIRECTION('',(0.,0.,-1.));
#585=DIRECTION('',(0.,-1.,0.));
#586=DIRECTION('',(0.,0.,-1.));
#587=DIRECTION('',(0.,0.,-1.));
#588=DIRECTION('',(0.,1.,0.));
#589=DIRECTION('',(0.,0.,-1.));
#590=DIRECTION('',(0.,0.,-1.));
#591=DIRECTION('',(0.,0.,-1.));
#592=DIRECTION('',(0.,-1.,0.));
#593=DIRECTION('',(0.,0.,1.));
#594=DIRECTION('',(-1.,0.,0.));
#595=DIRECTION('',(0.,0.,1.));
#596=DIRECTION('',(-1.,0.,0.));
#597=DIRECTION('',(0.,0.,-1.));
#598=DIRECTION('',(0.,-1.,0.));
#599=DIRECTION('',(2.914245948439E-14,0.,1.));
#600=DIRECTION('',(-3.013601826994E-14,0.,1.));
#601=DIRECTION('',(0.,0.,-1.));
#602=DIRECTION('',(0.,-1.,0.));
#603=DIRECTION('',(0.,0.,-1.));
#604=DIRECTION('',(0.,-1.,0.));
#605=CARTESIAN_POINT('',(0.,0.,0.));
#606=CARTESIAN_POINT('',(0.,0.,0.));
#607=CARTESIAN_POINT('',(0.,0.,-140.));
#608=CARTESIAN_POINT('',(0.,0.,0.));
#609=CARTESIAN_POINT('',(0.,0.,-140.));
#610=CARTESIAN_POINT('',(-1.65327317884893E-15,27.,-140.));
#611=CARTESIAN_POINT('',(0.,-27.,-140.));
#612=CARTESIAN_POINT('',(0.,0.,-140.));
#613=CARTESIAN_POINT('',(0.,0.,-140.));
#614=CARTESIAN_POINT('',(0.,0.,32.));
#615=CARTESIAN_POINT('',(-5.62404173816516E-13,-22.7174392126482,32.));
#616=CARTESIAN_POINT('',(5.55519092794337E-13,22.7174392126479,32.));
#617=CARTESIAN_POINT('',(0.,0.,32.));
#618=CARTESIAN_POINT('',(0.,0.,32.));
#619=CARTESIAN_POINT('',(0.,-24.22042845859,2.));
#620=CARTESIAN_POINT('',(0.,-24.3206277416436,0.));
#621=CARTESIAN_POINT('',(0.,0.,0.));
#622=CARTESIAN_POINT('',(2.67034791029395E-13,24.3206277416436,0.));
#623=CARTESIAN_POINT('',(0.,24.22042845859,2.));
#624=CARTESIAN_POINT('',(0.,0.,16.43002213115));
#625=CARTESIAN_POINT('',(0.,0.,0.));
#626=CARTESIAN_POINT('',(0.,0.,16.43002213115));
#627=CARTESIAN_POINT('',(0.,0.,0.));
#628=CARTESIAN_POINT('',(4.83782088067779E-13,31.5,0.));
#629=CARTESIAN_POINT('',(-1.3998969110805E-12,-31.5,0.));
#630=CARTESIAN_POINT('',(0.,0.,0.));
#631=CARTESIAN_POINT('',(0.,0.,0.));
#632=CARTESIAN_POINT('',(0.,31.5,-14.62250092524));
#633=CARTESIAN_POINT('',(0.,31.5,-14.62250092524));
#634=CARTESIAN_POINT('',(0.,0.,-14.62250092524));
#635=CARTESIAN_POINT('',(0.,-31.5,-14.62250092524));
#636=CARTESIAN_POINT('',(0.,-31.5,-14.62250092524));
#637=CARTESIAN_POINT('',(0.,-31.5,-12.5));
#638=CARTESIAN_POINT('',(0.,0.,-14.62250092524));
#639=CARTESIAN_POINT('',(0.,-31.5,-1.5));
#640=CARTESIAN_POINT('',(0.,-31.5,-1.5));
#641=CARTESIAN_POINT('',(0.,0.,34.9));
#642=CARTESIAN_POINT('',(0.,0.,-16.125));
#643=CARTESIAN_POINT('',(-27.7681654426962,7.99999999999913,-16.125));
#644=CARTESIAN_POINT('',(0.,0.,-15.37375046262));
#645=CARTESIAN_POINT('',(0.,0.,-16.125));
#646=CARTESIAN_POINT('',(26.5141471671253,9.00000000000112,-16.125));
#647=CARTESIAN_POINT('',(0.,0.,-16.125));
#648=CARTESIAN_POINT('',(0.,0.,-19.875));
#649=CARTESIAN_POINT('',(-27.7681654426962,7.99999999999913,-19.875));
#650=CARTESIAN_POINT('',(0.,0.,-19.875));
#651=CARTESIAN_POINT('',(-26.8328157299973,8.00000000000044,-19.875));
#652=CARTESIAN_POINT('',(0.,0.,-19.875));
#653=CARTESIAN_POINT('',(0.,0.,-21.377499074759));
#654=CARTESIAN_POINT('',(-30.4671954731638,8.00000000000156,-21.377499074759));
#655=CARTESIAN_POINT('',(0.,0.,-20.62624953738));
#656=CARTESIAN_POINT('',(0.,0.,-26.));
#657=CARTESIAN_POINT('',(-31.5,0.,-26.));
#658=CARTESIAN_POINT('',(0.,0.,34.9));
#659=CARTESIAN_POINT('',(0.,0.,-16.625));
#660=CARTESIAN_POINT('',(-26.4999999999999,7.34846922834994,-16.625));
#661=CARTESIAN_POINT('',(0.,0.,-16.625));
#662=CARTESIAN_POINT('',(0.,0.,-19.375));
#663=CARTESIAN_POINT('',(26.4999999999999,7.34846922834994,-19.375));
#664=CARTESIAN_POINT('',(0.,0.,34.9));
#665=CARTESIAN_POINT('',(0.,0.,-19.375));
#666=CARTESIAN_POINT('',(0.,0.,-26.));
#667=CARTESIAN_POINT('',(0.,-27.4,-26.));
#668=CARTESIAN_POINT('',(0.,27.4,-26.));
#669=CARTESIAN_POINT('',(0.,0.,-26.));
#670=CARTESIAN_POINT('',(0.,0.,-26.));
#671=CARTESIAN_POINT('',(0.,-27.4,-27.));
#672=CARTESIAN_POINT('',(0.,-26.4,-27.));
#673=CARTESIAN_POINT('',(0.,0.,-27.));
#674=CARTESIAN_POINT('',(0.,26.4,-27.));
#675=CARTESIAN_POINT('',(0.,27.4,-27.));
#676=CARTESIAN_POINT('',(0.,0.,-27.));
#677=CARTESIAN_POINT('',(0.,0.,-27.));
#678=CARTESIAN_POINT('',(0.,0.,-27.));
#679=CARTESIAN_POINT('',(-5.496333136995E-14,26.4,-70.5));
#680=CARTESIAN_POINT('',(-5.496333136995E-14,26.4,-71.));
#681=CARTESIAN_POINT('',(5.576810881044E-14,-26.4,-70.5));
#682=CARTESIAN_POINT('',(5.576810881044E-14,-26.4,-71.));
#683=CARTESIAN_POINT('',(0.,0.,-71.));
#684=CARTESIAN_POINT('',(0.,0.,-21.05));
#685=CARTESIAN_POINT('',(0.,0.,-71.));
#686=CARTESIAN_POINT('',(0.,0.,-21.05));
#687=CARTESIAN_POINT('',(0.,0.,-71.));
#688=CARTESIAN_POINT('',(0.,-25.,-71.));
#689=CARTESIAN_POINT('',(-1.53080849893419E-15,25.,-71.));
#690=CARTESIAN_POINT('',(0.,0.,-71.));
#691=CARTESIAN_POINT('',(0.,0.,-71.));
#692=CARTESIAN_POINT('',(0.,25.,-92.));
#693=CARTESIAN_POINT('',(0.,25.,-81.2));
#694=CARTESIAN_POINT('',(0.,25.,-92.));
#695=CARTESIAN_POINT('',(0.,0.,-92.));
#696=CARTESIAN_POINT('',(0.,-25.,-92.));
#697=CARTESIAN_POINT('',(0.,-25.,-92.));
#698=CARTESIAN_POINT('',(0.,-25.,-81.2));
#699=CARTESIAN_POINT('',(0.,0.,-92.));
#700=CARTESIAN_POINT('',(0.,25.,-76.2));
#701=CARTESIAN_POINT('',(0.,25.,-76.2));
#702=CARTESIAN_POINT('',(0.,-25.,-76.2));
#703=CARTESIAN_POINT('',(0.,-25.,-76.2));
#704=CARTESIAN_POINT('',(0.,0.,-21.05));
#705=CARTESIAN_POINT('',(0.,0.,-92.));
#706=CARTESIAN_POINT('',(3.05995824586095E-13,27.,-92.));
#707=CARTESIAN_POINT('',(-3.1642819183437E-13,-27.,-92.));
#708=CARTESIAN_POINT('',(0.,0.,-92.));
#709=CARTESIAN_POINT('',(0.,0.,-92.));
#710=CARTESIAN_POINT('',(0.,27.,-102.5));
#711=CARTESIAN_POINT('',(0.,-27.,-102.5));
#712=CARTESIAN_POINT('',(0.,0.,-89.6));
#713=CARTESIAN_POINT('',(0.,0.,-89.6));
#714=MECHANICAL_DESIGN_GEOMETRIC_PRESENTATION_REPRESENTATION('',(#396,#397,
#398,#399),#715);
#715=(
GEOMETRIC_REPRESENTATION_CONTEXT(3)
GLOBAL_UNCERTAINTY_ASSIGNED_CONTEXT((#716))
GLOBAL_UNIT_ASSIGNED_CONTEXT((#722,#718,#717))
REPRESENTATION_CONTEXT('HSK.63A-QTCC.M5','TOP_LEVEL_ASSEMBLY_PART')
);
#716=UNCERTAINTY_MEASURE_WITH_UNIT(LENGTH_MEASURE(2.E-5),#722,
'DISTANCE_ACCURACY_VALUE','Maximum Tolerance applied to model');
#717=(
NAMED_UNIT(*)
SI_UNIT($,.STERADIAN.)
SOLID_ANGLE_UNIT()
);
#718=(
CONVERSION_BASED_UNIT('DEGREE',#720)
NAMED_UNIT(#719)
PLANE_ANGLE_UNIT()
);
#719=DIMENSIONAL_EXPONENTS(0.,0.,0.,0.,0.,0.,0.);
#720=PLANE_ANGLE_MEASURE_WITH_UNIT(PLANE_ANGLE_MEASURE(0.0174532925),#721);
#721=(
NAMED_UNIT(*)
PLANE_ANGLE_UNIT()
SI_UNIT($,.RADIAN.)
);
#722=(
LENGTH_UNIT()
NAMED_UNIT(*)
SI_UNIT(.MILLI.,.METRE.)
);
ENDSEC;
END-ISO-10303-21;
