ISO-10303-21;
HEADER;
/* Generated by software containing ST-Developer
 * from STEP Tools, Inc. (www.steptools.com) 
 */
/* OPTION: using custom schema-name function */

FILE_DESCRIPTION(
/* description */ (''),
/* implementation_level */ '2;1');

FILE_NAME(
/* name */ 'HSK.63A-IHA.M16.075.stp',
/* time_stamp */ '2024-07-21T12:56:03+02:00',
/* author */ (''),
/* organization */ (''),
/* preprocessor_version */ 'ST-DEVELOPER v16.7',
/* originating_system */ 'SIEMENS PLM Software NX 12.0',
/* authorisation */ '');

FILE_SCHEMA (('AUTOMOTIVE_DESIGN { 1 0 10303 214 3 1 1 1 }'));
ENDSEC;

DATA;
#10=CONSTRUCTIVE_GEOMETRY_REPRESENTATION_RELATIONSHIP(
'supplemental geometry','',#32,#11);
#11=CONSTRUCTIVE_GEOMETRY_REPRESENTATION('supplemental geometry',(#346,
#347,#348),#588);
#12=PROPERTY_DEFINITION_REPRESENTATION(#16,#14);
#13=PROPERTY_DEFINITION_REPRESENTATION(#17,#15);
#14=REPRESENTATION('',(#18),#588);
#15=REPRESENTATION('',(#19),#588);
#16=PROPERTY_DEFINITION('pmi validation property','',#23);
#17=PROPERTY_DEFINITION('pmi validation property','',#23);
#18=VALUE_REPRESENTATION_ITEM('number of annotations',COUNT_MEASURE(0.));
#19=VALUE_REPRESENTATION_ITEM('number of views',COUNT_MEASURE(0.));
#20=SHAPE_REPRESENTATION_RELATIONSHIP('None',
'relationship between pf6612088076york-None and pf6612088076york-None',
#32,#21);
#21=ADVANCED_BREP_SHAPE_REPRESENTATION('pf6612088076york-None',(#38),#588);
#22=SHAPE_DEFINITION_REPRESENTATION(#23,#32);
#23=PRODUCT_DEFINITION_SHAPE('','',#24);
#24=PRODUCT_DEFINITION(' ','',#26,#25);
#25=PRODUCT_DEFINITION_CONTEXT('part definition',#31,'design');
#26=PRODUCT_DEFINITION_FORMATION_WITH_SPECIFIED_SOURCE(' ',' ',#28,
 .NOT_KNOWN.);
#27=PRODUCT_RELATED_PRODUCT_CATEGORY('part','',(#28));
#28=PRODUCT('pf6612088076york','pf6612088076york',' ',(#29));
#29=PRODUCT_CONTEXT(' ',#31,'mechanical');
#30=APPLICATION_PROTOCOL_DEFINITION('international standard',
'automotive_design',2010,#31);
#31=APPLICATION_CONTEXT(
'core data for automotive mechanical design processes');
#32=SHAPE_REPRESENTATION('pf6612088076york-None',(#345),#588);
#33=SURFACE_STYLE_USAGE(.BOTH.,#34);
#34=SURFACE_SIDE_STYLE('',(#35));
#35=SURFACE_STYLE_FILL_AREA(#36);
#36=FILL_AREA_STYLE('',(#37));
#37=FILL_AREA_STYLE_COLOUR('',#341);
#38=MANIFOLD_SOLID_BREP('\X\B0\X2\014100AE0106\X0\-\X\B1\X2\02DD0104\X0\X
2',#39);
#39=CLOSED_SHELL('',(#102,#103,#104,#105,#106,#107,#108,#109,#110,#111,
#112,#113,#114,#115,#116,#117,#118,#119,#120,#121));
#40=PLANE('',#367);
#41=PLANE('',#377);
#42=PLANE('',#379);
#43=PLANE('',#382);
#44=PLANE('',#385);
#45=PLANE('',#391);
#46=FACE_BOUND('',#137,.T.);
#47=FACE_BOUND('',#138,.T.);
#48=FACE_BOUND('',#139,.T.);
#49=FACE_BOUND('',#140,.T.);
#50=FACE_BOUND('',#141,.T.);
#51=FACE_BOUND('',#142,.T.);
#52=FACE_BOUND('',#144,.T.);
#53=FACE_BOUND('',#145,.T.);
#54=FACE_BOUND('',#146,.T.);
#55=FACE_BOUND('',#147,.T.);
#56=FACE_BOUND('',#148,.T.);
#57=FACE_BOUND('',#149,.T.);
#58=FACE_BOUND('',#150,.T.);
#59=FACE_BOUND('',#151,.T.);
#60=FACE_BOUND('',#152,.T.);
#61=FACE_BOUND('',#153,.T.);
#62=FACE_BOUND('',#154,.T.);
#63=FACE_BOUND('',#155,.T.);
#64=FACE_BOUND('',#156,.T.);
#65=FACE_BOUND('',#157,.T.);
#66=FACE_BOUND('',#158,.T.);
#67=FACE_BOUND('',#159,.T.);
#68=FACE_BOUND('',#164,.T.);
#69=FACE_BOUND('',#165,.T.);
#70=FACE_BOUND('',#166,.T.);
#71=FACE_BOUND('',#167,.T.);
#72=CYLINDRICAL_SURFACE('',#358,14.5);
#73=CYLINDRICAL_SURFACE('',#365,27.5);
#74=CYLINDRICAL_SURFACE('',#371,31.5);
#75=CYLINDRICAL_SURFACE('',#376,31.5);
#76=CYLINDRICAL_SURFACE('',#387,14.5);
#77=CONICAL_SURFACE('',#356,14.5,2.20000000000001);
#78=CONICAL_SURFACE('',#373,31.5,60.);
#79=CONICAL_SURFACE('',#380,28.8975952641916,60.0000000000003);
#80=CONICAL_SURFACE('',#388,14.5,2.20000000000001);
#81=CONICAL_SURFACE('',#392,24.215428458585,2.86810000000001);
#82=LINE('',#515,#92);
#83=LINE('',#517,#93);
#84=LINE('',#519,#94);
#85=LINE('',#523,#95);
#86=LINE('',#538,#96);
#87=LINE('',#543,#97);
#88=LINE('',#576,#98);
#89=LINE('',#579,#99);
#90=LINE('',#582,#100);
#91=LINE('',#584,#101);
#92=VECTOR('',#413,1.);
#93=VECTOR('',#416,1.);
#94=VECTOR('',#419,1.);
#95=VECTOR('',#422,1.);
#96=VECTOR('',#443,1.);
#97=VECTOR('',#446,1.);
#98=VECTOR('',#493,1.);
#99=VECTOR('',#494,1.);
#100=VECTOR('',#495,1.);
#101=VECTOR('',#496,1.);
#102=ADVANCED_FACE('',(#126),#122,.F.);
#103=ADVANCED_FACE('',(#127),#77,.T.);
#104=ADVANCED_FACE('',(#128),#72,.T.);
#105=ADVANCED_FACE('',(#46,#47),#123,.F.);
#106=ADVANCED_FACE('',(#48,#49),#124,.F.);
#107=ADVANCED_FACE('',(#50,#51),#73,.T.);
#108=ADVANCED_FACE('',(#129),#40,.T.);
#109=ADVANCED_FACE('',(#52,#53),#74,.T.);
#110=ADVANCED_FACE('',(#54,#55),#78,.T.);
#111=ADVANCED_FACE('',(#56,#57),#75,.T.);
#112=ADVANCED_FACE('',(#58,#59),#41,.T.);
#113=ADVANCED_FACE('',(#60,#61),#42,.T.);
#114=ADVANCED_FACE('',(#62,#63),#79,.T.);
#115=ADVANCED_FACE('',(#64,#65),#43,.T.);
#116=ADVANCED_FACE('',(#66,#67),#44,.T.);
#117=ADVANCED_FACE('',(#130),#76,.T.);
#118=ADVANCED_FACE('',(#131),#80,.T.);
#119=ADVANCED_FACE('',(#132),#125,.F.);
#120=ADVANCED_FACE('',(#133),#45,.T.);
#121=ADVANCED_FACE('',(#68,#69,#70,#71),#81,.T.);
#122=TOROIDAL_SURFACE('',#353,19.8869645068986,3.);
#123=TOROIDAL_SURFACE('',#361,28.,0.5);
#124=TOROIDAL_SURFACE('',#364,28.,0.5);
#125=TOROIDAL_SURFACE('',#389,19.8869645068986,3.);
#126=FACE_OUTER_BOUND('',#134,.T.);
#127=FACE_OUTER_BOUND('',#135,.T.);
#128=FACE_OUTER_BOUND('',#136,.T.);
#129=FACE_OUTER_BOUND('',#143,.T.);
#130=FACE_OUTER_BOUND('',#160,.T.);
#131=FACE_OUTER_BOUND('',#161,.T.);
#132=FACE_OUTER_BOUND('',#162,.T.);
#133=FACE_OUTER_BOUND('',#163,.T.);
#134=EDGE_LOOP('',(#168,#169,#170,#171));
#135=EDGE_LOOP('',(#172,#173,#174,#175));
#136=EDGE_LOOP('',(#176,#177,#178,#179));
#137=EDGE_LOOP('',(#180));
#138=EDGE_LOOP('',(#181));
#139=EDGE_LOOP('',(#182));
#140=EDGE_LOOP('',(#183));
#141=EDGE_LOOP('',(#184));
#142=EDGE_LOOP('',(#185));
#143=EDGE_LOOP('',(#186,#187));
#144=EDGE_LOOP('',(#188,#189,#190,#191,#192,#193));
#145=EDGE_LOOP('',(#194));
#146=EDGE_LOOP('',(#195));
#147=EDGE_LOOP('',(#196));
#148=EDGE_LOOP('',(#197));
#149=EDGE_LOOP('',(#198));
#150=EDGE_LOOP('',(#199));
#151=EDGE_LOOP('',(#200));
#152=EDGE_LOOP('',(#201));
#153=EDGE_LOOP('',(#202));
#154=EDGE_LOOP('',(#203));
#155=EDGE_LOOP('',(#204));
#156=EDGE_LOOP('',(#205));
#157=EDGE_LOOP('',(#206,#207));
#158=EDGE_LOOP('',(#208,#209));
#159=EDGE_LOOP('',(#210,#211));
#160=EDGE_LOOP('',(#212,#213,#214,#215));
#161=EDGE_LOOP('',(#216,#217,#218,#219));
#162=EDGE_LOOP('',(#220,#221,#222,#223));
#163=EDGE_LOOP('',(#224));
#164=EDGE_LOOP('',(#225,#226));
#165=EDGE_LOOP('',(#227));
#166=EDGE_LOOP('',(#228,#229));
#167=EDGE_LOOP('',(#230,#231,#232,#233,#234,#235));
#168=ORIENTED_EDGE('',*,*,#266,.F.);
#169=ORIENTED_EDGE('',*,*,#267,.F.);
#170=ORIENTED_EDGE('',*,*,#268,.F.);
#171=ORIENTED_EDGE('',*,*,#269,.T.);
#172=ORIENTED_EDGE('',*,*,#270,.T.);
#173=ORIENTED_EDGE('',*,*,#271,.F.);
#174=ORIENTED_EDGE('',*,*,#272,.T.);
#175=ORIENTED_EDGE('',*,*,#273,.T.);
#176=ORIENTED_EDGE('',*,*,#270,.F.);
#177=ORIENTED_EDGE('',*,*,#274,.F.);
#178=ORIENTED_EDGE('',*,*,#275,.F.);
#179=ORIENTED_EDGE('',*,*,#276,.T.);
#180=ORIENTED_EDGE('',*,*,#277,.F.);
#181=ORIENTED_EDGE('',*,*,#278,.F.);
#182=ORIENTED_EDGE('',*,*,#279,.F.);
#183=ORIENTED_EDGE('',*,*,#280,.F.);
#184=ORIENTED_EDGE('',*,*,#280,.T.);
#185=ORIENTED_EDGE('',*,*,#277,.T.);
#186=ORIENTED_EDGE('',*,*,#275,.T.);
#187=ORIENTED_EDGE('',*,*,#281,.T.);
#188=ORIENTED_EDGE('',*,*,#282,.F.);
#189=ORIENTED_EDGE('',*,*,#282,.T.);
#190=ORIENTED_EDGE('',*,*,#283,.F.);
#191=ORIENTED_EDGE('',*,*,#284,.F.);
#192=ORIENTED_EDGE('',*,*,#284,.T.);
#193=ORIENTED_EDGE('',*,*,#285,.F.);
#194=ORIENTED_EDGE('',*,*,#286,.T.);
#195=ORIENTED_EDGE('',*,*,#286,.F.);
#196=ORIENTED_EDGE('',*,*,#287,.T.);
#197=ORIENTED_EDGE('',*,*,#288,.F.);
#198=ORIENTED_EDGE('',*,*,#289,.F.);
#199=ORIENTED_EDGE('',*,*,#287,.F.);
#200=ORIENTED_EDGE('',*,*,#279,.T.);
#201=ORIENTED_EDGE('',*,*,#278,.T.);
#202=ORIENTED_EDGE('',*,*,#290,.T.);
#203=ORIENTED_EDGE('',*,*,#290,.F.);
#204=ORIENTED_EDGE('',*,*,#288,.T.);
#205=ORIENTED_EDGE('',*,*,#289,.T.);
#206=ORIENTED_EDGE('',*,*,#268,.T.);
#207=ORIENTED_EDGE('',*,*,#291,.T.);
#208=ORIENTED_EDGE('',*,*,#292,.F.);
#209=ORIENTED_EDGE('',*,*,#293,.F.);
#210=ORIENTED_EDGE('',*,*,#285,.T.);
#211=ORIENTED_EDGE('',*,*,#283,.T.);
#212=ORIENTED_EDGE('',*,*,#274,.T.);
#213=ORIENTED_EDGE('',*,*,#294,.F.);
#214=ORIENTED_EDGE('',*,*,#276,.F.);
#215=ORIENTED_EDGE('',*,*,#281,.F.);
#216=ORIENTED_EDGE('',*,*,#271,.T.);
#217=ORIENTED_EDGE('',*,*,#294,.T.);
#218=ORIENTED_EDGE('',*,*,#273,.F.);
#219=ORIENTED_EDGE('',*,*,#266,.T.);
#220=ORIENTED_EDGE('',*,*,#267,.T.);
#221=ORIENTED_EDGE('',*,*,#272,.F.);
#222=ORIENTED_EDGE('',*,*,#269,.F.);
#223=ORIENTED_EDGE('',*,*,#291,.F.);
#224=ORIENTED_EDGE('',*,*,#295,.T.);
#225=ORIENTED_EDGE('',*,*,#296,.T.);
#226=ORIENTED_EDGE('',*,*,#296,.F.);
#227=ORIENTED_EDGE('',*,*,#295,.F.);
#228=ORIENTED_EDGE('',*,*,#297,.F.);
#229=ORIENTED_EDGE('',*,*,#297,.T.);
#230=ORIENTED_EDGE('',*,*,#298,.T.);
#231=ORIENTED_EDGE('',*,*,#298,.F.);
#232=ORIENTED_EDGE('',*,*,#293,.T.);
#233=ORIENTED_EDGE('',*,*,#299,.F.);
#234=ORIENTED_EDGE('',*,*,#299,.T.);
#235=ORIENTED_EDGE('',*,*,#292,.T.);
#236=VERTEX_POINT('',#504);
#237=VERTEX_POINT('',#505);
#238=VERTEX_POINT('',#507);
#239=VERTEX_POINT('',#509);
#240=VERTEX_POINT('',#513);
#241=VERTEX_POINT('',#514);
#242=VERTEX_POINT('',#520);
#243=VERTEX_POINT('',#522);
#244=VERTEX_POINT('',#526);
#245=VERTEX_POINT('',#528);
#246=VERTEX_POINT('',#531);
#247=VERTEX_POINT('',#533);
#248=VERTEX_POINT('',#539);
#249=VERTEX_POINT('',#540);
#250=VERTEX_POINT('',#542);
#251=VERTEX_POINT('',#544);
#252=VERTEX_POINT('',#547);
#253=VERTEX_POINT('',#550);
#254=VERTEX_POINT('',#553);
#255=VERTEX_POINT('',#555);
#256=VERTEX_POINT('',#559);
#257=VERTEX_POINT('',#565);
#258=VERTEX_POINT('',#566);
#259=VERTEX_POINT('',#574);
#260=VERTEX_POINT('',#577);
#261=VERTEX_POINT('',#578);
#262=VERTEX_POINT('',#580);
#263=VERTEX_POINT('',#581);
#264=VERTEX_POINT('',#583);
#265=VERTEX_POINT('',#585);
#266=EDGE_CURVE('',#236,#237,#300,.T.);
#267=EDGE_CURVE('',#238,#236,#301,.T.);
#268=EDGE_CURVE('',#239,#238,#302,.T.);
#269=EDGE_CURVE('',#239,#237,#303,.T.);
#270=EDGE_CURVE('',#240,#241,#304,.T.);
#271=EDGE_CURVE('',#237,#241,#82,.T.);
#272=EDGE_CURVE('',#237,#236,#305,.T.);
#273=EDGE_CURVE('',#236,#240,#83,.T.);
#274=EDGE_CURVE('',#242,#240,#84,.T.);
#275=EDGE_CURVE('',#243,#242,#306,.T.);
#276=EDGE_CURVE('',#243,#241,#85,.T.);
#277=EDGE_CURVE('',#244,#244,#307,.T.);
#278=EDGE_CURVE('',#245,#245,#308,.T.);
#279=EDGE_CURVE('',#246,#246,#309,.T.);
#280=EDGE_CURVE('',#247,#247,#310,.T.);
#281=EDGE_CURVE('',#242,#243,#311,.T.);
#282=EDGE_CURVE('',#248,#249,#86,.T.);
#283=EDGE_CURVE('',#250,#249,#312,.T.);
#284=EDGE_CURVE('',#251,#250,#87,.T.);
#285=EDGE_CURVE('',#249,#250,#313,.T.);
#286=EDGE_CURVE('',#252,#252,#314,.T.);
#287=EDGE_CURVE('',#253,#253,#315,.T.);
#288=EDGE_CURVE('',#254,#254,#316,.T.);
#289=EDGE_CURVE('',#255,#255,#317,.T.);
#290=EDGE_CURVE('',#256,#256,#318,.T.);
#291=EDGE_CURVE('',#238,#239,#319,.T.);
#292=EDGE_CURVE('',#257,#258,#320,.T.);
#293=EDGE_CURVE('',#258,#257,#321,.T.);
#294=EDGE_CURVE('',#241,#240,#322,.T.);
#295=EDGE_CURVE('',#259,#259,#323,.T.);
#296=EDGE_CURVE('',#260,#261,#88,.T.);
#297=EDGE_CURVE('',#262,#263,#89,.T.);
#298=EDGE_CURVE('',#258,#264,#90,.T.);
#299=EDGE_CURVE('',#265,#257,#91,.T.);
#300=CIRCLE('',#349,16.8891757576667);
#301=CIRCLE('',#350,3.);
#302=CIRCLE('',#351,19.8869645068986);
#303=CIRCLE('',#352,3.);
#304=CIRCLE('',#354,14.5);
#305=CIRCLE('',#355,16.8891757576667);
#306=CIRCLE('',#357,14.5);
#307=CIRCLE('',#359,27.5);
#308=CIRCLE('',#360,28.);
#309=CIRCLE('',#362,28.);
#310=CIRCLE('',#363,27.5);
#311=CIRCLE('',#366,14.5);
#312=CIRCLE('',#368,31.5);
#313=CIRCLE('',#369,31.5);
#314=CIRCLE('',#370,31.5);
#315=CIRCLE('',#372,28.8975952641916);
#316=CIRCLE('',#374,31.5);
#317=CIRCLE('',#375,31.5);
#318=CIRCLE('',#378,28.8975952641916);
#319=CIRCLE('',#381,19.8869645068986);
#320=CIRCLE('',#383,24.3156277416478);
#321=CIRCLE('',#384,24.3156277416478);
#322=CIRCLE('',#386,14.5);
#323=CIRCLE('',#390,22.7124392126429);
#324=INVISIBILITY((#325,#326,#327,#328));
#325=PRESENTATION_LAYER_ASSIGNMENT('100','Layer 100',(#346));
#326=PRESENTATION_LAYER_ASSIGNMENT('101','Layer 101',(#347));
#327=PRESENTATION_LAYER_ASSIGNMENT('102','Layer 102',(#348));
#328=PRESENTATION_LAYER_ASSIGNMENT('98','Layer 98',(#38));
#329=STYLED_ITEM('',(#333),#346);
#330=STYLED_ITEM('',(#334),#347);
#331=STYLED_ITEM('',(#335),#348);
#332=STYLED_ITEM('',(#336),#38);
#333=PRESENTATION_STYLE_ASSIGNMENT((#337));
#334=PRESENTATION_STYLE_ASSIGNMENT((#338));
#335=PRESENTATION_STYLE_ASSIGNMENT((#339));
#336=PRESENTATION_STYLE_ASSIGNMENT((#33));
#337=CURVE_STYLE('',#342,POSITIVE_LENGTH_MEASURE(0.7),#340);
#338=CURVE_STYLE('',#343,POSITIVE_LENGTH_MEASURE(0.7),#340);
#339=CURVE_STYLE('',#344,POSITIVE_LENGTH_MEASURE(0.7),#340);
#340=COLOUR_RGB('Medium Maroon',0.6,0.4,0.4);
#341=COLOUR_RGB('Medium Gray',0.490196078431373,0.490196078431373,0.490196078431373);
#342=DRAUGHTING_PRE_DEFINED_CURVE_FONT('continuous');
#343=DRAUGHTING_PRE_DEFINED_CURVE_FONT('continuous');
#344=DRAUGHTING_PRE_DEFINED_CURVE_FONT('continuous');
#345=AXIS2_PLACEMENT_3D('',#499,#393,#394);
#346=AXIS2_PLACEMENT_3D('PCS',#500,#395,#396);
#347=AXIS2_PLACEMENT_3D('CSW',#501,#397,#398);
#348=AXIS2_PLACEMENT_3D('MCS',#502,#399,#400);
#349=AXIS2_PLACEMENT_3D('',#503,#401,#402);
#350=AXIS2_PLACEMENT_3D('',#506,#403,#404);
#351=AXIS2_PLACEMENT_3D('',#508,#405,#406);
#352=AXIS2_PLACEMENT_3D('',#510,#407,#408);
#353=AXIS2_PLACEMENT_3D('',#511,#409,#410);
#354=AXIS2_PLACEMENT_3D('',#512,#411,#412);
#355=AXIS2_PLACEMENT_3D('',#516,#414,#415);
#356=AXIS2_PLACEMENT_3D('',#518,#417,#418);
#357=AXIS2_PLACEMENT_3D('',#521,#420,#421);
#358=AXIS2_PLACEMENT_3D('',#524,#423,#424);
#359=AXIS2_PLACEMENT_3D('',#525,#425,#426);
#360=AXIS2_PLACEMENT_3D('',#527,#427,#428);
#361=AXIS2_PLACEMENT_3D('',#529,#429,#430);
#362=AXIS2_PLACEMENT_3D('',#530,#431,#432);
#363=AXIS2_PLACEMENT_3D('',#532,#433,#434);
#364=AXIS2_PLACEMENT_3D('',#534,#435,#436);
#365=AXIS2_PLACEMENT_3D('',#535,#437,#438);
#366=AXIS2_PLACEMENT_3D('',#536,#439,#440);
#367=AXIS2_PLACEMENT_3D('',#537,#441,#442);
#368=AXIS2_PLACEMENT_3D('',#541,#444,#445);
#369=AXIS2_PLACEMENT_3D('',#545,#447,#448);
#370=AXIS2_PLACEMENT_3D('',#546,#449,#450);
#371=AXIS2_PLACEMENT_3D('',#548,#451,#452);
#372=AXIS2_PLACEMENT_3D('',#549,#453,#454);
#373=AXIS2_PLACEMENT_3D('',#551,#455,#456);
#374=AXIS2_PLACEMENT_3D('',#552,#457,#458);
#375=AXIS2_PLACEMENT_3D('',#554,#459,#460);
#376=AXIS2_PLACEMENT_3D('',#556,#461,#462);
#377=AXIS2_PLACEMENT_3D('',#557,#463,#464);
#378=AXIS2_PLACEMENT_3D('',#558,#465,#466);
#379=AXIS2_PLACEMENT_3D('',#560,#467,#468);
#380=AXIS2_PLACEMENT_3D('',#561,#469,#470);
#381=AXIS2_PLACEMENT_3D('',#562,#471,#472);
#382=AXIS2_PLACEMENT_3D('',#563,#473,#474);
#383=AXIS2_PLACEMENT_3D('',#564,#475,#476);
#384=AXIS2_PLACEMENT_3D('',#567,#477,#478);
#385=AXIS2_PLACEMENT_3D('',#568,#479,#480);
#386=AXIS2_PLACEMENT_3D('',#569,#481,#482);
#387=AXIS2_PLACEMENT_3D('',#570,#483,#484);
#388=AXIS2_PLACEMENT_3D('',#571,#485,#486);
#389=AXIS2_PLACEMENT_3D('',#572,#487,#488);
#390=AXIS2_PLACEMENT_3D('',#573,#489,#490);
#391=AXIS2_PLACEMENT_3D('',#575,#491,#492);
#392=AXIS2_PLACEMENT_3D('',#586,#497,#498);
#393=DIRECTION('',(0.,0.,1.));
#394=DIRECTION('',(1.,0.,0.));
#395=DIRECTION('',(0.,0.,1.));
#396=DIRECTION('',(1.,0.,0.));
#397=DIRECTION('',(0.,0.,1.));
#398=DIRECTION('',(1.,0.,0.));
#399=DIRECTION('',(0.,0.,1.));
#400=DIRECTION('',(1.,0.,0.));
#401=DIRECTION('',(0.,0.,-1.));
#402=DIRECTION('',(-1.,0.,0.));
#403=DIRECTION('',(-1.22464679914735E-16,1.,0.));
#404=DIRECTION('',(-1.,-1.22464679914735E-16,0.));
#405=DIRECTION('',(0.,0.,1.));
#406=DIRECTION('',(1.,0.,0.));
#407=DIRECTION('',(0.,-1.,0.));
#408=DIRECTION('',(1.,0.,0.));
#409=DIRECTION('',(0.,0.,-1.));
#410=DIRECTION('',(-1.,0.,0.));
#411=DIRECTION('',(0.,0.,1.));
#412=DIRECTION('',(1.,0.,0.));
#413=DIRECTION('',(-0.03838780908752,4.70115075253111E-18,-0.999262916410621));
#414=DIRECTION('',(0.,0.,-1.));
#415=DIRECTION('',(-1.,0.,0.));
#416=DIRECTION('',(0.03838780908752,0.,-0.999262916410621));
#417=DIRECTION('',(0.,0.,1.));
#418=DIRECTION('',(1.,0.,-5.24520184058152E-16));
#419=DIRECTION('',(0.,0.,1.));
#420=DIRECTION('',(0.,0.,-1.));
#421=DIRECTION('',(-1.,0.,0.));
#422=DIRECTION('',(0.,0.,1.));
#423=DIRECTION('',(0.,0.,-1.));
#424=DIRECTION('',(-1.,0.,0.));
#425=DIRECTION('',(0.,0.,1.));
#426=DIRECTION('',(-1.,0.,0.));
#427=DIRECTION('',(0.,0.,-1.));
#428=DIRECTION('',(-1.,0.,0.));
#429=DIRECTION('',(0.,0.,1.));
#430=DIRECTION('',(1.,0.,0.));
#431=DIRECTION('',(0.,0.,1.));
#432=DIRECTION('',(1.,0.,0.));
#433=DIRECTION('',(0.,0.,-1.));
#434=DIRECTION('',(1.,0.,0.));
#435=DIRECTION('',(0.,0.,-1.));
#436=DIRECTION('',(-1.,0.,0.));
#437=DIRECTION('',(0.,0.,1.));
#438=DIRECTION('',(1.,0.,0.));
#439=DIRECTION('',(0.,0.,-1.));
#440=DIRECTION('',(-1.,0.,0.));
#441=DIRECTION('',(0.,0.,-1.));
#442=DIRECTION('',(-1.,0.,0.));
#443=DIRECTION('',(0.,0.,1.));
#444=DIRECTION('',(0.,0.,1.));
#445=DIRECTION('',(1.,0.,0.));
#446=DIRECTION('',(0.,0.,1.));
#447=DIRECTION('',(0.,0.,1.));
#448=DIRECTION('',(1.,0.,0.));
#449=DIRECTION('',(0.,0.,1.));
#450=DIRECTION('',(-1.,0.,0.));
#451=DIRECTION('',(0.,0.,-1.));
#452=DIRECTION('',(-1.,0.,0.));
#453=DIRECTION('',(0.,0.,1.));
#454=DIRECTION('',(-1.,0.,0.));
#455=DIRECTION('',(0.,0.,1.));
#456=DIRECTION('',(1.,0.,1.96730762565122E-17));
#457=DIRECTION('',(0.,0.,1.));
#458=DIRECTION('',(-1.,0.,0.));
#459=DIRECTION('',(0.,0.,-1.));
#460=DIRECTION('',(-1.,0.,0.));
#461=DIRECTION('',(0.,0.,-1.));
#462=DIRECTION('',(-1.,0.,0.));
#463=DIRECTION('',(0.,0.,-1.));
#464=DIRECTION('',(-1.,0.,0.));
#465=DIRECTION('',(0.,0.,1.));
#466=DIRECTION('',(-1.,0.,0.));
#467=DIRECTION('',(0.,0.,1.));
#468=DIRECTION('',(1.,0.,0.));
#469=DIRECTION('',(0.,0.,-1.));
#470=DIRECTION('',(-1.,0.,-5.51660199120036E-17));
#471=DIRECTION('',(0.,0.,1.));
#472=DIRECTION('',(1.,0.,0.));
#473=DIRECTION('',(0.,0.,-1.));
#474=DIRECTION('',(-1.,0.,0.));
#475=DIRECTION('',(0.,0.,1.));
#476=DIRECTION('',(1.,0.,0.));
#477=DIRECTION('',(0.,0.,1.));
#478=DIRECTION('',(1.,0.,0.));
#479=DIRECTION('',(0.,0.,1.));
#480=DIRECTION('',(1.,0.,0.));
#481=DIRECTION('',(0.,0.,1.));
#482=DIRECTION('',(1.,0.,0.));
#483=DIRECTION('',(0.,0.,-1.));
#484=DIRECTION('',(-1.,0.,0.));
#485=DIRECTION('',(0.,0.,1.));
#486=DIRECTION('',(1.,0.,-5.24520184058152E-16));
#487=DIRECTION('',(0.,0.,-1.));
#488=DIRECTION('',(-1.,0.,0.));
#489=DIRECTION('',(0.,0.,1.));
#490=DIRECTION('',(1.,0.,0.));
#491=DIRECTION('',(0.,0.,1.));
#492=DIRECTION('',(1.,0.,0.));
#493=DIRECTION('',(-0.0500368852433456,0.,0.998747370517262));
#494=DIRECTION('',(-0.0500368852433456,-6.12775113525666E-18,-0.998747370517262));
#495=DIRECTION('',(0.0500368852433456,6.12775113525666E-18,0.998747370517262));
#496=DIRECTION('',(0.0500368852433456,0.,-0.998747370517262));
#497=DIRECTION('',(0.,0.,-1.));
#498=DIRECTION('',(-1.,0.,-9.33712893608539E-17));
#499=CARTESIAN_POINT('',(0.,0.,0.));
#500=CARTESIAN_POINT('',(0.,0.,0.));
#501=CARTESIAN_POINT('',(0.,0.,-101.));
#502=CARTESIAN_POINT('',(0.,0.,0.));
#503=CARTESIAN_POINT('',(-4.54842345594506E-14,-5.52202633654708E-30,-28.8848365727374));
#504=CARTESIAN_POINT('',(-16.8891757576668,-5.52202633654708E-30,-28.8848365727374));
#505=CARTESIAN_POINT('',(16.8891757576667,-2.06832750318637E-15,-28.8848365727374));
#506=CARTESIAN_POINT('',(-19.8869645068986,-2.43545074281304E-15,-29.));
#507=CARTESIAN_POINT('',(-19.8869645068986,-2.43545074281304E-15,-26.));
#508=CARTESIAN_POINT('',(-4.54842345594506E-14,-5.52202633654708E-30,-26.));
#509=CARTESIAN_POINT('',(19.8869645068985,-5.52202633654708E-30,-26.));
#510=CARTESIAN_POINT('',(19.8869645068985,-5.52202633654708E-30,-29.));
#511=CARTESIAN_POINT('',(-4.54842345594506E-14,-5.52202633654708E-30,-29.));
#512=CARTESIAN_POINT('',(-4.54842345594506E-14,-5.52202633654708E-30,-91.0768395073296));
#513=CARTESIAN_POINT('',(-14.5,-8.87868929381836E-16,-91.0768395073296));
#514=CARTESIAN_POINT('',(14.4999999999999,-8.87868929381836E-16,-91.0768395073296));
#515=CARTESIAN_POINT('',(14.4999999999999,-1.77573785876367E-15,-91.0768395073296));
#516=CARTESIAN_POINT('',(-4.54842345594506E-14,-5.52202633654708E-30,-28.8848365727374));
#517=CARTESIAN_POINT('',(-14.5,-5.52202633654708E-30,-91.0768395073296));
#518=CARTESIAN_POINT('',(-4.54842345594506E-14,-5.52202633654708E-30,-91.0768395073296));
#519=CARTESIAN_POINT('',(-14.5,-1.77573785876367E-15,-137.483449245118));
#520=CARTESIAN_POINT('',(-14.5,-1.77573785876367E-15,-101.));
#521=CARTESIAN_POINT('',(-4.54842345594506E-14,-5.52202633654708E-30,-101.));
#522=CARTESIAN_POINT('',(14.4999999999999,-5.52202633654708E-30,-101.));
#523=CARTESIAN_POINT('',(14.4999999999999,-5.52202633654708E-30,-137.483449245118));
#524=CARTESIAN_POINT('',(-4.54842345594506E-14,-5.52202633654708E-30,-137.483449245118));
#525=CARTESIAN_POINT('',(-4.54842345594506E-14,-5.52202633654708E-30,-19.375));
#526=CARTESIAN_POINT('',(-27.5,-5.52202633654708E-30,-19.375));
#527=CARTESIAN_POINT('',(-4.54842345594506E-14,-5.52202633654708E-30,-19.875));
#528=CARTESIAN_POINT('',(-28.,-5.52202633654708E-30,-19.875));
#529=CARTESIAN_POINT('',(-4.54842345594506E-14,-5.52202633654708E-30,-19.375));
#530=CARTESIAN_POINT('',(-4.54842345594506E-14,-5.52202633654708E-30,-16.125));
#531=CARTESIAN_POINT('',(28.,-5.52202633654708E-30,-16.125));
#532=CARTESIAN_POINT('',(-4.54842345594506E-14,-5.52202633654708E-30,-16.625));
#533=CARTESIAN_POINT('',(27.5,-5.52202633654708E-30,-16.625));
#534=CARTESIAN_POINT('',(-4.54842345594506E-14,-5.52202633654708E-30,-16.625));
#535=CARTESIAN_POINT('',(-4.54842345594506E-14,-5.52202633654708E-30,6.93889390390723E-15));
#536=CARTESIAN_POINT('',(-4.54842345594506E-14,-5.52202633654708E-30,-101.));
#537=CARTESIAN_POINT('',(-4.54842345594506E-14,-14.5,-101.));
#538=CARTESIAN_POINT('',(-31.5,-3.85763741731417E-15,-137.483449245118));
#539=CARTESIAN_POINT('',(-31.5,9.29206601754586E-14,-3.80000052996435));
#540=CARTESIAN_POINT('',(-31.5,-3.85763741731417E-15,0.));
#541=CARTESIAN_POINT('',(-4.54842345594506E-14,-5.52202633654708E-30,0.));
#542=CARTESIAN_POINT('',(31.4999999999999,-5.52202633654708E-30,0.));
#543=CARTESIAN_POINT('',(31.4999999999999,-5.52202633654708E-30,-137.483449245118));
#544=CARTESIAN_POINT('',(31.4999999999999,-5.57771195766962E-16,-3.80000029824117));
#545=CARTESIAN_POINT('',(-4.54842345594506E-14,-5.52202633654708E-30,0.));
#546=CARTESIAN_POINT('',(-4.54842345594506E-14,-5.52202633654708E-30,-14.6225009252407));
#547=CARTESIAN_POINT('',(-31.5,-5.52202633654708E-30,-14.6225009252407));
#548=CARTESIAN_POINT('',(-4.54842345594506E-14,-5.52202633654708E-30,-137.483449245118));
#549=CARTESIAN_POINT('',(-4.54842345594506E-14,-5.52202633654708E-30,-16.125));
#550=CARTESIAN_POINT('',(-28.8975952641917,-5.52202633654708E-30,-16.125));
#551=CARTESIAN_POINT('',(-4.54842345594506E-14,-5.52202633654708E-30,-14.6225009252407));
#552=CARTESIAN_POINT('',(-4.54842345594506E-14,-5.52202633654708E-30,-21.3774990747593));
#553=CARTESIAN_POINT('',(-31.5,-5.52202633654708E-30,-21.3774990747593));
#554=CARTESIAN_POINT('',(-4.54842345594506E-14,-5.52202633654708E-30,-26.));
#555=CARTESIAN_POINT('',(-31.5,-5.52202633654708E-30,-26.));
#556=CARTESIAN_POINT('',(-4.54842345594506E-14,-5.52202633654708E-30,-137.483449245118));
#557=CARTESIAN_POINT('',(-4.54842345594506E-14,-28.8975952641916,-16.125));
#558=CARTESIAN_POINT('',(-4.54842345594506E-14,-5.52202633654708E-30,-19.875));
#559=CARTESIAN_POINT('',(-28.8975952641917,-5.52202633654708E-30,-19.875));
#560=CARTESIAN_POINT('',(-4.54842345594506E-14,-27.5,-19.875));
#561=CARTESIAN_POINT('',(-4.54842345594506E-14,-5.52202633654708E-30,-19.875));
#562=CARTESIAN_POINT('',(-4.54842345594506E-14,-5.52202633654708E-30,-26.));
#563=CARTESIAN_POINT('',(-4.54842345594506E-14,-31.5,-26.));
#564=CARTESIAN_POINT('',(-4.54842345594506E-14,-5.52202633654708E-30,6.93889390390723E-15));
#565=CARTESIAN_POINT('',(24.3156277416478,-5.52202633654708E-30,6.93889390390723E-15));
#566=CARTESIAN_POINT('',(-24.3156277416479,-5.52202633654708E-30,6.93889390390723E-15));
#567=CARTESIAN_POINT('',(-4.54842345594506E-14,-5.52202633654708E-30,6.93889390390723E-15));
#568=CARTESIAN_POINT('',(-4.54842345594506E-14,-25.3689215179895,6.93889390390723E-15));
#569=CARTESIAN_POINT('',(-4.54842345594506E-14,-5.52202633654708E-30,-91.0768395073296));
#570=CARTESIAN_POINT('',(-4.54842345594506E-14,-5.52202633654708E-30,-137.483449245118));
#571=CARTESIAN_POINT('',(-4.54842345594506E-14,-5.52202633654708E-30,-91.0768395073296));
#572=CARTESIAN_POINT('',(-4.54842345594506E-14,-5.52202633654708E-30,-29.));
#573=CARTESIAN_POINT('',(-4.54842345594506E-14,-5.52202633654708E-30,32.));
#574=CARTESIAN_POINT('',(22.7124392126429,-5.52202633654708E-30,32.));
#575=CARTESIAN_POINT('',(-4.54842345594506E-14,1.59445180865035E-14,32.));
#576=CARTESIAN_POINT('',(24.215428458585,-5.52202633654708E-30,2.00000000000001));
#577=CARTESIAN_POINT('',(23.6541363759516,4.25210509743925E-15,13.203514944943));
#578=CARTESIAN_POINT('',(23.2134356279569,-5.52202633654708E-30,22.));
#579=CARTESIAN_POINT('',(-24.2154284585851,-2.96553469517879E-15,2.00000000000001));
#580=CARTESIAN_POINT('',(-23.0130370618314,-2.81828421764312E-15,26.));
#581=CARTESIAN_POINT('',(-23.654136375894,-1.71763564668711E-13,13.2035149460956));
#582=CARTESIAN_POINT('',(-24.2154284585851,-2.96553469517879E-15,2.00000000000001));
#583=CARTESIAN_POINT('',(-24.0735223585634,-2.43697752527248E-13,4.83247735281103));
#584=CARTESIAN_POINT('',(24.215428458585,-5.52202633654708E-30,2.00000000000001));
#585=CARTESIAN_POINT('',(24.0735223605089,-8.25714230817537E-10,4.83247731397712));
#586=CARTESIAN_POINT('',(-4.54842345594506E-14,-5.52202633654708E-30,2.00000000000001));
#587=MECHANICAL_DESIGN_GEOMETRIC_PRESENTATION_REPRESENTATION('',(#329,#330,
#331,#332),#588);
#588=(
GEOMETRIC_REPRESENTATION_CONTEXT(3)
GLOBAL_UNCERTAINTY_ASSIGNED_CONTEXT((#589))
GLOBAL_UNIT_ASSIGNED_CONTEXT((#595,#591,#590))
REPRESENTATION_CONTEXT('HSK.63A-IHA.M16','TOP_LEVEL_ASSEMBLY_PART')
);
#589=UNCERTAINTY_MEASURE_WITH_UNIT(LENGTH_MEASURE(2.E-5),#595,
'DISTANCE_ACCURACY_VALUE','Maximum Tolerance applied to model');
#590=(
NAMED_UNIT(*)
SI_UNIT($,.STERADIAN.)
SOLID_ANGLE_UNIT()
);
#591=(
CONVERSION_BASED_UNIT('DEGREE',#593)
NAMED_UNIT(#592)
PLANE_ANGLE_UNIT()
);
#592=DIMENSIONAL_EXPONENTS(0.,0.,0.,0.,0.,0.,0.);
#593=PLANE_ANGLE_MEASURE_WITH_UNIT(PLANE_ANGLE_MEASURE(0.0174532925),#594);
#594=(
NAMED_UNIT(*)
PLANE_ANGLE_UNIT()
SI_UNIT($,.RADIAN.)
);
#595=(
LENGTH_UNIT()
NAMED_UNIT(*)
SI_UNIT(.MILLI.,.METRE.)
);
ENDSEC;
END-ISO-10303-21;
