ISO-10303-21;
HEADER;
/* Generated by software containing ST-Developer
 * from STEP Tools, Inc. (www.steptools.com) 
 */
/* OPTION: using custom schema-name function */

FILE_DESCRIPTION(
/* description */ (''),
/* implementation_level */ '2;1');

FILE_NAME(
/* name */ 'HSK.63A-FMH2.16.100.stp',
/* time_stamp */ '2024-07-21T11:39:15+02:00',
/* author */ (''),
/* organization */ (''),
/* preprocessor_version */ 'ST-DEVELOPER v16.7',
/* originating_system */ 'SIEMENS PLM Software NX 12.0',
/* authorisation */ '');

FILE_SCHEMA (('AUTOMOTIVE_DESIGN { 1 0 10303 214 3 1 1 1 }'));
ENDSEC;

DATA;
#10=CONSTRUCTIVE_GEOMETRY_REPRESENTATION_RELATIONSHIP(
'supplemental geometry','',#32,#11);
#11=CONSTRUCTIVE_GEOMETRY_REPRESENTATION('supplemental geometry',(#368,
#369,#370),#624);
#12=PROPERTY_DEFINITION_REPRESENTATION(#16,#14);
#13=PROPERTY_DEFINITION_REPRESENTATION(#17,#15);
#14=REPRESENTATION('',(#18),#624);
#15=REPRESENTATION('',(#19),#624);
#16=PROPERTY_DEFINITION('pmi validation property','',#23);
#17=PROPERTY_DEFINITION('pmi validation property','',#23);
#18=VALUE_REPRESENTATION_ITEM('number of annotations',COUNT_MEASURE(0.));
#19=VALUE_REPRESENTATION_ITEM('number of views',COUNT_MEASURE(0.));
#20=SHAPE_REPRESENTATION_RELATIONSHIP('None',
'relationship between pf6612088076yohj-None and pf6612088076yohj-None',
#32,#21);
#21=ADVANCED_BREP_SHAPE_REPRESENTATION('pf6612088076yohj-None',(#38),#624);
#22=SHAPE_DEFINITION_REPRESENTATION(#23,#32);
#23=PRODUCT_DEFINITION_SHAPE('','',#24);
#24=PRODUCT_DEFINITION(' ','',#26,#25);
#25=PRODUCT_DEFINITION_CONTEXT('part definition',#31,'design');
#26=PRODUCT_DEFINITION_FORMATION_WITH_SPECIFIED_SOURCE(' ',' ',#28,
 .NOT_KNOWN.);
#27=PRODUCT_RELATED_PRODUCT_CATEGORY('part','',(#28));
#28=PRODUCT('pf6612088076yohj','pf6612088076yohj',' ',(#29));
#29=PRODUCT_CONTEXT(' ',#31,'mechanical');
#30=APPLICATION_PROTOCOL_DEFINITION('international standard',
'automotive_design',2010,#31);
#31=APPLICATION_CONTEXT(
'core data for automotive mechanical design processes');
#32=SHAPE_REPRESENTATION('pf6612088076yohj-None',(#367),#624);
#33=SURFACE_STYLE_USAGE(.BOTH.,#34);
#34=SURFACE_SIDE_STYLE('',(#35));
#35=SURFACE_STYLE_FILL_AREA(#36);
#36=FILL_AREA_STYLE('',(#37));
#37=FILL_AREA_STYLE_COLOUR('',#363);
#38=MANIFOLD_SOLID_BREP('\X\B0\X2\014100AE0106\X0\-\X\B1\X2\017000C20154\X0\8',
#39);
#39=CLOSED_SHELL('',(#107,#108,#109,#110,#111,#112,#113,#114,#115,#116,
#117,#118,#119,#120,#121,#122,#123,#124,#125));
#40=CONICAL_SURFACE('',#388,31.5,60.);
#41=CONICAL_SURFACE('',#402,28.8975952641916,60.0000000000003);
#42=CONICAL_SURFACE('',#415,24.215428458585,2.86810000000001);
#43=PLANE('',#386);
#44=PLANE('',#390);
#45=PLANE('',#396);
#46=PLANE('',#401);
#47=PLANE('',#407);
#48=PLANE('',#411);
#49=PLANE('',#414);
#50=CYLINDRICAL_SURFACE('',#379,31.5);
#51=CYLINDRICAL_SURFACE('',#383,16.);
#52=CYLINDRICAL_SURFACE('',#393,27.5);
#53=CYLINDRICAL_SURFACE('',#399,31.5);
#54=CYLINDRICAL_SURFACE('',#412,8.);
#55=LINE('',#541,#67);
#56=LINE('',#546,#68);
#57=LINE('',#553,#69);
#58=LINE('',#555,#70);
#59=LINE('',#558,#71);
#60=LINE('',#603,#72);
#61=LINE('',#605,#73);
#62=LINE('',#606,#74);
#63=LINE('',#612,#75);
#64=LINE('',#614,#76);
#65=LINE('',#616,#77);
#66=LINE('',#619,#78);
#67=VECTOR('',#436,1.);
#68=VECTOR('',#439,1.);
#69=VECTOR('',#446,1.);
#70=VECTOR('',#449,1.);
#71=VECTOR('',#452,1.);
#72=VECTOR('',#511,1.);
#73=VECTOR('',#512,1.);
#74=VECTOR('',#513,1.);
#75=VECTOR('',#520,1.);
#76=VECTOR('',#521,1.);
#77=VECTOR('',#522,1.);
#78=VECTOR('',#523,1.);
#79=FACE_BOUND('',#137,.T.);
#80=FACE_BOUND('',#138,.T.);
#81=FACE_BOUND('',#140,.T.);
#82=FACE_BOUND('',#141,.T.);
#83=FACE_BOUND('',#142,.T.);
#84=FACE_BOUND('',#143,.T.);
#85=FACE_BOUND('',#144,.T.);
#86=FACE_BOUND('',#145,.T.);
#87=FACE_BOUND('',#146,.T.);
#88=FACE_BOUND('',#147,.T.);
#89=FACE_BOUND('',#148,.T.);
#90=FACE_BOUND('',#149,.T.);
#91=FACE_BOUND('',#150,.T.);
#92=FACE_BOUND('',#151,.T.);
#93=FACE_BOUND('',#152,.T.);
#94=FACE_BOUND('',#153,.T.);
#95=FACE_BOUND('',#154,.T.);
#96=FACE_BOUND('',#155,.T.);
#97=FACE_BOUND('',#156,.T.);
#98=FACE_BOUND('',#157,.T.);
#99=FACE_BOUND('',#158,.T.);
#100=FACE_BOUND('',#159,.T.);
#101=FACE_BOUND('',#160,.T.);
#102=FACE_BOUND('',#161,.T.);
#103=FACE_BOUND('',#166,.T.);
#104=FACE_BOUND('',#167,.T.);
#105=FACE_BOUND('',#168,.T.);
#106=FACE_BOUND('',#169,.T.);
#107=ADVANCED_FACE('',(#130),#126,.F.);
#108=ADVANCED_FACE('',(#79,#80),#50,.T.);
#109=ADVANCED_FACE('',(#131),#51,.T.);
#110=ADVANCED_FACE('',(#81,#82),#43,.T.);
#111=ADVANCED_FACE('',(#83,#84),#40,.T.);
#112=ADVANCED_FACE('',(#85,#86),#44,.T.);
#113=ADVANCED_FACE('',(#87,#88),#52,.T.);
#114=ADVANCED_FACE('',(#89,#90),#45,.T.);
#115=ADVANCED_FACE('',(#91,#92),#53,.T.);
#116=ADVANCED_FACE('',(#93,#94),#46,.T.);
#117=ADVANCED_FACE('',(#95,#96),#41,.T.);
#118=ADVANCED_FACE('',(#97,#98),#127,.F.);
#119=ADVANCED_FACE('',(#99,#100),#128,.F.);
#120=ADVANCED_FACE('',(#101,#102),#47,.T.);
#121=ADVANCED_FACE('',(#132),#129,.F.);
#122=ADVANCED_FACE('',(#133),#48,.T.);
#123=ADVANCED_FACE('',(#134),#54,.T.);
#124=ADVANCED_FACE('',(#135),#49,.T.);
#125=ADVANCED_FACE('',(#103,#104,#105,#106),#42,.T.);
#126=TOROIDAL_SURFACE('',#375,21.,5.);
#127=TOROIDAL_SURFACE('',#403,28.,0.5);
#128=TOROIDAL_SURFACE('',#404,28.,0.5);
#129=TOROIDAL_SURFACE('',#408,21.,5.);
#130=FACE_OUTER_BOUND('',#136,.T.);
#131=FACE_OUTER_BOUND('',#139,.T.);
#132=FACE_OUTER_BOUND('',#162,.T.);
#133=FACE_OUTER_BOUND('',#163,.T.);
#134=FACE_OUTER_BOUND('',#164,.T.);
#135=FACE_OUTER_BOUND('',#165,.T.);
#136=EDGE_LOOP('',(#170,#171,#172,#173));
#137=EDGE_LOOP('',(#174));
#138=EDGE_LOOP('',(#175,#176,#177,#178,#179,#180));
#139=EDGE_LOOP('',(#181,#182,#183,#184,#185,#186,#187,#188,#189,#190));
#140=EDGE_LOOP('',(#191,#192));
#141=EDGE_LOOP('',(#193,#194));
#142=EDGE_LOOP('',(#195));
#143=EDGE_LOOP('',(#196));
#144=EDGE_LOOP('',(#197));
#145=EDGE_LOOP('',(#198));
#146=EDGE_LOOP('',(#199));
#147=EDGE_LOOP('',(#200));
#148=EDGE_LOOP('',(#201));
#149=EDGE_LOOP('',(#202));
#150=EDGE_LOOP('',(#203));
#151=EDGE_LOOP('',(#204));
#152=EDGE_LOOP('',(#205));
#153=EDGE_LOOP('',(#206,#207));
#154=EDGE_LOOP('',(#208));
#155=EDGE_LOOP('',(#209));
#156=EDGE_LOOP('',(#210));
#157=EDGE_LOOP('',(#211));
#158=EDGE_LOOP('',(#212));
#159=EDGE_LOOP('',(#213));
#160=EDGE_LOOP('',(#214,#215));
#161=EDGE_LOOP('',(#216,#217));
#162=EDGE_LOOP('',(#218,#219,#220,#221));
#163=EDGE_LOOP('',(#222,#223));
#164=EDGE_LOOP('',(#224,#225,#226,#227,#228,#229,#230,#231,#232,#233));
#165=EDGE_LOOP('',(#234));
#166=EDGE_LOOP('',(#235,#236,#237,#238,#239,#240));
#167=EDGE_LOOP('',(#241,#242));
#168=EDGE_LOOP('',(#243));
#169=EDGE_LOOP('',(#244,#245));
#170=ORIENTED_EDGE('',*,*,#282,.F.);
#171=ORIENTED_EDGE('',*,*,#283,.F.);
#172=ORIENTED_EDGE('',*,*,#284,.F.);
#173=ORIENTED_EDGE('',*,*,#285,.T.);
#174=ORIENTED_EDGE('',*,*,#286,.T.);
#175=ORIENTED_EDGE('',*,*,#287,.F.);
#176=ORIENTED_EDGE('',*,*,#287,.T.);
#177=ORIENTED_EDGE('',*,*,#288,.F.);
#178=ORIENTED_EDGE('',*,*,#289,.F.);
#179=ORIENTED_EDGE('',*,*,#289,.T.);
#180=ORIENTED_EDGE('',*,*,#290,.F.);
#181=ORIENTED_EDGE('',*,*,#291,.F.);
#182=ORIENTED_EDGE('',*,*,#292,.T.);
#183=ORIENTED_EDGE('',*,*,#293,.T.);
#184=ORIENTED_EDGE('',*,*,#294,.T.);
#185=ORIENTED_EDGE('',*,*,#294,.F.);
#186=ORIENTED_EDGE('',*,*,#282,.T.);
#187=ORIENTED_EDGE('',*,*,#292,.F.);
#188=ORIENTED_EDGE('',*,*,#295,.F.);
#189=ORIENTED_EDGE('',*,*,#296,.T.);
#190=ORIENTED_EDGE('',*,*,#296,.F.);
#191=ORIENTED_EDGE('',*,*,#297,.F.);
#192=ORIENTED_EDGE('',*,*,#298,.F.);
#193=ORIENTED_EDGE('',*,*,#291,.T.);
#194=ORIENTED_EDGE('',*,*,#295,.T.);
#195=ORIENTED_EDGE('',*,*,#299,.T.);
#196=ORIENTED_EDGE('',*,*,#286,.F.);
#197=ORIENTED_EDGE('',*,*,#299,.F.);
#198=ORIENTED_EDGE('',*,*,#300,.T.);
#199=ORIENTED_EDGE('',*,*,#301,.T.);
#200=ORIENTED_EDGE('',*,*,#302,.T.);
#201=ORIENTED_EDGE('',*,*,#303,.T.);
#202=ORIENTED_EDGE('',*,*,#304,.T.);
#203=ORIENTED_EDGE('',*,*,#305,.F.);
#204=ORIENTED_EDGE('',*,*,#306,.F.);
#205=ORIENTED_EDGE('',*,*,#306,.T.);
#206=ORIENTED_EDGE('',*,*,#284,.T.);
#207=ORIENTED_EDGE('',*,*,#307,.T.);
#208=ORIENTED_EDGE('',*,*,#304,.F.);
#209=ORIENTED_EDGE('',*,*,#305,.T.);
#210=ORIENTED_EDGE('',*,*,#302,.F.);
#211=ORIENTED_EDGE('',*,*,#303,.F.);
#212=ORIENTED_EDGE('',*,*,#300,.F.);
#213=ORIENTED_EDGE('',*,*,#301,.F.);
#214=ORIENTED_EDGE('',*,*,#308,.F.);
#215=ORIENTED_EDGE('',*,*,#309,.F.);
#216=ORIENTED_EDGE('',*,*,#288,.T.);
#217=ORIENTED_EDGE('',*,*,#290,.T.);
#218=ORIENTED_EDGE('',*,*,#283,.T.);
#219=ORIENTED_EDGE('',*,*,#293,.F.);
#220=ORIENTED_EDGE('',*,*,#285,.F.);
#221=ORIENTED_EDGE('',*,*,#307,.F.);
#222=ORIENTED_EDGE('',*,*,#310,.T.);
#223=ORIENTED_EDGE('',*,*,#311,.T.);
#224=ORIENTED_EDGE('',*,*,#312,.F.);
#225=ORIENTED_EDGE('',*,*,#312,.T.);
#226=ORIENTED_EDGE('',*,*,#311,.F.);
#227=ORIENTED_EDGE('',*,*,#313,.T.);
#228=ORIENTED_EDGE('',*,*,#297,.T.);
#229=ORIENTED_EDGE('',*,*,#314,.F.);
#230=ORIENTED_EDGE('',*,*,#314,.T.);
#231=ORIENTED_EDGE('',*,*,#298,.T.);
#232=ORIENTED_EDGE('',*,*,#313,.F.);
#233=ORIENTED_EDGE('',*,*,#310,.F.);
#234=ORIENTED_EDGE('',*,*,#315,.T.);
#235=ORIENTED_EDGE('',*,*,#316,.T.);
#236=ORIENTED_EDGE('',*,*,#316,.F.);
#237=ORIENTED_EDGE('',*,*,#308,.T.);
#238=ORIENTED_EDGE('',*,*,#317,.F.);
#239=ORIENTED_EDGE('',*,*,#317,.T.);
#240=ORIENTED_EDGE('',*,*,#309,.T.);
#241=ORIENTED_EDGE('',*,*,#318,.T.);
#242=ORIENTED_EDGE('',*,*,#318,.F.);
#243=ORIENTED_EDGE('',*,*,#315,.F.);
#244=ORIENTED_EDGE('',*,*,#319,.T.);
#245=ORIENTED_EDGE('',*,*,#319,.F.);
#246=VERTEX_POINT('',#531);
#247=VERTEX_POINT('',#532);
#248=VERTEX_POINT('',#534);
#249=VERTEX_POINT('',#536);
#250=VERTEX_POINT('',#540);
#251=VERTEX_POINT('',#542);
#252=VERTEX_POINT('',#543);
#253=VERTEX_POINT('',#545);
#254=VERTEX_POINT('',#547);
#255=VERTEX_POINT('',#551);
#256=VERTEX_POINT('',#552);
#257=VERTEX_POINT('',#556);
#258=VERTEX_POINT('',#559);
#259=VERTEX_POINT('',#562);
#260=VERTEX_POINT('',#563);
#261=VERTEX_POINT('',#567);
#262=VERTEX_POINT('',#570);
#263=VERTEX_POINT('',#573);
#264=VERTEX_POINT('',#575);
#265=VERTEX_POINT('',#578);
#266=VERTEX_POINT('',#580);
#267=VERTEX_POINT('',#583);
#268=VERTEX_POINT('',#585);
#269=VERTEX_POINT('',#593);
#270=VERTEX_POINT('',#594);
#271=VERTEX_POINT('',#599);
#272=VERTEX_POINT('',#600);
#273=VERTEX_POINT('',#604);
#274=VERTEX_POINT('',#607);
#275=VERTEX_POINT('',#610);
#276=VERTEX_POINT('',#613);
#277=VERTEX_POINT('',#615);
#278=VERTEX_POINT('',#617);
#279=VERTEX_POINT('',#618);
#280=VERTEX_POINT('',#620);
#281=VERTEX_POINT('',#621);
#282=EDGE_CURVE('',#246,#247,#320,.T.);
#283=EDGE_CURVE('',#248,#246,#321,.T.);
#284=EDGE_CURVE('',#249,#248,#322,.T.);
#285=EDGE_CURVE('',#249,#247,#323,.T.);
#286=EDGE_CURVE('',#250,#250,#324,.T.);
#287=EDGE_CURVE('',#251,#252,#55,.T.);
#288=EDGE_CURVE('',#253,#252,#325,.T.);
#289=EDGE_CURVE('',#254,#253,#56,.T.);
#290=EDGE_CURVE('',#252,#253,#326,.T.);
#291=EDGE_CURVE('',#255,#256,#327,.T.);
#292=EDGE_CURVE('',#255,#247,#57,.T.);
#293=EDGE_CURVE('',#247,#246,#328,.T.);
#294=EDGE_CURVE('',#246,#257,#58,.T.);
#295=EDGE_CURVE('',#256,#255,#329,.T.);
#296=EDGE_CURVE('',#256,#258,#59,.T.);
#297=EDGE_CURVE('',#259,#260,#330,.T.);
#298=EDGE_CURVE('',#260,#259,#331,.T.);
#299=EDGE_CURVE('',#261,#261,#332,.T.);
#300=EDGE_CURVE('',#262,#262,#333,.T.);
#301=EDGE_CURVE('',#263,#263,#334,.T.);
#302=EDGE_CURVE('',#264,#264,#335,.T.);
#303=EDGE_CURVE('',#265,#265,#336,.T.);
#304=EDGE_CURVE('',#266,#266,#337,.T.);
#305=EDGE_CURVE('',#267,#267,#338,.T.);
#306=EDGE_CURVE('',#268,#268,#339,.T.);
#307=EDGE_CURVE('',#248,#249,#340,.T.);
#308=EDGE_CURVE('',#269,#270,#341,.T.);
#309=EDGE_CURVE('',#270,#269,#342,.T.);
#310=EDGE_CURVE('',#271,#272,#343,.T.);
#311=EDGE_CURVE('',#272,#271,#344,.T.);
#312=EDGE_CURVE('',#273,#271,#60,.T.);
#313=EDGE_CURVE('',#272,#259,#61,.T.);
#314=EDGE_CURVE('',#274,#260,#62,.T.);
#315=EDGE_CURVE('',#275,#275,#345,.T.);
#316=EDGE_CURVE('',#269,#276,#63,.T.);
#317=EDGE_CURVE('',#277,#270,#64,.T.);
#318=EDGE_CURVE('',#278,#279,#65,.T.);
#319=EDGE_CURVE('',#280,#281,#66,.T.);
#320=CIRCLE('',#371,16.);
#321=CIRCLE('',#372,5.);
#322=CIRCLE('',#373,21.);
#323=CIRCLE('',#374,5.);
#324=CIRCLE('',#376,31.5);
#325=CIRCLE('',#377,31.5);
#326=CIRCLE('',#378,31.5);
#327=CIRCLE('',#380,16.);
#328=CIRCLE('',#381,16.);
#329=CIRCLE('',#382,16.);
#330=CIRCLE('',#384,8.);
#331=CIRCLE('',#385,8.);
#332=CIRCLE('',#387,28.8975952641916);
#333=CIRCLE('',#389,28.);
#334=CIRCLE('',#391,27.5);
#335=CIRCLE('',#392,27.5);
#336=CIRCLE('',#394,28.);
#337=CIRCLE('',#395,28.8975952641916);
#338=CIRCLE('',#397,31.5);
#339=CIRCLE('',#398,31.5);
#340=CIRCLE('',#400,21.);
#341=CIRCLE('',#405,24.3156277416478);
#342=CIRCLE('',#406,24.3156277416478);
#343=CIRCLE('',#409,8.);
#344=CIRCLE('',#410,8.);
#345=CIRCLE('',#413,22.7124392126429);
#346=INVISIBILITY((#347,#348,#349,#350));
#347=PRESENTATION_LAYER_ASSIGNMENT('100','Layer 100',(#368));
#348=PRESENTATION_LAYER_ASSIGNMENT('101','Layer 101',(#369));
#349=PRESENTATION_LAYER_ASSIGNMENT('102','Layer 102',(#370));
#350=PRESENTATION_LAYER_ASSIGNMENT('98','Layer 98',(#38));
#351=STYLED_ITEM('',(#355),#368);
#352=STYLED_ITEM('',(#356),#369);
#353=STYLED_ITEM('',(#357),#370);
#354=STYLED_ITEM('',(#358),#38);
#355=PRESENTATION_STYLE_ASSIGNMENT((#359));
#356=PRESENTATION_STYLE_ASSIGNMENT((#360));
#357=PRESENTATION_STYLE_ASSIGNMENT((#361));
#358=PRESENTATION_STYLE_ASSIGNMENT((#33));
#359=CURVE_STYLE('',#364,POSITIVE_LENGTH_MEASURE(0.7),#362);
#360=CURVE_STYLE('',#365,POSITIVE_LENGTH_MEASURE(0.7),#362);
#361=CURVE_STYLE('',#366,POSITIVE_LENGTH_MEASURE(0.7),#362);
#362=COLOUR_RGB('Medium Maroon',0.6,0.4,0.4);
#363=COLOUR_RGB('Medium Gray',0.490196078431373,0.490196078431373,0.490196078431373);
#364=DRAUGHTING_PRE_DEFINED_CURVE_FONT('continuous');
#365=DRAUGHTING_PRE_DEFINED_CURVE_FONT('continuous');
#366=DRAUGHTING_PRE_DEFINED_CURVE_FONT('continuous');
#367=AXIS2_PLACEMENT_3D('',#526,#416,#417);
#368=AXIS2_PLACEMENT_3D('PCS',#527,#418,#419);
#369=AXIS2_PLACEMENT_3D('CSW',#528,#420,#421);
#370=AXIS2_PLACEMENT_3D('MCS',#529,#422,#423);
#371=AXIS2_PLACEMENT_3D('',#530,#424,#425);
#372=AXIS2_PLACEMENT_3D('',#533,#426,#427);
#373=AXIS2_PLACEMENT_3D('',#535,#428,#429);
#374=AXIS2_PLACEMENT_3D('',#537,#430,#431);
#375=AXIS2_PLACEMENT_3D('',#538,#432,#433);
#376=AXIS2_PLACEMENT_3D('',#539,#434,#435);
#377=AXIS2_PLACEMENT_3D('',#544,#437,#438);
#378=AXIS2_PLACEMENT_3D('',#548,#440,#441);
#379=AXIS2_PLACEMENT_3D('',#549,#442,#443);
#380=AXIS2_PLACEMENT_3D('',#550,#444,#445);
#381=AXIS2_PLACEMENT_3D('',#554,#447,#448);
#382=AXIS2_PLACEMENT_3D('',#557,#450,#451);
#383=AXIS2_PLACEMENT_3D('',#560,#453,#454);
#384=AXIS2_PLACEMENT_3D('',#561,#455,#456);
#385=AXIS2_PLACEMENT_3D('',#564,#457,#458);
#386=AXIS2_PLACEMENT_3D('',#565,#459,#460);
#387=AXIS2_PLACEMENT_3D('',#566,#461,#462);
#388=AXIS2_PLACEMENT_3D('',#568,#463,#464);
#389=AXIS2_PLACEMENT_3D('',#569,#465,#466);
#390=AXIS2_PLACEMENT_3D('',#571,#467,#468);
#391=AXIS2_PLACEMENT_3D('',#572,#469,#470);
#392=AXIS2_PLACEMENT_3D('',#574,#471,#472);
#393=AXIS2_PLACEMENT_3D('',#576,#473,#474);
#394=AXIS2_PLACEMENT_3D('',#577,#475,#476);
#395=AXIS2_PLACEMENT_3D('',#579,#477,#478);
#396=AXIS2_PLACEMENT_3D('',#581,#479,#480);
#397=AXIS2_PLACEMENT_3D('',#582,#481,#482);
#398=AXIS2_PLACEMENT_3D('',#584,#483,#484);
#399=AXIS2_PLACEMENT_3D('',#586,#485,#486);
#400=AXIS2_PLACEMENT_3D('',#587,#487,#488);
#401=AXIS2_PLACEMENT_3D('',#588,#489,#490);
#402=AXIS2_PLACEMENT_3D('',#589,#491,#492);
#403=AXIS2_PLACEMENT_3D('',#590,#493,#494);
#404=AXIS2_PLACEMENT_3D('',#591,#495,#496);
#405=AXIS2_PLACEMENT_3D('',#592,#497,#498);
#406=AXIS2_PLACEMENT_3D('',#595,#499,#500);
#407=AXIS2_PLACEMENT_3D('',#596,#501,#502);
#408=AXIS2_PLACEMENT_3D('',#597,#503,#504);
#409=AXIS2_PLACEMENT_3D('',#598,#505,#506);
#410=AXIS2_PLACEMENT_3D('',#601,#507,#508);
#411=AXIS2_PLACEMENT_3D('',#602,#509,#510);
#412=AXIS2_PLACEMENT_3D('',#608,#514,#515);
#413=AXIS2_PLACEMENT_3D('',#609,#516,#517);
#414=AXIS2_PLACEMENT_3D('',#611,#518,#519);
#415=AXIS2_PLACEMENT_3D('',#622,#524,#525);
#416=DIRECTION('',(0.,0.,1.));
#417=DIRECTION('',(1.,0.,0.));
#418=DIRECTION('',(0.,0.,1.));
#419=DIRECTION('',(1.,0.,0.));
#420=DIRECTION('',(0.,0.,1.));
#421=DIRECTION('',(1.,0.,0.));
#422=DIRECTION('',(0.,0.,1.));
#423=DIRECTION('',(1.,0.,0.));
#424=DIRECTION('',(0.,0.,-1.));
#425=DIRECTION('',(1.,0.,0.));
#426=DIRECTION('',(-1.22464679914735E-16,1.,0.));
#427=DIRECTION('',(-1.,-1.22464679914735E-16,0.));
#428=DIRECTION('',(0.,0.,1.));
#429=DIRECTION('',(1.,0.,0.));
#430=DIRECTION('',(0.,-1.,0.));
#431=DIRECTION('',(1.,0.,0.));
#432=DIRECTION('',(0.,0.,-1.));
#433=DIRECTION('',(-1.,0.,0.));
#434=DIRECTION('',(0.,0.,1.));
#435=DIRECTION('',(-1.,0.,0.));
#436=DIRECTION('',(0.,0.,1.));
#437=DIRECTION('',(0.,0.,1.));
#438=DIRECTION('',(1.,0.,0.));
#439=DIRECTION('',(0.,0.,1.));
#440=DIRECTION('',(0.,0.,1.));
#441=DIRECTION('',(1.,0.,0.));
#442=DIRECTION('',(0.,0.,-1.));
#443=DIRECTION('',(-1.,0.,0.));
#444=DIRECTION('',(0.,0.,-1.));
#445=DIRECTION('',(-1.,0.,0.));
#446=DIRECTION('',(0.,0.,1.));
#447=DIRECTION('',(0.,0.,-1.));
#448=DIRECTION('',(1.,0.,0.));
#449=DIRECTION('',(0.,0.,-1.));
#450=DIRECTION('',(0.,0.,-1.));
#451=DIRECTION('',(-1.,0.,0.));
#452=DIRECTION('',(0.,0.,1.));
#453=DIRECTION('',(0.,0.,-1.));
#454=DIRECTION('',(-1.,0.,0.));
#455=DIRECTION('',(0.,0.,-1.));
#456=DIRECTION('',(-1.,0.,0.));
#457=DIRECTION('',(0.,0.,-1.));
#458=DIRECTION('',(-1.,0.,0.));
#459=DIRECTION('',(0.,0.,-1.));
#460=DIRECTION('',(-1.,0.,0.));
#461=DIRECTION('',(0.,0.,1.));
#462=DIRECTION('',(-1.,0.,0.));
#463=DIRECTION('',(0.,0.,1.));
#464=DIRECTION('',(1.,0.,1.96730762565122E-17));
#465=DIRECTION('',(0.,0.,1.));
#466=DIRECTION('',(1.,0.,0.));
#467=DIRECTION('',(0.,0.,-1.));
#468=DIRECTION('',(-1.,0.,0.));
#469=DIRECTION('',(0.,0.,-1.));
#470=DIRECTION('',(1.,0.,0.));
#471=DIRECTION('',(0.,0.,1.));
#472=DIRECTION('',(-1.,0.,0.));
#473=DIRECTION('',(0.,0.,1.));
#474=DIRECTION('',(1.,0.,0.));
#475=DIRECTION('',(0.,0.,-1.));
#476=DIRECTION('',(-1.,0.,0.));
#477=DIRECTION('',(0.,0.,1.));
#478=DIRECTION('',(-1.,0.,0.));
#479=DIRECTION('',(0.,0.,1.));
#480=DIRECTION('',(1.,0.,0.));
#481=DIRECTION('',(0.,0.,1.));
#482=DIRECTION('',(-1.,0.,0.));
#483=DIRECTION('',(0.,0.,-1.));
#484=DIRECTION('',(-1.,0.,0.));
#485=DIRECTION('',(0.,0.,-1.));
#486=DIRECTION('',(-1.,0.,0.));
#487=DIRECTION('',(0.,0.,1.));
#488=DIRECTION('',(1.,0.,0.));
#489=DIRECTION('',(0.,0.,-1.));
#490=DIRECTION('',(-1.,0.,0.));
#491=DIRECTION('',(0.,0.,-1.));
#492=DIRECTION('',(-1.,0.,-5.51660199120036E-17));
#493=DIRECTION('',(0.,0.,1.));
#494=DIRECTION('',(1.,0.,0.));
#495=DIRECTION('',(0.,0.,-1.));
#496=DIRECTION('',(-1.,0.,0.));
#497=DIRECTION('',(0.,0.,1.));
#498=DIRECTION('',(1.,0.,0.));
#499=DIRECTION('',(0.,0.,1.));
#500=DIRECTION('',(1.,0.,0.));
#501=DIRECTION('',(0.,0.,1.));
#502=DIRECTION('',(1.,0.,0.));
#503=DIRECTION('',(0.,0.,-1.));
#504=DIRECTION('',(-1.,0.,0.));
#505=DIRECTION('',(0.,0.,-1.));
#506=DIRECTION('',(-1.,0.,0.));
#507=DIRECTION('',(0.,0.,-1.));
#508=DIRECTION('',(-1.,0.,0.));
#509=DIRECTION('',(0.,0.,-1.));
#510=DIRECTION('',(-1.,0.,0.));
#511=DIRECTION('',(0.,0.,-1.));
#512=DIRECTION('',(0.,0.,1.));
#513=DIRECTION('',(0.,0.,1.));
#514=DIRECTION('',(0.,0.,-1.));
#515=DIRECTION('',(-1.,0.,0.));
#516=DIRECTION('',(0.,0.,1.));
#517=DIRECTION('',(1.,0.,0.));
#518=DIRECTION('',(0.,0.,1.));
#519=DIRECTION('',(1.,0.,0.));
#520=DIRECTION('',(0.0500368852433456,6.12775113525666E-18,0.998747370517262));
#521=DIRECTION('',(0.0500368852433456,0.,-0.998747370517262));
#522=DIRECTION('',(-0.0500368852433456,-6.12775113525666E-18,-0.998747370517262));
#523=DIRECTION('',(-0.0500368852433456,0.,0.998747370517262));
#524=DIRECTION('',(0.,0.,-1.));
#525=DIRECTION('',(-1.,0.,-9.33712893608539E-17));
#526=CARTESIAN_POINT('',(0.,0.,0.));
#527=CARTESIAN_POINT('',(0.,0.,0.));
#528=CARTESIAN_POINT('',(0.,0.,-90.));
#529=CARTESIAN_POINT('',(0.,0.,0.));
#530=CARTESIAN_POINT('',(-6.1260573931034E-14,1.26217744835362E-29,-31.));
#531=CARTESIAN_POINT('',(-16.0000000000001,-1.95943487863575E-15,-31.));
#532=CARTESIAN_POINT('',(15.9999999999999,1.26217744835362E-29,-31.));
#533=CARTESIAN_POINT('',(-21.0000000000001,-2.57175827820943E-15,-31.));
#534=CARTESIAN_POINT('',(-21.0000000000001,-2.57175827820943E-15,-26.));
#535=CARTESIAN_POINT('',(-6.1260573931034E-14,1.26217744835362E-29,-26.));
#536=CARTESIAN_POINT('',(20.9999999999999,1.26217744835362E-29,-26.));
#537=CARTESIAN_POINT('',(20.9999999999999,1.26217744835362E-29,-31.));
#538=CARTESIAN_POINT('',(-6.1260573931034E-14,1.26217744835362E-29,-31.));
#539=CARTESIAN_POINT('',(-6.1260573931034E-14,1.26217744835362E-29,-14.6225009252407));
#540=CARTESIAN_POINT('',(-31.5,1.26217744835362E-29,-14.6225009252407));
#541=CARTESIAN_POINT('',(31.4999999999999,1.26217744835362E-29,-116.825044513418));
#542=CARTESIAN_POINT('',(31.4999999999999,5.611593275561E-17,-3.80000029824112));
#543=CARTESIAN_POINT('',(31.4999999999999,1.26217744835362E-29,0.));
#544=CARTESIAN_POINT('',(-6.1260573931034E-14,1.26217744835362E-29,0.));
#545=CARTESIAN_POINT('',(-31.5,-3.85763741731415E-15,0.));
#546=CARTESIAN_POINT('',(-31.5,-3.85763741731415E-15,-116.825044513418));
#547=CARTESIAN_POINT('',(-31.5,7.78657083291975E-14,-3.80000052996434));
#548=CARTESIAN_POINT('',(-6.1260573931034E-14,1.26217744835362E-29,0.));
#549=CARTESIAN_POINT('',(-6.1260573931034E-14,1.26217744835362E-29,-116.825044513418));
#550=CARTESIAN_POINT('',(-6.1260573931034E-14,1.26217744835362E-29,-90.));
#551=CARTESIAN_POINT('',(15.9999999999999,1.26217744835362E-29,-90.));
#552=CARTESIAN_POINT('',(-16.0000000000001,-1.95943487863575E-15,-90.));
#553=CARTESIAN_POINT('',(15.9999999999999,1.26217744835362E-29,-116.825044513418));
#554=CARTESIAN_POINT('',(-6.1260573931034E-14,1.26217744835362E-29,-31.));
#555=CARTESIAN_POINT('',(-16.0000000000001,-1.95943487863575E-15,-116.825044513418));
#556=CARTESIAN_POINT('',(-16.0000000000001,-9.79907474214378E-16,-69.0537070371533));
#557=CARTESIAN_POINT('',(-6.1260573931034E-14,1.26217744835362E-29,-90.));
#558=CARTESIAN_POINT('',(-16.0000000000001,-1.95943487863575E-15,-116.825044513418));
#559=CARTESIAN_POINT('',(-16.0000000000001,-9.79717439317869E-16,-80.9462929628467));
#560=CARTESIAN_POINT('',(-6.1260573931034E-14,1.26217744835362E-29,-116.825044513418));
#561=CARTESIAN_POINT('',(-6.1260573931034E-14,1.26217744835362E-29,-90.));
#562=CARTESIAN_POINT('',(-8.00000000000006,1.26217744835362E-29,-90.));
#563=CARTESIAN_POINT('',(7.99999999999994,4.89858719658954E-16,-90.));
#564=CARTESIAN_POINT('',(-6.1260573931034E-14,1.26217744835362E-29,-90.));
#565=CARTESIAN_POINT('',(-6.1260573931034E-14,-16.,-90.));
#566=CARTESIAN_POINT('',(-6.1260573931034E-14,1.26217744835362E-29,-16.125));
#567=CARTESIAN_POINT('',(-28.8975952641917,1.26217744835362E-29,-16.125));
#568=CARTESIAN_POINT('',(-6.1260573931034E-14,1.26217744835362E-29,-14.6225009252407));
#569=CARTESIAN_POINT('',(-6.1260573931034E-14,1.26217744835362E-29,-16.125));
#570=CARTESIAN_POINT('',(27.9999999999999,1.26217744835362E-29,-16.125));
#571=CARTESIAN_POINT('',(-6.1260573931034E-14,-28.8975952641916,-16.125));
#572=CARTESIAN_POINT('',(-6.1260573931034E-14,1.26217744835362E-29,-16.625));
#573=CARTESIAN_POINT('',(27.4999999999999,1.26217744835362E-29,-16.625));
#574=CARTESIAN_POINT('',(-6.1260573931034E-14,1.26217744835362E-29,-19.375));
#575=CARTESIAN_POINT('',(-27.5000000000001,1.26217744835362E-29,-19.375));
#576=CARTESIAN_POINT('',(-6.1260573931034E-14,1.26217744835362E-29,6.93889390390723E-15));
#577=CARTESIAN_POINT('',(-6.1260573931034E-14,1.26217744835362E-29,-19.875));
#578=CARTESIAN_POINT('',(-28.0000000000001,1.26217744835362E-29,-19.875));
#579=CARTESIAN_POINT('',(-6.1260573931034E-14,1.26217744835362E-29,-19.875));
#580=CARTESIAN_POINT('',(-28.8975952641917,1.26217744835362E-29,-19.875));
#581=CARTESIAN_POINT('',(-6.1260573931034E-14,-27.5,-19.875));
#582=CARTESIAN_POINT('',(-6.1260573931034E-14,1.26217744835362E-29,-21.3774990747593));
#583=CARTESIAN_POINT('',(-31.5,1.26217744835362E-29,-21.3774990747593));
#584=CARTESIAN_POINT('',(-6.1260573931034E-14,1.26217744835362E-29,-26.));
#585=CARTESIAN_POINT('',(-31.5,1.26217744835362E-29,-26.));
#586=CARTESIAN_POINT('',(-6.1260573931034E-14,1.26217744835362E-29,-116.825044513418));
#587=CARTESIAN_POINT('',(-6.1260573931034E-14,1.26217744835362E-29,-26.));
#588=CARTESIAN_POINT('',(-6.1260573931034E-14,-31.5,-26.));
#589=CARTESIAN_POINT('',(-6.1260573931034E-14,1.26217744835362E-29,-19.875));
#590=CARTESIAN_POINT('',(-6.1260573931034E-14,1.26217744835362E-29,-19.375));
#591=CARTESIAN_POINT('',(-6.1260573931034E-14,1.26217744835362E-29,-16.625));
#592=CARTESIAN_POINT('',(-6.1260573931034E-14,1.26217744835362E-29,6.93889390390723E-15));
#593=CARTESIAN_POINT('',(-24.3156277416479,1.26217744835362E-29,6.93889390390723E-15));
#594=CARTESIAN_POINT('',(24.3156277416478,1.26217744835362E-29,6.93889390390723E-15));
#595=CARTESIAN_POINT('',(-6.1260573931034E-14,1.26217744835362E-29,6.93889390390723E-15));
#596=CARTESIAN_POINT('',(-6.1260573931034E-14,-25.3689215179895,6.93889390390723E-15));
#597=CARTESIAN_POINT('',(-6.1260573931034E-14,1.26217744835362E-29,-31.));
#598=CARTESIAN_POINT('',(-6.1260573931034E-14,1.26217744835362E-29,-117.));
#599=CARTESIAN_POINT('',(7.99999999999994,1.26217744835362E-29,-117.));
#600=CARTESIAN_POINT('',(-8.00000000000006,-9.7971743931787E-16,-117.));
#601=CARTESIAN_POINT('',(-6.1260573931034E-14,1.26217744835362E-29,-117.));
#602=CARTESIAN_POINT('',(-6.1260573931034E-14,-8.,-117.));
#603=CARTESIAN_POINT('',(7.99999999999994,1.26217744835362E-29,-116.825044513418));
#604=CARTESIAN_POINT('',(7.99999999999994,-2.1633395774021E-24,-115.));
#605=CARTESIAN_POINT('',(-8.00000000000006,-9.7971743931787E-16,-116.825044513418));
#606=CARTESIAN_POINT('',(7.99999999999994,1.26217744835362E-29,-116.825044513418));
#607=CARTESIAN_POINT('',(7.99999999999994,-1.51580339870153E-14,-95.));
#608=CARTESIAN_POINT('',(-6.1260573931034E-14,1.26217744835362E-29,-116.825044513418));
#609=CARTESIAN_POINT('',(-6.1260573931034E-14,1.26217744835362E-29,32.));
#610=CARTESIAN_POINT('',(22.7124392126429,1.26217744835362E-29,32.));
#611=CARTESIAN_POINT('',(-6.1260573931034E-14,1.59445180865035E-14,32.));
#612=CARTESIAN_POINT('',(-24.2154284585851,-2.96553469517877E-15,2.00000000000001));
#613=CARTESIAN_POINT('',(-24.0735223585634,-2.43697752527248E-13,4.83247735281102));
#614=CARTESIAN_POINT('',(24.215428458585,1.26217744835362E-29,2.00000000000001));
#615=CARTESIAN_POINT('',(24.0735223605089,-8.25714230817537E-10,4.83247731397713));
#616=CARTESIAN_POINT('',(-24.2154284585851,-2.96553469517877E-15,2.00000000000001));
#617=CARTESIAN_POINT('',(-23.0130370618314,-2.81828421764311E-15,26.));
#618=CARTESIAN_POINT('',(-23.654136375894,-1.71763564668711E-13,13.2035149460956));
#619=CARTESIAN_POINT('',(24.215428458585,1.26217744835362E-29,2.00000000000001));
#620=CARTESIAN_POINT('',(23.6541363759516,4.25210509743927E-15,13.203514944943));
#621=CARTESIAN_POINT('',(23.2134356279569,1.26217744835362E-29,22.));
#622=CARTESIAN_POINT('',(-6.1260573931034E-14,1.26217744835362E-29,2.00000000000001));
#623=MECHANICAL_DESIGN_GEOMETRIC_PRESENTATION_REPRESENTATION('',(#351,#352,
#353,#354),#624);
#624=(
GEOMETRIC_REPRESENTATION_CONTEXT(3)
GLOBAL_UNCERTAINTY_ASSIGNED_CONTEXT((#625))
GLOBAL_UNIT_ASSIGNED_CONTEXT((#631,#627,#626))
REPRESENTATION_CONTEXT('HSK.63A-FMH2.16','TOP_LEVEL_ASSEMBLY_PART')
);
#625=UNCERTAINTY_MEASURE_WITH_UNIT(LENGTH_MEASURE(2.E-5),#631,
'DISTANCE_ACCURACY_VALUE','Maximum Tolerance applied to model');
#626=(
NAMED_UNIT(*)
SI_UNIT($,.STERADIAN.)
SOLID_ANGLE_UNIT()
);
#627=(
CONVERSION_BASED_UNIT('DEGREE',#629)
NAMED_UNIT(#628)
PLANE_ANGLE_UNIT()
);
#628=DIMENSIONAL_EXPONENTS(0.,0.,0.,0.,0.,0.,0.);
#629=PLANE_ANGLE_MEASURE_WITH_UNIT(PLANE_ANGLE_MEASURE(0.0174532925),#630);
#630=(
NAMED_UNIT(*)
PLANE_ANGLE_UNIT()
SI_UNIT($,.RADIAN.)
);
#631=(
LENGTH_UNIT()
NAMED_UNIT(*)
SI_UNIT(.MILLI.,.METRE.)
);
ENDSEC;
END-ISO-10303-21;
