ISO-10303-21;
HEADER;
/* Generated by software containing ST-Developer
 * from STEP Tools, Inc. (www.steptools.com) 
 */
/* OPTION: using custom schema-name function */

FILE_DESCRIPTION(
/* description */ (''),
/* implementation_level */ '2;1');

FILE_NAME(
/* name */ 'HSK.63A-FMH1.22.050.stp',
/* time_stamp */ '2024-07-21T11:20:45+02:00',
/* author */ (''),
/* organization */ (''),
/* preprocessor_version */ 'ST-DEVELOPER v16.7',
/* originating_system */ 'SIEMENS PLM Software NX 12.0',
/* authorisation */ '');

FILE_SCHEMA (('AUTOMOTIVE_DESIGN { 1 0 10303 214 3 1 1 1 }'));
ENDSEC;

DATA;
#10=CONSTRUCTIVE_GEOMETRY_REPRESENTATION_RELATIONSHIP(
'supplemental geometry','',#32,#11);
#11=CONSTRUCTIVE_GEOMETRY_REPRESENTATION('supplemental geometry',(#357,
#358,#359),#606);
#12=PROPERTY_DEFINITION_REPRESENTATION(#16,#14);
#13=PROPERTY_DEFINITION_REPRESENTATION(#17,#15);
#14=REPRESENTATION('',(#18),#606);
#15=REPRESENTATION('',(#19),#606);
#16=PROPERTY_DEFINITION('pmi validation property','',#23);
#17=PROPERTY_DEFINITION('pmi validation property','',#23);
#18=VALUE_REPRESENTATION_ITEM('number of annotations',COUNT_MEASURE(0.));
#19=VALUE_REPRESENTATION_ITEM('number of views',COUNT_MEASURE(0.));
#20=SHAPE_REPRESENTATION_RELATIONSHIP('None',
'relationship between pf6612088076yoe4-None and pf6612088076yoe4-None',
#32,#21);
#21=ADVANCED_BREP_SHAPE_REPRESENTATION('pf6612088076yoe4-None',(#38),#606);
#22=SHAPE_DEFINITION_REPRESENTATION(#23,#32);
#23=PRODUCT_DEFINITION_SHAPE('','',#24);
#24=PRODUCT_DEFINITION(' ','',#26,#25);
#25=PRODUCT_DEFINITION_CONTEXT('part definition',#31,'design');
#26=PRODUCT_DEFINITION_FORMATION_WITH_SPECIFIED_SOURCE(' ',' ',#28,
 .NOT_KNOWN.);
#27=PRODUCT_RELATED_PRODUCT_CATEGORY('part','',(#28));
#28=PRODUCT('pf6612088076yoe4','pf6612088076yoe4',' ',(#29));
#29=PRODUCT_CONTEXT(' ',#31,'mechanical');
#30=APPLICATION_PROTOCOL_DEFINITION('international standard',
'automotive_design',2010,#31);
#31=APPLICATION_CONTEXT(
'core data for automotive mechanical design processes');
#32=SHAPE_REPRESENTATION('pf6612088076yoe4-None',(#356),#606);
#33=SURFACE_STYLE_USAGE(.BOTH.,#34);
#34=SURFACE_SIDE_STYLE('',(#35));
#35=SURFACE_STYLE_FILL_AREA(#36);
#36=FILL_AREA_STYLE('',(#37));
#37=FILL_AREA_STYLE_COLOUR('',#352);
#38=MANIFOLD_SOLID_BREP('\X2\015400D4015E\X0\#\X2\02DD010600BB\X0\S\X\B1
\X2\010600A6\X0\C4',#39);
#39=CLOSED_SHELL('',(#83,#84,#85,#86,#87,#88,#89,#90,#91,#92,#93,#94,#95,
#96,#97,#98,#99,#100,#101,#102));
#40=CONICAL_SURFACE('',#386,31.5,60.);
#41=CONICAL_SURFACE('',#392,28.8975952641916,60.0000000000003);
#42=CONICAL_SURFACE('',#399,24.215428458585,2.86810000000001);
#43=PLANE('',#375);
#44=PLANE('',#384);
#45=PLANE('',#389);
#46=PLANE('',#391);
#47=PLANE('',#396);
#48=PLANE('',#398);
#49=PLANE('',#402);
#50=CYLINDRICAL_SURFACE('',#367,24.);
#51=CYLINDRICAL_SURFACE('',#371,31.5);
#52=CYLINDRICAL_SURFACE('',#382,27.5);
#53=CYLINDRICAL_SURFACE('',#388,31.5);
#54=CYLINDRICAL_SURFACE('',#393,24.);
#55=CYLINDRICAL_SURFACE('',#403,11.);
#56=CYLINDRICAL_SURFACE('',#404,11.);
#57=FACE_OUTER_BOUND('',#138,.T.);
#58=FACE_OUTER_BOUND('',#161,.T.);
#59=FACE_OUTER_BOUND('',#164,.T.);
#60=FACE_OUTER_BOUND('',#169,.T.);
#61=FACE_OUTER_BOUND('',#170,.T.);
#62=FACE_OUTER_BOUND('',#171,.T.);
#63=LINE('',#531,#73);
#64=LINE('',#532,#74);
#65=LINE('',#536,#75);
#66=LINE('',#541,#76);
#67=LINE('',#585,#77);
#68=LINE('',#588,#78);
#69=LINE('',#591,#79);
#70=LINE('',#593,#80);
#71=LINE('',#601,#81);
#72=LINE('',#602,#82);
#73=VECTOR('',#427,1.);
#74=VECTOR('',#428,1.);
#75=VECTOR('',#433,1.);
#76=VECTOR('',#436,1.);
#77=VECTOR('',#495,1.);
#78=VECTOR('',#496,1.);
#79=VECTOR('',#497,1.);
#80=VECTOR('',#498,1.);
#81=VECTOR('',#507,1.);
#82=VECTOR('',#508,1.);
#83=ADVANCED_FACE('',(#106,#107),#103,.F.);
#84=ADVANCED_FACE('',(#57),#50,.T.);
#85=ADVANCED_FACE('',(#108,#109),#51,.T.);
#86=ADVANCED_FACE('',(#110,#111),#43,.T.);
#87=ADVANCED_FACE('',(#112,#113),#104,.F.);
#88=ADVANCED_FACE('',(#114,#115),#105,.F.);
#89=ADVANCED_FACE('',(#116,#117),#52,.T.);
#90=ADVANCED_FACE('',(#118,#119),#44,.T.);
#91=ADVANCED_FACE('',(#120,#121),#40,.T.);
#92=ADVANCED_FACE('',(#122,#123),#53,.T.);
#93=ADVANCED_FACE('',(#124,#125),#45,.T.);
#94=ADVANCED_FACE('',(#126,#127),#46,.T.);
#95=ADVANCED_FACE('',(#128,#129),#41,.T.);
#96=ADVANCED_FACE('',(#58),#54,.T.);
#97=ADVANCED_FACE('',(#130,#131),#47,.T.);
#98=ADVANCED_FACE('',(#59),#48,.T.);
#99=ADVANCED_FACE('',(#132,#133,#134,#135),#42,.T.);
#100=ADVANCED_FACE('',(#60),#49,.T.);
#101=ADVANCED_FACE('',(#61),#55,.T.);
#102=ADVANCED_FACE('',(#62),#56,.T.);
#103=TOROIDAL_SURFACE('',#365,26.,2.);
#104=TOROIDAL_SURFACE('',#378,28.,0.5);
#105=TOROIDAL_SURFACE('',#381,28.,0.5);
#106=FACE_BOUND('',#136,.T.);
#107=FACE_BOUND('',#137,.T.);
#108=FACE_BOUND('',#139,.T.);
#109=FACE_BOUND('',#140,.T.);
#110=FACE_BOUND('',#141,.T.);
#111=FACE_BOUND('',#142,.T.);
#112=FACE_BOUND('',#143,.T.);
#113=FACE_BOUND('',#144,.T.);
#114=FACE_BOUND('',#145,.T.);
#115=FACE_BOUND('',#146,.T.);
#116=FACE_BOUND('',#147,.T.);
#117=FACE_BOUND('',#148,.T.);
#118=FACE_BOUND('',#149,.T.);
#119=FACE_BOUND('',#150,.T.);
#120=FACE_BOUND('',#151,.T.);
#121=FACE_BOUND('',#152,.T.);
#122=FACE_BOUND('',#153,.T.);
#123=FACE_BOUND('',#154,.T.);
#124=FACE_BOUND('',#155,.T.);
#125=FACE_BOUND('',#156,.T.);
#126=FACE_BOUND('',#157,.T.);
#127=FACE_BOUND('',#158,.T.);
#128=FACE_BOUND('',#159,.T.);
#129=FACE_BOUND('',#160,.T.);
#130=FACE_BOUND('',#162,.T.);
#131=FACE_BOUND('',#163,.T.);
#132=FACE_BOUND('',#165,.T.);
#133=FACE_BOUND('',#166,.T.);
#134=FACE_BOUND('',#167,.T.);
#135=FACE_BOUND('',#168,.T.);
#136=EDGE_LOOP('',(#172));
#137=EDGE_LOOP('',(#173,#174,#175,#176,#177,#178));
#138=EDGE_LOOP('',(#179,#180,#181,#182));
#139=EDGE_LOOP('',(#183));
#140=EDGE_LOOP('',(#184,#185,#186,#187,#188,#189));
#141=EDGE_LOOP('',(#190,#191));
#142=EDGE_LOOP('',(#192,#193));
#143=EDGE_LOOP('',(#194));
#144=EDGE_LOOP('',(#195));
#145=EDGE_LOOP('',(#196));
#146=EDGE_LOOP('',(#197));
#147=EDGE_LOOP('',(#198));
#148=EDGE_LOOP('',(#199));
#149=EDGE_LOOP('',(#200));
#150=EDGE_LOOP('',(#201));
#151=EDGE_LOOP('',(#202));
#152=EDGE_LOOP('',(#203));
#153=EDGE_LOOP('',(#204));
#154=EDGE_LOOP('',(#205));
#155=EDGE_LOOP('',(#206));
#156=EDGE_LOOP('',(#207));
#157=EDGE_LOOP('',(#208));
#158=EDGE_LOOP('',(#209));
#159=EDGE_LOOP('',(#210));
#160=EDGE_LOOP('',(#211));
#161=EDGE_LOOP('',(#212,#213,#214,#215));
#162=EDGE_LOOP('',(#216,#217));
#163=EDGE_LOOP('',(#218,#219));
#164=EDGE_LOOP('',(#220));
#165=EDGE_LOOP('',(#221,#222));
#166=EDGE_LOOP('',(#223));
#167=EDGE_LOOP('',(#224,#225));
#168=EDGE_LOOP('',(#226,#227,#228,#229,#230,#231));
#169=EDGE_LOOP('',(#232,#233));
#170=EDGE_LOOP('',(#234,#235,#236,#237));
#171=EDGE_LOOP('',(#238,#239,#240,#241));
#172=ORIENTED_EDGE('',*,*,#275,.F.);
#173=ORIENTED_EDGE('',*,*,#276,.F.);
#174=ORIENTED_EDGE('',*,*,#277,.F.);
#175=ORIENTED_EDGE('',*,*,#277,.T.);
#176=ORIENTED_EDGE('',*,*,#278,.F.);
#177=ORIENTED_EDGE('',*,*,#279,.F.);
#178=ORIENTED_EDGE('',*,*,#279,.T.);
#179=ORIENTED_EDGE('',*,*,#280,.F.);
#180=ORIENTED_EDGE('',*,*,#281,.T.);
#181=ORIENTED_EDGE('',*,*,#278,.T.);
#182=ORIENTED_EDGE('',*,*,#282,.F.);
#183=ORIENTED_EDGE('',*,*,#283,.T.);
#184=ORIENTED_EDGE('',*,*,#284,.F.);
#185=ORIENTED_EDGE('',*,*,#284,.T.);
#186=ORIENTED_EDGE('',*,*,#285,.F.);
#187=ORIENTED_EDGE('',*,*,#286,.F.);
#188=ORIENTED_EDGE('',*,*,#286,.T.);
#189=ORIENTED_EDGE('',*,*,#287,.F.);
#190=ORIENTED_EDGE('',*,*,#288,.F.);
#191=ORIENTED_EDGE('',*,*,#289,.F.);
#192=ORIENTED_EDGE('',*,*,#280,.T.);
#193=ORIENTED_EDGE('',*,*,#290,.T.);
#194=ORIENTED_EDGE('',*,*,#291,.F.);
#195=ORIENTED_EDGE('',*,*,#292,.F.);
#196=ORIENTED_EDGE('',*,*,#293,.F.);
#197=ORIENTED_EDGE('',*,*,#294,.F.);
#198=ORIENTED_EDGE('',*,*,#294,.T.);
#199=ORIENTED_EDGE('',*,*,#291,.T.);
#200=ORIENTED_EDGE('',*,*,#295,.T.);
#201=ORIENTED_EDGE('',*,*,#275,.T.);
#202=ORIENTED_EDGE('',*,*,#296,.T.);
#203=ORIENTED_EDGE('',*,*,#283,.F.);
#204=ORIENTED_EDGE('',*,*,#297,.F.);
#205=ORIENTED_EDGE('',*,*,#295,.F.);
#206=ORIENTED_EDGE('',*,*,#296,.F.);
#207=ORIENTED_EDGE('',*,*,#293,.T.);
#208=ORIENTED_EDGE('',*,*,#292,.T.);
#209=ORIENTED_EDGE('',*,*,#298,.T.);
#210=ORIENTED_EDGE('',*,*,#298,.F.);
#211=ORIENTED_EDGE('',*,*,#297,.T.);
#212=ORIENTED_EDGE('',*,*,#290,.F.);
#213=ORIENTED_EDGE('',*,*,#282,.T.);
#214=ORIENTED_EDGE('',*,*,#276,.T.);
#215=ORIENTED_EDGE('',*,*,#281,.F.);
#216=ORIENTED_EDGE('',*,*,#299,.F.);
#217=ORIENTED_EDGE('',*,*,#300,.F.);
#218=ORIENTED_EDGE('',*,*,#285,.T.);
#219=ORIENTED_EDGE('',*,*,#287,.T.);
#220=ORIENTED_EDGE('',*,*,#301,.T.);
#221=ORIENTED_EDGE('',*,*,#302,.T.);
#222=ORIENTED_EDGE('',*,*,#302,.F.);
#223=ORIENTED_EDGE('',*,*,#301,.F.);
#224=ORIENTED_EDGE('',*,*,#303,.F.);
#225=ORIENTED_EDGE('',*,*,#303,.T.);
#226=ORIENTED_EDGE('',*,*,#304,.T.);
#227=ORIENTED_EDGE('',*,*,#304,.F.);
#228=ORIENTED_EDGE('',*,*,#300,.T.);
#229=ORIENTED_EDGE('',*,*,#305,.F.);
#230=ORIENTED_EDGE('',*,*,#305,.T.);
#231=ORIENTED_EDGE('',*,*,#299,.T.);
#232=ORIENTED_EDGE('',*,*,#306,.T.);
#233=ORIENTED_EDGE('',*,*,#307,.T.);
#234=ORIENTED_EDGE('',*,*,#308,.T.);
#235=ORIENTED_EDGE('',*,*,#288,.T.);
#236=ORIENTED_EDGE('',*,*,#309,.F.);
#237=ORIENTED_EDGE('',*,*,#306,.F.);
#238=ORIENTED_EDGE('',*,*,#309,.T.);
#239=ORIENTED_EDGE('',*,*,#289,.T.);
#240=ORIENTED_EDGE('',*,*,#308,.F.);
#241=ORIENTED_EDGE('',*,*,#307,.F.);
#242=VERTEX_POINT('',#518);
#243=VERTEX_POINT('',#520);
#244=VERTEX_POINT('',#521);
#245=VERTEX_POINT('',#523);
#246=VERTEX_POINT('',#526);
#247=VERTEX_POINT('',#529);
#248=VERTEX_POINT('',#530);
#249=VERTEX_POINT('',#535);
#250=VERTEX_POINT('',#537);
#251=VERTEX_POINT('',#538);
#252=VERTEX_POINT('',#540);
#253=VERTEX_POINT('',#542);
#254=VERTEX_POINT('',#546);
#255=VERTEX_POINT('',#547);
#256=VERTEX_POINT('',#552);
#257=VERTEX_POINT('',#554);
#258=VERTEX_POINT('',#557);
#259=VERTEX_POINT('',#559);
#260=VERTEX_POINT('',#563);
#261=VERTEX_POINT('',#566);
#262=VERTEX_POINT('',#569);
#263=VERTEX_POINT('',#573);
#264=VERTEX_POINT('',#578);
#265=VERTEX_POINT('',#579);
#266=VERTEX_POINT('',#583);
#267=VERTEX_POINT('',#586);
#268=VERTEX_POINT('',#587);
#269=VERTEX_POINT('',#589);
#270=VERTEX_POINT('',#590);
#271=VERTEX_POINT('',#592);
#272=VERTEX_POINT('',#594);
#273=VERTEX_POINT('',#597);
#274=VERTEX_POINT('',#598);
#275=EDGE_CURVE('',#242,#242,#310,.T.);
#276=EDGE_CURVE('',#243,#244,#311,.T.);
#277=EDGE_CURVE('',#245,#243,#312,.T.);
#278=EDGE_CURVE('',#244,#243,#313,.T.);
#279=EDGE_CURVE('',#246,#244,#314,.T.);
#280=EDGE_CURVE('',#247,#248,#315,.T.);
#281=EDGE_CURVE('',#247,#244,#63,.T.);
#282=EDGE_CURVE('',#248,#243,#64,.T.);
#283=EDGE_CURVE('',#249,#249,#316,.T.);
#284=EDGE_CURVE('',#250,#251,#65,.T.);
#285=EDGE_CURVE('',#252,#251,#317,.T.);
#286=EDGE_CURVE('',#253,#252,#66,.T.);
#287=EDGE_CURVE('',#251,#252,#318,.T.);
#288=EDGE_CURVE('',#254,#255,#319,.T.);
#289=EDGE_CURVE('',#255,#254,#320,.T.);
#290=EDGE_CURVE('',#248,#247,#321,.T.);
#291=EDGE_CURVE('',#256,#256,#322,.T.);
#292=EDGE_CURVE('',#257,#257,#323,.T.);
#293=EDGE_CURVE('',#258,#258,#324,.T.);
#294=EDGE_CURVE('',#259,#259,#325,.T.);
#295=EDGE_CURVE('',#260,#260,#326,.T.);
#296=EDGE_CURVE('',#261,#261,#327,.T.);
#297=EDGE_CURVE('',#262,#262,#328,.T.);
#298=EDGE_CURVE('',#263,#263,#329,.T.);
#299=EDGE_CURVE('',#264,#265,#330,.T.);
#300=EDGE_CURVE('',#265,#264,#331,.T.);
#301=EDGE_CURVE('',#266,#266,#332,.T.);
#302=EDGE_CURVE('',#267,#268,#67,.T.);
#303=EDGE_CURVE('',#269,#270,#68,.T.);
#304=EDGE_CURVE('',#265,#271,#69,.T.);
#305=EDGE_CURVE('',#272,#264,#70,.T.);
#306=EDGE_CURVE('',#273,#274,#333,.T.);
#307=EDGE_CURVE('',#274,#273,#334,.T.);
#308=EDGE_CURVE('',#273,#254,#71,.T.);
#309=EDGE_CURVE('',#274,#255,#72,.T.);
#310=CIRCLE('',#360,26.);
#311=CIRCLE('',#361,24.);
#312=CIRCLE('',#362,2.);
#313=CIRCLE('',#363,24.);
#314=CIRCLE('',#364,2.);
#315=CIRCLE('',#366,24.);
#316=CIRCLE('',#368,31.5);
#317=CIRCLE('',#369,31.5);
#318=CIRCLE('',#370,31.5);
#319=CIRCLE('',#372,11.);
#320=CIRCLE('',#373,11.);
#321=CIRCLE('',#374,24.);
#322=CIRCLE('',#376,27.5);
#323=CIRCLE('',#377,28.);
#324=CIRCLE('',#379,28.);
#325=CIRCLE('',#380,27.5);
#326=CIRCLE('',#383,31.5);
#327=CIRCLE('',#385,28.8975952641916);
#328=CIRCLE('',#387,31.5);
#329=CIRCLE('',#390,28.8975952641916);
#330=CIRCLE('',#394,24.3156277416478);
#331=CIRCLE('',#395,24.3156277416478);
#332=CIRCLE('',#397,22.7124392126429);
#333=CIRCLE('',#400,11.);
#334=CIRCLE('',#401,11.);
#335=INVISIBILITY((#336,#337,#338,#339));
#336=PRESENTATION_LAYER_ASSIGNMENT('100','Layer 100',(#357));
#337=PRESENTATION_LAYER_ASSIGNMENT('101','Layer 101',(#358));
#338=PRESENTATION_LAYER_ASSIGNMENT('102','Layer 102',(#359));
#339=PRESENTATION_LAYER_ASSIGNMENT('98','Layer 98',(#38));
#340=STYLED_ITEM('',(#344),#357);
#341=STYLED_ITEM('',(#345),#358);
#342=STYLED_ITEM('',(#346),#359);
#343=STYLED_ITEM('',(#347),#38);
#344=PRESENTATION_STYLE_ASSIGNMENT((#348));
#345=PRESENTATION_STYLE_ASSIGNMENT((#349));
#346=PRESENTATION_STYLE_ASSIGNMENT((#350));
#347=PRESENTATION_STYLE_ASSIGNMENT((#33));
#348=CURVE_STYLE('',#353,POSITIVE_LENGTH_MEASURE(0.7),#351);
#349=CURVE_STYLE('',#354,POSITIVE_LENGTH_MEASURE(0.7),#351);
#350=CURVE_STYLE('',#355,POSITIVE_LENGTH_MEASURE(0.7),#351);
#351=COLOUR_RGB('Medium Maroon',0.6,0.4,0.4);
#352=COLOUR_RGB('Medium Gray',0.490196078431373,0.490196078431373,0.490196078431373);
#353=DRAUGHTING_PRE_DEFINED_CURVE_FONT('continuous');
#354=DRAUGHTING_PRE_DEFINED_CURVE_FONT('continuous');
#355=DRAUGHTING_PRE_DEFINED_CURVE_FONT('continuous');
#356=AXIS2_PLACEMENT_3D('',#513,#405,#406);
#357=AXIS2_PLACEMENT_3D('PCS',#514,#407,#408);
#358=AXIS2_PLACEMENT_3D('CSW',#515,#409,#410);
#359=AXIS2_PLACEMENT_3D('MCS',#516,#411,#412);
#360=AXIS2_PLACEMENT_3D('',#517,#413,#414);
#361=AXIS2_PLACEMENT_3D('',#519,#415,#416);
#362=AXIS2_PLACEMENT_3D('',#522,#417,#418);
#363=AXIS2_PLACEMENT_3D('',#524,#419,#420);
#364=AXIS2_PLACEMENT_3D('',#525,#421,#422);
#365=AXIS2_PLACEMENT_3D('',#527,#423,#424);
#366=AXIS2_PLACEMENT_3D('',#528,#425,#426);
#367=AXIS2_PLACEMENT_3D('',#533,#429,#430);
#368=AXIS2_PLACEMENT_3D('',#534,#431,#432);
#369=AXIS2_PLACEMENT_3D('',#539,#434,#435);
#370=AXIS2_PLACEMENT_3D('',#543,#437,#438);
#371=AXIS2_PLACEMENT_3D('',#544,#439,#440);
#372=AXIS2_PLACEMENT_3D('',#545,#441,#442);
#373=AXIS2_PLACEMENT_3D('',#548,#443,#444);
#374=AXIS2_PLACEMENT_3D('',#549,#445,#446);
#375=AXIS2_PLACEMENT_3D('',#550,#447,#448);
#376=AXIS2_PLACEMENT_3D('',#551,#449,#450);
#377=AXIS2_PLACEMENT_3D('',#553,#451,#452);
#378=AXIS2_PLACEMENT_3D('',#555,#453,#454);
#379=AXIS2_PLACEMENT_3D('',#556,#455,#456);
#380=AXIS2_PLACEMENT_3D('',#558,#457,#458);
#381=AXIS2_PLACEMENT_3D('',#560,#459,#460);
#382=AXIS2_PLACEMENT_3D('',#561,#461,#462);
#383=AXIS2_PLACEMENT_3D('',#562,#463,#464);
#384=AXIS2_PLACEMENT_3D('',#564,#465,#466);
#385=AXIS2_PLACEMENT_3D('',#565,#467,#468);
#386=AXIS2_PLACEMENT_3D('',#567,#469,#470);
#387=AXIS2_PLACEMENT_3D('',#568,#471,#472);
#388=AXIS2_PLACEMENT_3D('',#570,#473,#474);
#389=AXIS2_PLACEMENT_3D('',#571,#475,#476);
#390=AXIS2_PLACEMENT_3D('',#572,#477,#478);
#391=AXIS2_PLACEMENT_3D('',#574,#479,#480);
#392=AXIS2_PLACEMENT_3D('',#575,#481,#482);
#393=AXIS2_PLACEMENT_3D('',#576,#483,#484);
#394=AXIS2_PLACEMENT_3D('',#577,#485,#486);
#395=AXIS2_PLACEMENT_3D('',#580,#487,#488);
#396=AXIS2_PLACEMENT_3D('',#581,#489,#490);
#397=AXIS2_PLACEMENT_3D('',#582,#491,#492);
#398=AXIS2_PLACEMENT_3D('',#584,#493,#494);
#399=AXIS2_PLACEMENT_3D('',#595,#499,#500);
#400=AXIS2_PLACEMENT_3D('',#596,#501,#502);
#401=AXIS2_PLACEMENT_3D('',#599,#503,#504);
#402=AXIS2_PLACEMENT_3D('',#600,#505,#506);
#403=AXIS2_PLACEMENT_3D('',#603,#509,#510);
#404=AXIS2_PLACEMENT_3D('',#604,#511,#512);
#405=DIRECTION('',(0.,0.,1.));
#406=DIRECTION('',(1.,0.,0.));
#407=DIRECTION('',(0.,0.,1.));
#408=DIRECTION('',(1.,0.,0.));
#409=DIRECTION('',(0.,0.,1.));
#410=DIRECTION('',(1.,0.,0.));
#411=DIRECTION('',(0.,0.,1.));
#412=DIRECTION('',(1.,0.,0.));
#413=DIRECTION('',(0.,0.,1.));
#414=DIRECTION('',(1.,0.,0.));
#415=DIRECTION('',(0.,0.,-1.));
#416=DIRECTION('',(1.,0.,0.));
#417=DIRECTION('',(-1.22464679914735E-16,1.,0.));
#418=DIRECTION('',(-1.,-1.22464679914735E-16,0.));
#419=DIRECTION('',(0.,0.,-1.));
#420=DIRECTION('',(1.,0.,0.));
#421=DIRECTION('',(0.,-1.,0.));
#422=DIRECTION('',(1.,0.,0.));
#423=DIRECTION('',(0.,0.,-1.));
#424=DIRECTION('',(-1.,0.,0.));
#425=DIRECTION('',(0.,0.,-1.));
#426=DIRECTION('',(-1.,0.,0.));
#427=DIRECTION('',(0.,0.,1.));
#428=DIRECTION('',(0.,0.,1.));
#429=DIRECTION('',(0.,0.,-1.));
#430=DIRECTION('',(-1.,0.,0.));
#431=DIRECTION('',(0.,0.,1.));
#432=DIRECTION('',(-1.,0.,0.));
#433=DIRECTION('',(0.,0.,1.));
#434=DIRECTION('',(0.,0.,1.));
#435=DIRECTION('',(1.,0.,0.));
#436=DIRECTION('',(0.,0.,1.));
#437=DIRECTION('',(0.,0.,1.));
#438=DIRECTION('',(1.,0.,0.));
#439=DIRECTION('',(0.,0.,-1.));
#440=DIRECTION('',(-1.,0.,0.));
#441=DIRECTION('',(0.,0.,-1.));
#442=DIRECTION('',(-1.,0.,0.));
#443=DIRECTION('',(0.,0.,-1.));
#444=DIRECTION('',(-1.,0.,0.));
#445=DIRECTION('',(0.,0.,-1.));
#446=DIRECTION('',(-1.,0.,0.));
#447=DIRECTION('',(0.,0.,-1.));
#448=DIRECTION('',(-1.,0.,0.));
#449=DIRECTION('',(0.,0.,1.));
#450=DIRECTION('',(-1.,0.,0.));
#451=DIRECTION('',(0.,0.,-1.));
#452=DIRECTION('',(-1.,0.,0.));
#453=DIRECTION('',(0.,0.,1.));
#454=DIRECTION('',(1.,0.,0.));
#455=DIRECTION('',(0.,0.,1.));
#456=DIRECTION('',(1.,0.,0.));
#457=DIRECTION('',(0.,0.,-1.));
#458=DIRECTION('',(1.,0.,0.));
#459=DIRECTION('',(0.,0.,-1.));
#460=DIRECTION('',(-1.,0.,0.));
#461=DIRECTION('',(0.,0.,1.));
#462=DIRECTION('',(1.,0.,0.));
#463=DIRECTION('',(0.,0.,-1.));
#464=DIRECTION('',(-1.,0.,0.));
#465=DIRECTION('',(0.,0.,-1.));
#466=DIRECTION('',(-1.,0.,0.));
#467=DIRECTION('',(0.,0.,1.));
#468=DIRECTION('',(-1.,0.,0.));
#469=DIRECTION('',(0.,0.,1.));
#470=DIRECTION('',(1.,0.,2.2624037694989E-17));
#471=DIRECTION('',(0.,0.,1.));
#472=DIRECTION('',(-1.,0.,0.));
#473=DIRECTION('',(0.,0.,-1.));
#474=DIRECTION('',(-1.,0.,0.));
#475=DIRECTION('',(0.,0.,-1.));
#476=DIRECTION('',(-1.,0.,0.));
#477=DIRECTION('',(0.,0.,1.));
#478=DIRECTION('',(-1.,0.,0.));
#479=DIRECTION('',(0.,0.,1.));
#480=DIRECTION('',(1.,0.,0.));
#481=DIRECTION('',(0.,0.,-1.));
#482=DIRECTION('',(-1.,0.,-5.12255899182891E-17));
#483=DIRECTION('',(0.,0.,-1.));
#484=DIRECTION('',(-1.,0.,0.));
#485=DIRECTION('',(0.,0.,1.));
#486=DIRECTION('',(1.,0.,0.));
#487=DIRECTION('',(0.,0.,1.));
#488=DIRECTION('',(1.,0.,0.));
#489=DIRECTION('',(0.,0.,1.));
#490=DIRECTION('',(1.,0.,0.));
#491=DIRECTION('',(0.,0.,1.));
#492=DIRECTION('',(1.,0.,0.));
#493=DIRECTION('',(0.,0.,1.));
#494=DIRECTION('',(1.,0.,0.));
#495=DIRECTION('',(-0.0500368852433456,0.,0.998747370517262));
#496=DIRECTION('',(-0.0500368852433456,-6.12775113525666E-18,-0.998747370517262));
#497=DIRECTION('',(0.0500368852433456,6.12775113525666E-18,0.998747370517262));
#498=DIRECTION('',(0.0500368852433456,0.,-0.998747370517262));
#499=DIRECTION('',(0.,0.,-1.));
#500=DIRECTION('',(-1.,0.,0.));
#501=DIRECTION('',(0.,0.,-1.));
#502=DIRECTION('',(-1.,0.,0.));
#503=DIRECTION('',(0.,0.,-1.));
#504=DIRECTION('',(-1.,0.,0.));
#505=DIRECTION('',(0.,0.,-1.));
#506=DIRECTION('',(-1.,0.,0.));
#507=DIRECTION('',(0.,0.,1.));
#508=DIRECTION('',(0.,0.,1.));
#509=DIRECTION('',(0.,0.,-1.));
#510=DIRECTION('',(-1.,0.,0.));
#511=DIRECTION('',(0.,0.,-1.));
#512=DIRECTION('',(-1.,0.,0.));
#513=CARTESIAN_POINT('',(0.,0.,0.));
#514=CARTESIAN_POINT('',(0.,0.,0.));
#515=CARTESIAN_POINT('',(0.,0.,-50.));
#516=CARTESIAN_POINT('',(0.,0.,0.));
#517=CARTESIAN_POINT('',(-2.56952802869226E-14,1.22273440309257E-29,-26.));
#518=CARTESIAN_POINT('',(26.,1.22273440309257E-29,-26.));
#519=CARTESIAN_POINT('',(-2.56952802869226E-14,1.22273440309257E-29,-28.));
#520=CARTESIAN_POINT('',(-24.,-2.93915231795363E-15,-28.));
#521=CARTESIAN_POINT('',(24.,1.22273440309257E-29,-28.));
#522=CARTESIAN_POINT('',(-26.,-3.1840816777831E-15,-28.));
#523=CARTESIAN_POINT('',(-25.5625000000902,2.3316424976826E-15,-26.0484381254803));
#524=CARTESIAN_POINT('',(-2.56952802869226E-14,1.22273440309257E-29,-28.));
#525=CARTESIAN_POINT('',(26.,1.22273440309257E-29,-28.));
#526=CARTESIAN_POINT('',(25.5625000000325,-9.53891054278882E-7,-26.0484381254932));
#527=CARTESIAN_POINT('',(-2.56952802869226E-14,1.22273440309257E-29,-28.));
#528=CARTESIAN_POINT('',(-2.56952802869226E-14,1.22273440309257E-29,-50.));
#529=CARTESIAN_POINT('',(24.,1.22273440309257E-29,-50.));
#530=CARTESIAN_POINT('',(-24.,-2.93915231795363E-15,-50.));
#531=CARTESIAN_POINT('',(24.,1.22273440309257E-29,-116.825044513418));
#532=CARTESIAN_POINT('',(-24.,-2.93915231795363E-15,-116.825044513418));
#533=CARTESIAN_POINT('',(-2.56952802869226E-14,1.22273440309257E-29,-116.825044513418));
#534=CARTESIAN_POINT('',(-2.56952802869226E-14,1.22273440309257E-29,-14.6225009252407));
#535=CARTESIAN_POINT('',(-31.5,1.22273440309257E-29,-14.6225009252407));
#536=CARTESIAN_POINT('',(31.5,1.22273440309257E-29,-116.825044513418));
#537=CARTESIAN_POINT('',(31.5,-5.5099493218891E-16,-3.80000029824114));
#538=CARTESIAN_POINT('',(31.5,1.22273440309257E-29,0.));
#539=CARTESIAN_POINT('',(-2.56952802869226E-14,1.22273440309257E-29,0.));
#540=CARTESIAN_POINT('',(-31.5,-3.85763741731415E-15,0.));
#541=CARTESIAN_POINT('',(-31.5,-3.85763741731415E-15,-116.825044513418));
#542=CARTESIAN_POINT('',(-31.5,7.83315764501873E-14,-3.80000052996405));
#543=CARTESIAN_POINT('',(-2.56952802869226E-14,1.22273440309257E-29,0.));
#544=CARTESIAN_POINT('',(-2.56952802869226E-14,1.22273440309257E-29,-116.825044513418));
#545=CARTESIAN_POINT('',(-2.56952802869226E-14,1.22273440309257E-29,-50.));
#546=CARTESIAN_POINT('',(11.,1.3471114790621E-15,-50.));
#547=CARTESIAN_POINT('',(-11.,1.22273440309257E-29,-50.));
#548=CARTESIAN_POINT('',(-2.56952802869226E-14,1.22273440309257E-29,-50.));
#549=CARTESIAN_POINT('',(-2.56952802869226E-14,1.22273440309257E-29,-50.));
#550=CARTESIAN_POINT('',(-2.56952802869226E-14,-24.,-50.));
#551=CARTESIAN_POINT('',(-2.56952802869226E-14,1.22273440309257E-29,-19.375));
#552=CARTESIAN_POINT('',(-27.5,1.22273440309257E-29,-19.375));
#553=CARTESIAN_POINT('',(-2.56952802869226E-14,1.22273440309257E-29,-19.875));
#554=CARTESIAN_POINT('',(-28.,1.22273440309257E-29,-19.875));
#555=CARTESIAN_POINT('',(-2.56952802869226E-14,1.22273440309257E-29,-19.375));
#556=CARTESIAN_POINT('',(-2.56952802869226E-14,1.22273440309257E-29,-16.125));
#557=CARTESIAN_POINT('',(28.,1.22273440309257E-29,-16.125));
#558=CARTESIAN_POINT('',(-2.56952802869226E-14,1.22273440309257E-29,-16.625));
#559=CARTESIAN_POINT('',(27.5,1.22273440309257E-29,-16.625));
#560=CARTESIAN_POINT('',(-2.56952802869226E-14,1.22273440309257E-29,-16.625));
#561=CARTESIAN_POINT('',(-2.56952802869226E-14,1.22273440309257E-29,0.));
#562=CARTESIAN_POINT('',(-2.56952802869226E-14,1.22273440309257E-29,-26.));
#563=CARTESIAN_POINT('',(-31.5,1.22273440309257E-29,-26.));
#564=CARTESIAN_POINT('',(-2.56952802869226E-14,-31.5,-26.));
#565=CARTESIAN_POINT('',(-2.56952802869226E-14,1.22273440309257E-29,-16.125));
#566=CARTESIAN_POINT('',(-28.8975952641916,1.22273440309257E-29,-16.125));
#567=CARTESIAN_POINT('',(-2.56952802869226E-14,1.22273440309257E-29,-14.6225009252407));
#568=CARTESIAN_POINT('',(-2.56952802869226E-14,1.22273440309257E-29,-21.3774990747593));
#569=CARTESIAN_POINT('',(-31.5,1.22273440309257E-29,-21.3774990747593));
#570=CARTESIAN_POINT('',(-2.56952802869226E-14,1.22273440309257E-29,-116.825044513418));
#571=CARTESIAN_POINT('',(-2.56952802869226E-14,-28.8975952641916,-16.125));
#572=CARTESIAN_POINT('',(-2.56952802869226E-14,1.22273440309257E-29,-19.875));
#573=CARTESIAN_POINT('',(-28.8975952641916,1.22273440309257E-29,-19.875));
#574=CARTESIAN_POINT('',(-2.56952802869226E-14,-27.5,-19.875));
#575=CARTESIAN_POINT('',(-2.56952802869226E-14,1.22273440309257E-29,-19.875));
#576=CARTESIAN_POINT('',(-2.56952802869226E-14,1.22273440309257E-29,-116.825044513418));
#577=CARTESIAN_POINT('',(-2.56952802869226E-14,1.22273440309257E-29,0.));
#578=CARTESIAN_POINT('',(24.3156277416478,1.22273440309257E-29,0.));
#579=CARTESIAN_POINT('',(-24.3156277416478,1.22273440309257E-29,0.));
#580=CARTESIAN_POINT('',(-2.56952802869226E-14,1.22273440309257E-29,0.));
#581=CARTESIAN_POINT('',(-2.56952802869226E-14,-25.3689215179895,0.));
#582=CARTESIAN_POINT('',(-2.56952802869226E-14,1.22273440309257E-29,32.));
#583=CARTESIAN_POINT('',(22.7124392126429,1.22273440309257E-29,32.));
#584=CARTESIAN_POINT('',(-2.56952802869226E-14,1.59445180865035E-14,32.));
#585=CARTESIAN_POINT('',(24.215428458585,1.22273440309257E-29,2.));
#586=CARTESIAN_POINT('',(23.6541363759516,4.25210509743927E-15,13.203514944943));
#587=CARTESIAN_POINT('',(23.2134356279569,1.22273440309257E-29,22.));
#588=CARTESIAN_POINT('',(-24.215428458585,-2.96553469517877E-15,2.));
#589=CARTESIAN_POINT('',(-23.0130370618314,-2.81828421764311E-15,26.));
#590=CARTESIAN_POINT('',(-23.6541363758939,-1.71763564668711E-13,13.2035149460956));
#591=CARTESIAN_POINT('',(-24.215428458585,-2.96553469517877E-15,2.));
#592=CARTESIAN_POINT('',(-24.0735223585634,-2.43697752527248E-13,4.83247735281102));
#593=CARTESIAN_POINT('',(24.215428458585,1.22273440309257E-29,2.));
#594=CARTESIAN_POINT('',(24.0735223605089,-8.25714230817537E-10,4.83247731397712));
#595=CARTESIAN_POINT('',(-2.56952802869226E-14,1.22273440309257E-29,2.));
#596=CARTESIAN_POINT('',(-2.56952802869226E-14,1.22273440309257E-29,-69.));
#597=CARTESIAN_POINT('',(11.,1.22273440309257E-29,-69.));
#598=CARTESIAN_POINT('',(-11.,-1.34711147906208E-15,-69.));
#599=CARTESIAN_POINT('',(-2.56952802869226E-14,1.22273440309257E-29,-69.));
#600=CARTESIAN_POINT('',(-2.56952802869226E-14,-11.,-69.));
#601=CARTESIAN_POINT('',(11.,1.22273440309257E-29,-116.825044513418));
#602=CARTESIAN_POINT('',(-11.,-1.34711147906208E-15,-116.825044513418));
#603=CARTESIAN_POINT('',(-2.56952802869226E-14,1.22273440309257E-29,-116.825044513418));
#604=CARTESIAN_POINT('',(-2.56952802869226E-14,1.22273440309257E-29,-116.825044513418));
#605=MECHANICAL_DESIGN_GEOMETRIC_PRESENTATION_REPRESENTATION('',(#340,#341,
#342,#343),#606);
#606=(
GEOMETRIC_REPRESENTATION_CONTEXT(3)
GLOBAL_UNCERTAINTY_ASSIGNED_CONTEXT((#607))
GLOBAL_UNIT_ASSIGNED_CONTEXT((#613,#609,#608))
REPRESENTATION_CONTEXT('HSK.63A-FMH1.22','TOP_LEVEL_ASSEMBLY_PART')
);
#607=UNCERTAINTY_MEASURE_WITH_UNIT(LENGTH_MEASURE(2.E-5),#613,
'DISTANCE_ACCURACY_VALUE','Maximum Tolerance applied to model');
#608=(
NAMED_UNIT(*)
SI_UNIT($,.STERADIAN.)
SOLID_ANGLE_UNIT()
);
#609=(
CONVERSION_BASED_UNIT('DEGREE',#611)
NAMED_UNIT(#610)
PLANE_ANGLE_UNIT()
);
#610=DIMENSIONAL_EXPONENTS(0.,0.,0.,0.,0.,0.,0.);
#611=PLANE_ANGLE_MEASURE_WITH_UNIT(PLANE_ANGLE_MEASURE(0.0174532925),#612);
#612=(
NAMED_UNIT(*)
PLANE_ANGLE_UNIT()
SI_UNIT($,.RADIAN.)
);
#613=(
LENGTH_UNIT()
NAMED_UNIT(*)
SI_UNIT(.MILLI.,.METRE.)
);
ENDSEC;
END-ISO-10303-21;
