ISO-10303-21;
HEADER;
/* Generated by software containing ST-Developer
 * from STEP Tools, Inc. (www.steptools.com) 
 */
/* OPTION: using custom schema-name function */

FILE_DESCRIPTION(
/* description */ (''),
/* implementation_level */ '2;1');

FILE_NAME(
/* name */ 'HSK.100A-W.32.100.stp',
/* time_stamp */ '2024-07-21T10:28:59+02:00',
/* author */ (''),
/* organization */ (''),
/* preprocessor_version */ 'ST-DEVELOPER v16.7',
/* originating_system */ 'SIEMENS PLM Software NX 12.0',
/* authorisation */ '');

FILE_SCHEMA (('AUTOMOTIVE_DESIGN { 1 0 10303 214 3 1 1 1 }'));
ENDSEC;

DATA;
#10=CONSTRUCTIVE_GEOMETRY_REPRESENTATION_RELATIONSHIP(
'supplemental geometry','',#32,#11);
#11=CONSTRUCTIVE_GEOMETRY_REPRESENTATION('supplemental geometry',(#346,
#347,#348),#588);
#12=PROPERTY_DEFINITION_REPRESENTATION(#16,#14);
#13=PROPERTY_DEFINITION_REPRESENTATION(#17,#15);
#14=REPRESENTATION('',(#18),#588);
#15=REPRESENTATION('',(#19),#588);
#16=PROPERTY_DEFINITION('pmi validation property','',#23);
#17=PROPERTY_DEFINITION('pmi validation property','',#23);
#18=VALUE_REPRESENTATION_ITEM('number of annotations',COUNT_MEASURE(0.));
#19=VALUE_REPRESENTATION_ITEM('number of views',COUNT_MEASURE(0.));
#20=SHAPE_REPRESENTATION_RELATIONSHIP('None',
'relationship between pf6612088076yo4g-None and pf6612088076yo4g-None',
#32,#21);
#21=ADVANCED_BREP_SHAPE_REPRESENTATION('pf6612088076yo4g-None',(#38),#588);
#22=SHAPE_DEFINITION_REPRESENTATION(#23,#32);
#23=PRODUCT_DEFINITION_SHAPE('','',#24);
#24=PRODUCT_DEFINITION(' ','',#26,#25);
#25=PRODUCT_DEFINITION_CONTEXT('part definition',#31,'design');
#26=PRODUCT_DEFINITION_FORMATION_WITH_SPECIFIED_SOURCE(' ',' ',#28,
 .NOT_KNOWN.);
#27=PRODUCT_RELATED_PRODUCT_CATEGORY('part','',(#28));
#28=PRODUCT('pf6612088076yo4g','pf6612088076yo4g',' ',(#29));
#29=PRODUCT_CONTEXT(' ',#31,'mechanical');
#30=APPLICATION_PROTOCOL_DEFINITION('international standard',
'automotive_design',2010,#31);
#31=APPLICATION_CONTEXT(
'core data for automotive mechanical design processes');
#32=SHAPE_REPRESENTATION('pf6612088076yo4g-None',(#345),#588);
#33=SURFACE_STYLE_USAGE(.BOTH.,#34);
#34=SURFACE_SIDE_STYLE('',(#35));
#35=SURFACE_STYLE_FILL_AREA(#36);
#36=FILL_AREA_STYLE('',(#37));
#37=FILL_AREA_STYLE_COLOUR('',#341);
#38=MANIFOLD_SOLID_BREP('\X2\015E02DD02DD\X0\U\X2\02DD010600BB\X0\S\X\B1
\X2\010600A6\X0\C1',#39);
#39=CLOSED_SHELL('',(#81,#82,#83,#84,#85,#86,#87,#88,#89,#90,#91,#92,#93,
#94,#95,#96,#97,#98,#99,#100));
#40=CYLINDRICAL_SURFACE('',#364,50.);
#41=CYLINDRICAL_SURFACE('',#366,36.);
#42=CYLINDRICAL_SURFACE('',#367,36.);
#43=CYLINDRICAL_SURFACE('',#370,46.);
#44=CYLINDRICAL_SURFACE('',#381,50.);
#45=FACE_BOUND('',#118,.T.);
#46=FACE_BOUND('',#119,.T.);
#47=FACE_BOUND('',#122,.T.);
#48=FACE_BOUND('',#123,.T.);
#49=FACE_BOUND('',#124,.T.);
#50=FACE_BOUND('',#125,.T.);
#51=FACE_BOUND('',#126,.T.);
#52=FACE_BOUND('',#127,.T.);
#53=FACE_BOUND('',#128,.T.);
#54=FACE_BOUND('',#129,.T.);
#55=FACE_BOUND('',#130,.T.);
#56=FACE_BOUND('',#131,.T.);
#57=FACE_BOUND('',#132,.T.);
#58=FACE_BOUND('',#133,.T.);
#59=FACE_BOUND('',#134,.T.);
#60=FACE_BOUND('',#135,.T.);
#61=FACE_BOUND('',#136,.T.);
#62=FACE_BOUND('',#137,.T.);
#63=FACE_BOUND('',#138,.T.);
#64=FACE_BOUND('',#139,.T.);
#65=FACE_BOUND('',#140,.T.);
#66=FACE_BOUND('',#141,.T.);
#67=FACE_BOUND('',#144,.T.);
#68=FACE_BOUND('',#145,.T.);
#69=FACE_BOUND('',#146,.T.);
#70=FACE_BOUND('',#147,.T.);
#71=TOROIDAL_SURFACE('',#360,38.,2.);
#72=TOROIDAL_SURFACE('',#382,46.5,0.5);
#73=TOROIDAL_SURFACE('',#383,46.5,0.5);
#74=TOROIDAL_SURFACE('',#389,38.,2.);
#75=PLANE('',#355);
#76=PLANE('',#374);
#77=PLANE('',#377);
#78=PLANE('',#385);
#79=PLANE('',#388);
#80=PLANE('',#391);
#81=ADVANCED_FACE('',(#106),#101,.T.);
#82=ADVANCED_FACE('',(#107),#102,.T.);
#83=ADVANCED_FACE('',(#108),#75,.T.);
#84=ADVANCED_FACE('',(#109),#71,.F.);
#85=ADVANCED_FACE('',(#45,#46),#40,.T.);
#86=ADVANCED_FACE('',(#110),#41,.T.);
#87=ADVANCED_FACE('',(#111),#42,.T.);
#88=ADVANCED_FACE('',(#47,#48),#43,.T.);
#89=ADVANCED_FACE('',(#49,#50),#103,.T.);
#90=ADVANCED_FACE('',(#51,#52),#76,.T.);
#91=ADVANCED_FACE('',(#53,#54),#77,.T.);
#92=ADVANCED_FACE('',(#55,#56),#104,.T.);
#93=ADVANCED_FACE('',(#57,#58),#44,.T.);
#94=ADVANCED_FACE('',(#59,#60),#72,.F.);
#95=ADVANCED_FACE('',(#61,#62),#73,.F.);
#96=ADVANCED_FACE('',(#63,#64),#78,.T.);
#97=ADVANCED_FACE('',(#65,#66),#79,.T.);
#98=ADVANCED_FACE('',(#112),#74,.F.);
#99=ADVANCED_FACE('',(#113),#80,.T.);
#100=ADVANCED_FACE('',(#67,#68,#69,#70),#105,.T.);
#101=CONICAL_SURFACE('',#351,28.,45.);
#102=CONICAL_SURFACE('',#354,28.,45.);
#103=CONICAL_SURFACE('',#372,50.,60.0000000000002);
#104=CONICAL_SURFACE('',#379,47.6225952641916,60.0000000000002);
#105=CONICAL_SURFACE('',#392,37.9007971322512,2.8681);
#106=FACE_OUTER_BOUND('',#114,.T.);
#107=FACE_OUTER_BOUND('',#115,.T.);
#108=FACE_OUTER_BOUND('',#116,.T.);
#109=FACE_OUTER_BOUND('',#117,.T.);
#110=FACE_OUTER_BOUND('',#120,.T.);
#111=FACE_OUTER_BOUND('',#121,.T.);
#112=FACE_OUTER_BOUND('',#142,.T.);
#113=FACE_OUTER_BOUND('',#143,.T.);
#114=EDGE_LOOP('',(#172,#173,#174,#175));
#115=EDGE_LOOP('',(#176,#177,#178,#179));
#116=EDGE_LOOP('',(#180,#181));
#117=EDGE_LOOP('',(#182,#183,#184,#185));
#118=EDGE_LOOP('',(#186));
#119=EDGE_LOOP('',(#187,#188,#189,#190,#191,#192));
#120=EDGE_LOOP('',(#193,#194,#195,#196));
#121=EDGE_LOOP('',(#197,#198,#199,#200));
#122=EDGE_LOOP('',(#201));
#123=EDGE_LOOP('',(#202));
#124=EDGE_LOOP('',(#203));
#125=EDGE_LOOP('',(#204));
#126=EDGE_LOOP('',(#205));
#127=EDGE_LOOP('',(#206));
#128=EDGE_LOOP('',(#207));
#129=EDGE_LOOP('',(#208));
#130=EDGE_LOOP('',(#209));
#131=EDGE_LOOP('',(#210));
#132=EDGE_LOOP('',(#211));
#133=EDGE_LOOP('',(#212));
#134=EDGE_LOOP('',(#213));
#135=EDGE_LOOP('',(#214));
#136=EDGE_LOOP('',(#215));
#137=EDGE_LOOP('',(#216));
#138=EDGE_LOOP('',(#217));
#139=EDGE_LOOP('',(#218,#219));
#140=EDGE_LOOP('',(#220,#221));
#141=EDGE_LOOP('',(#222,#223));
#142=EDGE_LOOP('',(#224,#225,#226,#227));
#143=EDGE_LOOP('',(#228));
#144=EDGE_LOOP('',(#229,#230,#231,#232,#233,#234));
#145=EDGE_LOOP('',(#235,#236));
#146=EDGE_LOOP('',(#237));
#147=EDGE_LOOP('',(#238,#239));
#148=CIRCLE('',#349,36.);
#149=CIRCLE('',#350,28.);
#150=CIRCLE('',#352,36.);
#151=CIRCLE('',#353,28.);
#152=CIRCLE('',#356,36.);
#153=CIRCLE('',#357,2.);
#154=CIRCLE('',#358,38.);
#155=CIRCLE('',#359,2.);
#156=CIRCLE('',#361,50.);
#157=CIRCLE('',#362,50.);
#158=CIRCLE('',#363,50.);
#159=CIRCLE('',#365,36.);
#160=CIRCLE('',#368,46.);
#161=CIRCLE('',#369,46.);
#162=CIRCLE('',#371,47.6225952641916);
#163=CIRCLE('',#373,46.5);
#164=CIRCLE('',#375,47.6225952641916);
#165=CIRCLE('',#376,46.5);
#166=CIRCLE('',#378,50.);
#167=CIRCLE('',#380,50.);
#168=CIRCLE('',#384,38.);
#169=CIRCLE('',#386,38.000996415314);
#170=CIRCLE('',#387,38.000996415314);
#171=CIRCLE('',#390,35.4960143387439);
#172=ORIENTED_EDGE('',*,*,#270,.F.);
#173=ORIENTED_EDGE('',*,*,#271,.T.);
#174=ORIENTED_EDGE('',*,*,#272,.T.);
#175=ORIENTED_EDGE('',*,*,#273,.F.);
#176=ORIENTED_EDGE('',*,*,#272,.F.);
#177=ORIENTED_EDGE('',*,*,#274,.T.);
#178=ORIENTED_EDGE('',*,*,#270,.T.);
#179=ORIENTED_EDGE('',*,*,#275,.F.);
#180=ORIENTED_EDGE('',*,*,#275,.T.);
#181=ORIENTED_EDGE('',*,*,#273,.T.);
#182=ORIENTED_EDGE('',*,*,#276,.F.);
#183=ORIENTED_EDGE('',*,*,#277,.F.);
#184=ORIENTED_EDGE('',*,*,#278,.F.);
#185=ORIENTED_EDGE('',*,*,#279,.T.);
#186=ORIENTED_EDGE('',*,*,#280,.T.);
#187=ORIENTED_EDGE('',*,*,#281,.F.);
#188=ORIENTED_EDGE('',*,*,#282,.F.);
#189=ORIENTED_EDGE('',*,*,#282,.T.);
#190=ORIENTED_EDGE('',*,*,#283,.F.);
#191=ORIENTED_EDGE('',*,*,#284,.F.);
#192=ORIENTED_EDGE('',*,*,#284,.T.);
#193=ORIENTED_EDGE('',*,*,#274,.F.);
#194=ORIENTED_EDGE('',*,*,#285,.T.);
#195=ORIENTED_EDGE('',*,*,#286,.T.);
#196=ORIENTED_EDGE('',*,*,#287,.F.);
#197=ORIENTED_EDGE('',*,*,#271,.F.);
#198=ORIENTED_EDGE('',*,*,#287,.T.);
#199=ORIENTED_EDGE('',*,*,#276,.T.);
#200=ORIENTED_EDGE('',*,*,#285,.F.);
#201=ORIENTED_EDGE('',*,*,#288,.T.);
#202=ORIENTED_EDGE('',*,*,#289,.T.);
#203=ORIENTED_EDGE('',*,*,#290,.T.);
#204=ORIENTED_EDGE('',*,*,#280,.F.);
#205=ORIENTED_EDGE('',*,*,#291,.T.);
#206=ORIENTED_EDGE('',*,*,#290,.F.);
#207=ORIENTED_EDGE('',*,*,#292,.T.);
#208=ORIENTED_EDGE('',*,*,#293,.T.);
#209=ORIENTED_EDGE('',*,*,#294,.T.);
#210=ORIENTED_EDGE('',*,*,#292,.F.);
#211=ORIENTED_EDGE('',*,*,#295,.T.);
#212=ORIENTED_EDGE('',*,*,#294,.F.);
#213=ORIENTED_EDGE('',*,*,#293,.F.);
#214=ORIENTED_EDGE('',*,*,#289,.F.);
#215=ORIENTED_EDGE('',*,*,#288,.F.);
#216=ORIENTED_EDGE('',*,*,#291,.F.);
#217=ORIENTED_EDGE('',*,*,#295,.F.);
#218=ORIENTED_EDGE('',*,*,#278,.T.);
#219=ORIENTED_EDGE('',*,*,#296,.T.);
#220=ORIENTED_EDGE('',*,*,#297,.F.);
#221=ORIENTED_EDGE('',*,*,#298,.F.);
#222=ORIENTED_EDGE('',*,*,#281,.T.);
#223=ORIENTED_EDGE('',*,*,#283,.T.);
#224=ORIENTED_EDGE('',*,*,#277,.T.);
#225=ORIENTED_EDGE('',*,*,#286,.F.);
#226=ORIENTED_EDGE('',*,*,#279,.F.);
#227=ORIENTED_EDGE('',*,*,#296,.F.);
#228=ORIENTED_EDGE('',*,*,#299,.T.);
#229=ORIENTED_EDGE('',*,*,#300,.F.);
#230=ORIENTED_EDGE('',*,*,#300,.T.);
#231=ORIENTED_EDGE('',*,*,#297,.T.);
#232=ORIENTED_EDGE('',*,*,#301,.T.);
#233=ORIENTED_EDGE('',*,*,#301,.F.);
#234=ORIENTED_EDGE('',*,*,#298,.T.);
#235=ORIENTED_EDGE('',*,*,#302,.F.);
#236=ORIENTED_EDGE('',*,*,#302,.T.);
#237=ORIENTED_EDGE('',*,*,#299,.F.);
#238=ORIENTED_EDGE('',*,*,#303,.F.);
#239=ORIENTED_EDGE('',*,*,#303,.T.);
#240=VERTEX_POINT('',#504);
#241=VERTEX_POINT('',#505);
#242=VERTEX_POINT('',#507);
#243=VERTEX_POINT('',#509);
#244=VERTEX_POINT('',#517);
#245=VERTEX_POINT('',#518);
#246=VERTEX_POINT('',#520);
#247=VERTEX_POINT('',#522);
#248=VERTEX_POINT('',#526);
#249=VERTEX_POINT('',#528);
#250=VERTEX_POINT('',#529);
#251=VERTEX_POINT('',#531);
#252=VERTEX_POINT('',#534);
#253=VERTEX_POINT('',#542);
#254=VERTEX_POINT('',#544);
#255=VERTEX_POINT('',#547);
#256=VERTEX_POINT('',#550);
#257=VERTEX_POINT('',#553);
#258=VERTEX_POINT('',#555);
#259=VERTEX_POINT('',#558);
#260=VERTEX_POINT('',#561);
#261=VERTEX_POINT('',#568);
#262=VERTEX_POINT('',#569);
#263=VERTEX_POINT('',#574);
#264=VERTEX_POINT('',#577);
#265=VERTEX_POINT('',#579);
#266=VERTEX_POINT('',#581);
#267=VERTEX_POINT('',#582);
#268=VERTEX_POINT('',#584);
#269=VERTEX_POINT('',#585);
#270=EDGE_CURVE('',#240,#241,#304,.T.);
#271=EDGE_CURVE('',#240,#242,#148,.T.);
#272=EDGE_CURVE('',#242,#243,#305,.T.);
#273=EDGE_CURVE('',#241,#243,#149,.T.);
#274=EDGE_CURVE('',#242,#240,#150,.T.);
#275=EDGE_CURVE('',#243,#241,#151,.T.);
#276=EDGE_CURVE('',#244,#245,#152,.T.);
#277=EDGE_CURVE('',#246,#244,#153,.T.);
#278=EDGE_CURVE('',#247,#246,#154,.T.);
#279=EDGE_CURVE('',#247,#245,#155,.T.);
#280=EDGE_CURVE('',#248,#248,#156,.T.);
#281=EDGE_CURVE('',#249,#250,#157,.T.);
#282=EDGE_CURVE('',#251,#249,#306,.T.);
#283=EDGE_CURVE('',#250,#249,#158,.T.);
#284=EDGE_CURVE('',#252,#250,#307,.T.);
#285=EDGE_CURVE('',#242,#245,#308,.T.);
#286=EDGE_CURVE('',#245,#244,#159,.T.);
#287=EDGE_CURVE('',#240,#244,#309,.T.);
#288=EDGE_CURVE('',#253,#253,#160,.T.);
#289=EDGE_CURVE('',#254,#254,#161,.T.);
#290=EDGE_CURVE('',#255,#255,#162,.T.);
#291=EDGE_CURVE('',#256,#256,#163,.T.);
#292=EDGE_CURVE('',#257,#257,#164,.T.);
#293=EDGE_CURVE('',#258,#258,#165,.T.);
#294=EDGE_CURVE('',#259,#259,#166,.T.);
#295=EDGE_CURVE('',#260,#260,#167,.T.);
#296=EDGE_CURVE('',#246,#247,#168,.T.);
#297=EDGE_CURVE('',#261,#262,#169,.T.);
#298=EDGE_CURVE('',#262,#261,#170,.T.);
#299=EDGE_CURVE('',#263,#263,#171,.T.);
#300=EDGE_CURVE('',#264,#261,#310,.T.);
#301=EDGE_CURVE('',#262,#265,#311,.T.);
#302=EDGE_CURVE('',#266,#267,#312,.T.);
#303=EDGE_CURVE('',#268,#269,#313,.T.);
#304=LINE('',#503,#314);
#305=LINE('',#508,#315);
#306=LINE('',#530,#316);
#307=LINE('',#533,#317);
#308=LINE('',#536,#318);
#309=LINE('',#538,#319);
#310=LINE('',#576,#320);
#311=LINE('',#578,#321);
#312=LINE('',#580,#322);
#313=LINE('',#583,#323);
#314=VECTOR('',#401,1.);
#315=VECTOR('',#404,1.);
#316=VECTOR('',#431,1.);
#317=VECTOR('',#434,1.);
#318=VECTOR('',#437,1.);
#319=VECTOR('',#440,1.);
#320=VECTOR('',#493,1.);
#321=VECTOR('',#494,1.);
#322=VECTOR('',#495,1.);
#323=VECTOR('',#496,1.);
#324=INVISIBILITY((#325,#326,#327,#328));
#325=PRESENTATION_LAYER_ASSIGNMENT('100','Layer 100',(#346));
#326=PRESENTATION_LAYER_ASSIGNMENT('101','Layer 101',(#347));
#327=PRESENTATION_LAYER_ASSIGNMENT('102','Layer 102',(#348));
#328=PRESENTATION_LAYER_ASSIGNMENT('98','Layer 98',(#38));
#329=STYLED_ITEM('',(#333),#346);
#330=STYLED_ITEM('',(#334),#347);
#331=STYLED_ITEM('',(#335),#348);
#332=STYLED_ITEM('',(#336),#38);
#333=PRESENTATION_STYLE_ASSIGNMENT((#337));
#334=PRESENTATION_STYLE_ASSIGNMENT((#338));
#335=PRESENTATION_STYLE_ASSIGNMENT((#339));
#336=PRESENTATION_STYLE_ASSIGNMENT((#33));
#337=CURVE_STYLE('',#342,POSITIVE_LENGTH_MEASURE(0.7),#340);
#338=CURVE_STYLE('',#343,POSITIVE_LENGTH_MEASURE(0.7),#340);
#339=CURVE_STYLE('',#344,POSITIVE_LENGTH_MEASURE(0.7),#340);
#340=COLOUR_RGB('Medium Maroon',0.6,0.4,0.4);
#341=COLOUR_RGB('Medium Gray',0.490196078431373,0.490196078431373,0.490196078431373);
#342=DRAUGHTING_PRE_DEFINED_CURVE_FONT('continuous');
#343=DRAUGHTING_PRE_DEFINED_CURVE_FONT('continuous');
#344=DRAUGHTING_PRE_DEFINED_CURVE_FONT('continuous');
#345=AXIS2_PLACEMENT_3D('',#499,#393,#394);
#346=AXIS2_PLACEMENT_3D('PCS',#500,#395,#396);
#347=AXIS2_PLACEMENT_3D('CSW',#501,#397,#398);
#348=AXIS2_PLACEMENT_3D('MCS',#502,#399,#400);
#349=AXIS2_PLACEMENT_3D('',#506,#402,#403);
#350=AXIS2_PLACEMENT_3D('',#510,#405,#406);
#351=AXIS2_PLACEMENT_3D('',#511,#407,#408);
#352=AXIS2_PLACEMENT_3D('',#512,#409,#410);
#353=AXIS2_PLACEMENT_3D('',#513,#411,#412);
#354=AXIS2_PLACEMENT_3D('',#514,#413,#414);
#355=AXIS2_PLACEMENT_3D('',#515,#415,#416);
#356=AXIS2_PLACEMENT_3D('',#516,#417,#418);
#357=AXIS2_PLACEMENT_3D('',#519,#419,#420);
#358=AXIS2_PLACEMENT_3D('',#521,#421,#422);
#359=AXIS2_PLACEMENT_3D('',#523,#423,#424);
#360=AXIS2_PLACEMENT_3D('',#524,#425,#426);
#361=AXIS2_PLACEMENT_3D('',#525,#427,#428);
#362=AXIS2_PLACEMENT_3D('',#527,#429,#430);
#363=AXIS2_PLACEMENT_3D('',#532,#432,#433);
#364=AXIS2_PLACEMENT_3D('',#535,#435,#436);
#365=AXIS2_PLACEMENT_3D('',#537,#438,#439);
#366=AXIS2_PLACEMENT_3D('',#539,#441,#442);
#367=AXIS2_PLACEMENT_3D('',#540,#443,#444);
#368=AXIS2_PLACEMENT_3D('',#541,#445,#446);
#369=AXIS2_PLACEMENT_3D('',#543,#447,#448);
#370=AXIS2_PLACEMENT_3D('',#545,#449,#450);
#371=AXIS2_PLACEMENT_3D('',#546,#451,#452);
#372=AXIS2_PLACEMENT_3D('',#548,#453,#454);
#373=AXIS2_PLACEMENT_3D('',#549,#455,#456);
#374=AXIS2_PLACEMENT_3D('',#551,#457,#458);
#375=AXIS2_PLACEMENT_3D('',#552,#459,#460);
#376=AXIS2_PLACEMENT_3D('',#554,#461,#462);
#377=AXIS2_PLACEMENT_3D('',#556,#463,#464);
#378=AXIS2_PLACEMENT_3D('',#557,#465,#466);
#379=AXIS2_PLACEMENT_3D('',#559,#467,#468);
#380=AXIS2_PLACEMENT_3D('',#560,#469,#470);
#381=AXIS2_PLACEMENT_3D('',#562,#471,#472);
#382=AXIS2_PLACEMENT_3D('',#563,#473,#474);
#383=AXIS2_PLACEMENT_3D('',#564,#475,#476);
#384=AXIS2_PLACEMENT_3D('',#565,#477,#478);
#385=AXIS2_PLACEMENT_3D('',#566,#479,#480);
#386=AXIS2_PLACEMENT_3D('',#567,#481,#482);
#387=AXIS2_PLACEMENT_3D('',#570,#483,#484);
#388=AXIS2_PLACEMENT_3D('',#571,#485,#486);
#389=AXIS2_PLACEMENT_3D('',#572,#487,#488);
#390=AXIS2_PLACEMENT_3D('',#573,#489,#490);
#391=AXIS2_PLACEMENT_3D('',#575,#491,#492);
#392=AXIS2_PLACEMENT_3D('',#586,#497,#498);
#393=DIRECTION('',(0.,0.,1.));
#394=DIRECTION('',(1.,0.,0.));
#395=DIRECTION('',(0.,0.,1.));
#396=DIRECTION('',(1.,0.,0.));
#397=DIRECTION('',(0.,0.,1.));
#398=DIRECTION('',(1.,0.,0.));
#399=DIRECTION('',(0.,0.,1.));
#400=DIRECTION('',(1.,0.,0.));
#401=DIRECTION('',(0.707106781186547,0.,-0.707106781186548));
#402=DIRECTION('',(0.,0.,-1.));
#403=DIRECTION('',(1.,0.,0.));
#404=DIRECTION('',(-0.707106781186547,8.65956056235493E-17,-0.707106781186548));
#405=DIRECTION('',(0.,0.,-1.));
#406=DIRECTION('',(-1.,0.,0.));
#407=DIRECTION('',(0.,0.,1.));
#408=DIRECTION('',(1.,0.,2.69995871747364E-17));
#409=DIRECTION('',(0.,0.,-1.));
#410=DIRECTION('',(1.,0.,0.));
#411=DIRECTION('',(0.,0.,-1.));
#412=DIRECTION('',(-1.,0.,0.));
#413=DIRECTION('',(0.,0.,1.));
#414=DIRECTION('',(1.,0.,2.69995871747364E-17));
#415=DIRECTION('',(0.,0.,-1.));
#416=DIRECTION('',(-1.,0.,0.));
#417=DIRECTION('',(0.,0.,-1.));
#418=DIRECTION('',(1.,0.,0.));
#419=DIRECTION('',(-1.22464679914735E-16,1.,0.));
#420=DIRECTION('',(-1.,-1.22464916869088E-16,0.));
#421=DIRECTION('',(0.,0.,1.));
#422=DIRECTION('',(1.,0.,0.));
#423=DIRECTION('',(0.,-1.,0.));
#424=DIRECTION('',(1.,0.,0.));
#425=DIRECTION('',(0.,0.,-1.));
#426=DIRECTION('',(-1.,0.,0.));
#427=DIRECTION('',(0.,0.,1.));
#428=DIRECTION('',(-1.,0.,0.));
#429=DIRECTION('',(0.,0.,1.));
#430=DIRECTION('',(1.,0.,0.));
#431=DIRECTION('',(0.,0.,1.));
#432=DIRECTION('',(0.,0.,1.));
#433=DIRECTION('',(1.,0.,0.));
#434=DIRECTION('',(0.,0.,1.));
#435=DIRECTION('',(0.,0.,-1.));
#436=DIRECTION('',(-1.,0.,0.));
#437=DIRECTION('',(0.,0.,1.));
#438=DIRECTION('',(0.,0.,-1.));
#439=DIRECTION('',(1.,0.,0.));
#440=DIRECTION('',(0.,0.,1.));
#441=DIRECTION('',(0.,0.,-1.));
#442=DIRECTION('',(-1.,0.,0.));
#443=DIRECTION('',(0.,0.,-1.));
#444=DIRECTION('',(-1.,0.,0.));
#445=DIRECTION('',(0.,0.,-1.));
#446=DIRECTION('',(1.,0.,0.));
#447=DIRECTION('',(0.,0.,1.));
#448=DIRECTION('',(-1.,0.,0.));
#449=DIRECTION('',(0.,0.,1.));
#450=DIRECTION('',(1.,0.,0.));
#451=DIRECTION('',(0.,0.,1.));
#452=DIRECTION('',(-1.,0.,0.));
#453=DIRECTION('',(0.,0.,1.));
#454=DIRECTION('',(1.,0.,-2.53094974530649E-17));
#455=DIRECTION('',(0.,0.,1.));
#456=DIRECTION('',(1.,0.,0.));
#457=DIRECTION('',(0.,0.,-1.));
#458=DIRECTION('',(-1.,0.,0.));
#459=DIRECTION('',(0.,0.,1.));
#460=DIRECTION('',(-1.,0.,0.));
#461=DIRECTION('',(0.,0.,-1.));
#462=DIRECTION('',(-1.,0.,0.));
#463=DIRECTION('',(0.,0.,1.));
#464=DIRECTION('',(1.,0.,0.));
#465=DIRECTION('',(0.,0.,1.));
#466=DIRECTION('',(-1.,0.,0.));
#467=DIRECTION('',(0.,0.,-1.));
#468=DIRECTION('',(-1.,0.,-5.0686615087462E-17));
#469=DIRECTION('',(0.,0.,1.));
#470=DIRECTION('',(-1.,0.,0.));
#471=DIRECTION('',(0.,0.,-1.));
#472=DIRECTION('',(-1.,0.,0.));
#473=DIRECTION('',(0.,0.,1.));
#474=DIRECTION('',(1.,0.,0.));
#475=DIRECTION('',(0.,0.,-1.));
#476=DIRECTION('',(-1.,0.,0.));
#477=DIRECTION('',(0.,0.,1.));
#478=DIRECTION('',(1.,0.,0.));
#479=DIRECTION('',(0.,0.,-1.));
#480=DIRECTION('',(-1.,0.,0.));
#481=DIRECTION('',(0.,0.,1.));
#482=DIRECTION('',(1.,0.,0.));
#483=DIRECTION('',(0.,0.,1.));
#484=DIRECTION('',(1.,0.,0.));
#485=DIRECTION('',(0.,0.,1.));
#486=DIRECTION('',(1.,0.,0.));
#487=DIRECTION('',(0.,0.,-1.));
#488=DIRECTION('',(-1.,0.,0.));
#489=DIRECTION('',(0.,0.,1.));
#490=DIRECTION('',(1.,0.,0.));
#491=DIRECTION('',(0.,0.,1.));
#492=DIRECTION('',(1.,0.,0.));
#493=DIRECTION('',(0.0500368852433455,0.,-0.998747370517262));
#494=DIRECTION('',(0.0500368852433455,6.12775113525664E-18,0.998747370517262));
#495=DIRECTION('',(-0.0500368852433455,0.,0.998747370517262));
#496=DIRECTION('',(-0.0500368852433455,-6.12775113525664E-18,-0.998747370517262));
#497=DIRECTION('',(0.,0.,-1.));
#498=DIRECTION('',(-1.,0.,0.));
#499=CARTESIAN_POINT('',(0.,0.,0.));
#500=CARTESIAN_POINT('',(0.,0.,0.));
#501=CARTESIAN_POINT('',(0.,0.,-100.));
#502=CARTESIAN_POINT('',(0.,0.,0.));
#503=CARTESIAN_POINT('',(-28.,1.24999622180821E-5,-100.));
#504=CARTESIAN_POINT('',(-36.,1.24999622180821E-5,-92.));
#505=CARTESIAN_POINT('',(-28.,1.24999622180821E-5,-100.));
#506=CARTESIAN_POINT('',(-4.55390452019854E-14,1.24999622180821E-5,-92.));
#507=CARTESIAN_POINT('',(35.9999999999999,1.24999622136734E-5,-92.));
#508=CARTESIAN_POINT('',(28.,1.24999622146531E-5,-100.));
#509=CARTESIAN_POINT('',(28.,1.24999622146531E-5,-100.));
#510=CARTESIAN_POINT('',(-4.55390452019854E-14,1.24999622180821E-5,-100.));
#511=CARTESIAN_POINT('',(-4.55390452019854E-14,1.24999622180821E-5,-100.));
#512=CARTESIAN_POINT('',(-4.55390452019854E-14,1.24999622180821E-5,-92.));
#513=CARTESIAN_POINT('',(-4.55390452019854E-14,1.24999622180821E-5,-100.));
#514=CARTESIAN_POINT('',(-4.55390452019854E-14,1.24999622180821E-5,-100.));
#515=CARTESIAN_POINT('',(-4.55390452019854E-14,-27.9999875000378,-100.));
#516=CARTESIAN_POINT('',(-4.55390452019854E-14,1.24999622180821E-5,-31.));
#517=CARTESIAN_POINT('',(-36.,1.24999622136734E-5,-31.));
#518=CARTESIAN_POINT('',(35.9999999999999,1.24999622180821E-5,-31.));
#519=CARTESIAN_POINT('',(-38.,1.24999622134285E-5,-31.));
#520=CARTESIAN_POINT('',(-38.,1.24999622134285E-5,-29.));
#521=CARTESIAN_POINT('',(-4.55390452019854E-14,1.24999622180821E-5,-29.));
#522=CARTESIAN_POINT('',(37.9999999999999,1.24999622180821E-5,-29.));
#523=CARTESIAN_POINT('',(37.9999999999999,1.24999622180821E-5,-31.));
#524=CARTESIAN_POINT('',(-4.55390452019854E-14,1.24999622180821E-5,-31.));
#525=CARTESIAN_POINT('',(-4.55390452019854E-14,1.24999622180821E-5,-16.7524047358084));
#526=CARTESIAN_POINT('',(-50.,1.24999622180821E-5,-16.7524047358084));
#527=CARTESIAN_POINT('',(-4.55390452019854E-14,1.24999622180821E-5,0.));
#528=CARTESIAN_POINT('',(-50.,1.24999622119589E-5,0.));
#529=CARTESIAN_POINT('',(49.9999999999999,1.24999622180821E-5,0.));
#530=CARTESIAN_POINT('',(-50.,1.24999622119589E-5,-104.539422307193));
#531=CARTESIAN_POINT('',(-50.,1.24999621673041E-5,-3.80000033108817));
#532=CARTESIAN_POINT('',(-4.55390452019854E-14,1.24999622180821E-5,0.));
#533=CARTESIAN_POINT('',(49.9999999999999,1.24999622180821E-5,-104.539422307193));
#534=CARTESIAN_POINT('',(49.9999999999999,1.24999621981766E-5,-3.80000017366485));
#535=CARTESIAN_POINT('',(-4.55390452019854E-14,1.24999622180821E-5,-104.539422307193));
#536=CARTESIAN_POINT('',(35.9999999999999,1.24999622180821E-5,-104.539422307193));
#537=CARTESIAN_POINT('',(-4.55390452019854E-14,1.24999622180821E-5,-31.));
#538=CARTESIAN_POINT('',(-36.,1.24999622136734E-5,-104.539422307193));
#539=CARTESIAN_POINT('',(-4.55390452019854E-14,1.24999622180821E-5,-104.539422307193));
#540=CARTESIAN_POINT('',(-4.55390452019854E-14,1.24999622180821E-5,-104.539422307193));
#541=CARTESIAN_POINT('',(-4.55390452019854E-14,1.24999622180821E-5,-18.625));
#542=CARTESIAN_POINT('',(46.,1.24999622180821E-5,-18.625));
#543=CARTESIAN_POINT('',(-4.55390452019854E-14,1.24999622180821E-5,-21.375));
#544=CARTESIAN_POINT('',(-46.,1.24999622180821E-5,-21.375));
#545=CARTESIAN_POINT('',(-4.55390452019854E-14,1.24999622180821E-5,0.));
#546=CARTESIAN_POINT('',(-4.55390452019854E-14,1.24999622180821E-5,-18.125));
#547=CARTESIAN_POINT('',(-47.6225952641917,1.24999622180821E-5,-18.125));
#548=CARTESIAN_POINT('',(-4.55390452019854E-14,1.24999622180821E-5,-16.7524047358084));
#549=CARTESIAN_POINT('',(-4.55390452019854E-14,1.24999622180821E-5,-18.125));
#550=CARTESIAN_POINT('',(46.5,1.24999622180821E-5,-18.125));
#551=CARTESIAN_POINT('',(-4.55390452019854E-14,-47.6225827642294,-18.125));
#552=CARTESIAN_POINT('',(-4.55390452019854E-14,1.24999622180821E-5,-21.875));
#553=CARTESIAN_POINT('',(-47.6225952641917,1.24999622180821E-5,-21.875));
#554=CARTESIAN_POINT('',(-4.55390452019854E-14,1.24999622180821E-5,-21.875));
#555=CARTESIAN_POINT('',(-46.5,1.24999622180821E-5,-21.875));
#556=CARTESIAN_POINT('',(-4.55390452019854E-14,-45.9999875000378,-21.875));
#557=CARTESIAN_POINT('',(-4.55390452019854E-14,1.24999622180821E-5,-23.2475952641916));
#558=CARTESIAN_POINT('',(-50.,1.24999622180821E-5,-23.2475952641916));
#559=CARTESIAN_POINT('',(-4.55390452019854E-14,1.24999622180821E-5,-21.875));
#560=CARTESIAN_POINT('',(-4.55390452019854E-14,1.24999622180821E-5,-29.));
#561=CARTESIAN_POINT('',(-50.,1.24999622180821E-5,-29.));
#562=CARTESIAN_POINT('',(-4.55390452019854E-14,1.24999622180821E-5,-104.539422307193));
#563=CARTESIAN_POINT('',(-4.55390452019854E-14,1.24999622180821E-5,-21.375));
#564=CARTESIAN_POINT('',(-4.55390452019854E-14,1.24999622180821E-5,-18.625));
#565=CARTESIAN_POINT('',(-4.55390452019854E-14,1.24999622180821E-5,-29.));
#566=CARTESIAN_POINT('',(-4.55390452019854E-14,-49.9999875000378,-29.));
#567=CARTESIAN_POINT('',(-4.55390452019854E-14,1.24999622180821E-5,0.));
#568=CARTESIAN_POINT('',(38.000996415314,1.24999622180821E-5,0.));
#569=CARTESIAN_POINT('',(-38.0009964153141,1.24999622180821E-5,0.));
#570=CARTESIAN_POINT('',(-4.55390452019854E-14,1.24999622180821E-5,0.));
#571=CARTESIAN_POINT('',(-4.55390452019854E-14,-39.0542776916935,0.));
#572=CARTESIAN_POINT('',(-4.55390452019854E-14,1.24999622180821E-5,-31.));
#573=CARTESIAN_POINT('',(-4.55390452019854E-14,1.24999622180821E-5,50.));
#574=CARTESIAN_POINT('',(35.4960143387439,1.24999622180821E-5,50.));
#575=CARTESIAN_POINT('',(-4.55390452019854E-14,1.24999622370078E-5,50.));
#576=CARTESIAN_POINT('',(37.9007971322512,1.24999622180821E-5,2.));
#577=CARTESIAN_POINT('',(37.5709639729185,1.24999622367359E-5,8.58354329992407));
#578=CARTESIAN_POINT('',(-37.9007971322513,1.24999622134406E-5,2.));
#579=CARTESIAN_POINT('',(-37.5709639746311,1.24999626319128E-5,8.58354326574272));
#580=CARTESIAN_POINT('',(37.9007971322512,1.24999622180821E-5,2.));
#581=CARTESIAN_POINT('',(36.9262511938535,1.24999622225536E-5,21.452153919841));
#582=CARTESIAN_POINT('',(36.2475089617149,1.24999622180821E-5,35.));
#583=CARTESIAN_POINT('',(-37.9007971322513,1.24999622134406E-5,2.));
#584=CARTESIAN_POINT('',(-35.997010754058,1.24999622136738E-5,40.));
#585=CARTESIAN_POINT('',(-36.9262511951701,1.24999660517541E-5,21.4521538935618));
#586=CARTESIAN_POINT('',(-4.55390452019854E-14,1.24999622180821E-5,2.));
#587=MECHANICAL_DESIGN_GEOMETRIC_PRESENTATION_REPRESENTATION('',(#329,#330,
#331,#332),#588);
#588=(
GEOMETRIC_REPRESENTATION_CONTEXT(3)
GLOBAL_UNCERTAINTY_ASSIGNED_CONTEXT((#589))
GLOBAL_UNIT_ASSIGNED_CONTEXT((#595,#591,#590))
REPRESENTATION_CONTEXT('HSK.100A-W.32','TOP_LEVEL_ASSEMBLY_PART')
);
#589=UNCERTAINTY_MEASURE_WITH_UNIT(LENGTH_MEASURE(2.E-5),#595,
'DISTANCE_ACCURACY_VALUE','Maximum Tolerance applied to model');
#590=(
NAMED_UNIT(*)
SI_UNIT($,.STERADIAN.)
SOLID_ANGLE_UNIT()
);
#591=(
CONVERSION_BASED_UNIT('DEGREE',#593)
NAMED_UNIT(#592)
PLANE_ANGLE_UNIT()
);
#592=DIMENSIONAL_EXPONENTS(0.,0.,0.,0.,0.,0.,0.);
#593=PLANE_ANGLE_MEASURE_WITH_UNIT(PLANE_ANGLE_MEASURE(0.0174532925),#594);
#594=(
NAMED_UNIT(*)
PLANE_ANGLE_UNIT()
SI_UNIT($,.RADIAN.)
);
#595=(
LENGTH_UNIT()
NAMED_UNIT(*)
SI_UNIT(.MILLI.,.METRE.)
);
ENDSEC;
END-ISO-10303-21;
