ISO-10303-21;
HEADER;
/* Generated by software containing ST-Developer
 * from STEP Tools, Inc. (www.steptools.com) 
 */
/* OPTION: using custom schema-name function */

FILE_DESCRIPTION(
/* description */ (''),
/* implementation_level */ '2;1');

FILE_NAME(
/* name */ 'HSK.100A-W.12.080.C.stp',
/* time_stamp */ '2024-07-21T10:07:59+02:00',
/* author */ (''),
/* organization */ (''),
/* preprocessor_version */ 'ST-DEVELOPER v16.7',
/* originating_system */ 'SIEMENS PLM Software NX 12.0',
/* authorisation */ '');

FILE_SCHEMA (('AUTOMOTIVE_DESIGN { 1 0 10303 214 3 1 1 1 }'));
ENDSEC;

DATA;
#10=CONSTRUCTIVE_GEOMETRY_REPRESENTATION_RELATIONSHIP(
'supplemental geometry','',#32,#11);
#11=CONSTRUCTIVE_GEOMETRY_REPRESENTATION('supplemental geometry',(#346,
#347,#348),#588);
#12=PROPERTY_DEFINITION_REPRESENTATION(#16,#14);
#13=PROPERTY_DEFINITION_REPRESENTATION(#17,#15);
#14=REPRESENTATION('',(#18),#588);
#15=REPRESENTATION('',(#19),#588);
#16=PROPERTY_DEFINITION('pmi validation property','',#23);
#17=PROPERTY_DEFINITION('pmi validation property','',#23);
#18=VALUE_REPRESENTATION_ITEM('number of annotations',COUNT_MEASURE(0.));
#19=VALUE_REPRESENTATION_ITEM('number of views',COUNT_MEASURE(0.));
#20=SHAPE_REPRESENTATION_RELATIONSHIP('None',
'relationship between pf6612088076yo05-None and pf6612088076yo05-None',
#32,#21);
#21=ADVANCED_BREP_SHAPE_REPRESENTATION('pf6612088076yo05-None',(#38),#588);
#22=SHAPE_DEFINITION_REPRESENTATION(#23,#32);
#23=PRODUCT_DEFINITION_SHAPE('','',#24);
#24=PRODUCT_DEFINITION(' ','',#26,#25);
#25=PRODUCT_DEFINITION_CONTEXT('part definition',#31,'design');
#26=PRODUCT_DEFINITION_FORMATION_WITH_SPECIFIED_SOURCE(' ',' ',#28,
 .NOT_KNOWN.);
#27=PRODUCT_RELATED_PRODUCT_CATEGORY('part','',(#28));
#28=PRODUCT('pf6612088076yo05','pf6612088076yo05',' ',(#29));
#29=PRODUCT_CONTEXT(' ',#31,'mechanical');
#30=APPLICATION_PROTOCOL_DEFINITION('international standard',
'automotive_design',2010,#31);
#31=APPLICATION_CONTEXT(
'core data for automotive mechanical design processes');
#32=SHAPE_REPRESENTATION('pf6612088076yo05-None',(#345),#588);
#33=SURFACE_STYLE_USAGE(.BOTH.,#34);
#34=SURFACE_SIDE_STYLE('',(#35));
#35=SURFACE_STYLE_FILL_AREA(#36);
#36=FILL_AREA_STYLE('',(#37));
#37=FILL_AREA_STYLE_COLOUR('',#341);
#38=MANIFOLD_SOLID_BREP('\X\B0\X2\014100AE0106\X0\-\X\A6\X2\016E015E0158\X0\9',
#39);
#39=CLOSED_SHELL('',(#102,#103,#104,#105,#106,#107,#108,#109,#110,#111,
#112,#113,#114,#115,#116,#117,#118,#119,#120,#121));
#40=PLANE('',#373);
#41=PLANE('',#376);
#42=PLANE('',#378);
#43=PLANE('',#383);
#44=PLANE('',#387);
#45=PLANE('',#391);
#46=CYLINDRICAL_SURFACE('',#360,50.);
#47=CYLINDRICAL_SURFACE('',#362,21.);
#48=CYLINDRICAL_SURFACE('',#369,46.);
#49=CYLINDRICAL_SURFACE('',#371,21.);
#50=CYLINDRICAL_SURFACE('',#384,50.);
#51=FACE_BOUND('',#136,.T.);
#52=FACE_BOUND('',#137,.T.);
#53=FACE_BOUND('',#139,.T.);
#54=FACE_BOUND('',#140,.T.);
#55=FACE_BOUND('',#141,.T.);
#56=FACE_BOUND('',#142,.T.);
#57=FACE_BOUND('',#143,.T.);
#58=FACE_BOUND('',#144,.T.);
#59=FACE_BOUND('',#147,.T.);
#60=FACE_BOUND('',#148,.T.);
#61=FACE_BOUND('',#149,.T.);
#62=FACE_BOUND('',#150,.T.);
#63=FACE_BOUND('',#151,.T.);
#64=FACE_BOUND('',#152,.T.);
#65=FACE_BOUND('',#153,.T.);
#66=FACE_BOUND('',#154,.T.);
#67=FACE_BOUND('',#155,.T.);
#68=FACE_BOUND('',#156,.T.);
#69=FACE_BOUND('',#157,.T.);
#70=FACE_BOUND('',#158,.T.);
#71=FACE_BOUND('',#159,.T.);
#72=FACE_BOUND('',#160,.T.);
#73=FACE_BOUND('',#164,.T.);
#74=FACE_BOUND('',#165,.T.);
#75=FACE_BOUND('',#166,.T.);
#76=FACE_BOUND('',#167,.T.);
#77=CONICAL_SURFACE('',#356,15.,24.9999999999999);
#78=CONICAL_SURFACE('',#375,50.,60.0000000000002);
#79=CONICAL_SURFACE('',#380,47.6225952641916,60.0000000000002);
#80=CONICAL_SURFACE('',#388,15.,24.9999999999999);
#81=CONICAL_SURFACE('',#392,37.9007971322512,2.8681);
#82=LINE('',#515,#92);
#83=LINE('',#519,#93);
#84=LINE('',#526,#94);
#85=LINE('',#529,#95);
#86=LINE('',#533,#96);
#87=LINE('',#534,#97);
#88=LINE('',#576,#98);
#89=LINE('',#578,#99);
#90=LINE('',#580,#100);
#91=LINE('',#583,#101);
#92=VECTOR('',#413,1.);
#93=VECTOR('',#416,1.);
#94=VECTOR('',#423,1.);
#95=VECTOR('',#426,1.);
#96=VECTOR('',#431,1.);
#97=VECTOR('',#432,1.);
#98=VECTOR('',#493,1.);
#99=VECTOR('',#494,1.);
#100=VECTOR('',#495,1.);
#101=VECTOR('',#496,1.);
#102=ADVANCED_FACE('',(#126),#122,.F.);
#103=ADVANCED_FACE('',(#127),#77,.T.);
#104=ADVANCED_FACE('',(#51,#52),#46,.T.);
#105=ADVANCED_FACE('',(#128),#47,.T.);
#106=ADVANCED_FACE('',(#53,#54),#123,.F.);
#107=ADVANCED_FACE('',(#55,#56),#124,.F.);
#108=ADVANCED_FACE('',(#57,#58),#48,.T.);
#109=ADVANCED_FACE('',(#129),#49,.T.);
#110=ADVANCED_FACE('',(#130),#40,.T.);
#111=ADVANCED_FACE('',(#59,#60),#78,.T.);
#112=ADVANCED_FACE('',(#61,#62),#41,.T.);
#113=ADVANCED_FACE('',(#63,#64),#42,.T.);
#114=ADVANCED_FACE('',(#65,#66),#79,.T.);
#115=ADVANCED_FACE('',(#67,#68),#43,.T.);
#116=ADVANCED_FACE('',(#69,#70),#50,.T.);
#117=ADVANCED_FACE('',(#71,#72),#44,.T.);
#118=ADVANCED_FACE('',(#131),#80,.T.);
#119=ADVANCED_FACE('',(#132),#125,.F.);
#120=ADVANCED_FACE('',(#133),#45,.T.);
#121=ADVANCED_FACE('',(#73,#74,#75,#76),#81,.T.);
#122=TOROIDAL_SURFACE('',#353,26.,5.);
#123=TOROIDAL_SURFACE('',#365,46.5,0.5);
#124=TOROIDAL_SURFACE('',#368,46.5,0.5);
#125=TOROIDAL_SURFACE('',#389,26.,5.);
#126=FACE_OUTER_BOUND('',#134,.T.);
#127=FACE_OUTER_BOUND('',#135,.T.);
#128=FACE_OUTER_BOUND('',#138,.T.);
#129=FACE_OUTER_BOUND('',#145,.T.);
#130=FACE_OUTER_BOUND('',#146,.T.);
#131=FACE_OUTER_BOUND('',#161,.T.);
#132=FACE_OUTER_BOUND('',#162,.T.);
#133=FACE_OUTER_BOUND('',#163,.T.);
#134=EDGE_LOOP('',(#168,#169,#170,#171));
#135=EDGE_LOOP('',(#172,#173,#174,#175));
#136=EDGE_LOOP('',(#176));
#137=EDGE_LOOP('',(#177,#178,#179,#180,#181,#182));
#138=EDGE_LOOP('',(#183,#184,#185,#186));
#139=EDGE_LOOP('',(#187));
#140=EDGE_LOOP('',(#188));
#141=EDGE_LOOP('',(#189));
#142=EDGE_LOOP('',(#190));
#143=EDGE_LOOP('',(#191));
#144=EDGE_LOOP('',(#192));
#145=EDGE_LOOP('',(#193,#194,#195,#196));
#146=EDGE_LOOP('',(#197,#198));
#147=EDGE_LOOP('',(#199));
#148=EDGE_LOOP('',(#200));
#149=EDGE_LOOP('',(#201));
#150=EDGE_LOOP('',(#202));
#151=EDGE_LOOP('',(#203));
#152=EDGE_LOOP('',(#204));
#153=EDGE_LOOP('',(#205));
#154=EDGE_LOOP('',(#206));
#155=EDGE_LOOP('',(#207));
#156=EDGE_LOOP('',(#208,#209));
#157=EDGE_LOOP('',(#210));
#158=EDGE_LOOP('',(#211));
#159=EDGE_LOOP('',(#212,#213));
#160=EDGE_LOOP('',(#214,#215));
#161=EDGE_LOOP('',(#216,#217,#218,#219));
#162=EDGE_LOOP('',(#220,#221,#222,#223));
#163=EDGE_LOOP('',(#224));
#164=EDGE_LOOP('',(#225,#226,#227,#228,#229,#230));
#165=EDGE_LOOP('',(#231,#232));
#166=EDGE_LOOP('',(#233));
#167=EDGE_LOOP('',(#234,#235));
#168=ORIENTED_EDGE('',*,*,#266,.F.);
#169=ORIENTED_EDGE('',*,*,#267,.T.);
#170=ORIENTED_EDGE('',*,*,#268,.F.);
#171=ORIENTED_EDGE('',*,*,#269,.F.);
#172=ORIENTED_EDGE('',*,*,#270,.F.);
#173=ORIENTED_EDGE('',*,*,#271,.F.);
#174=ORIENTED_EDGE('',*,*,#272,.F.);
#175=ORIENTED_EDGE('',*,*,#273,.T.);
#176=ORIENTED_EDGE('',*,*,#274,.T.);
#177=ORIENTED_EDGE('',*,*,#275,.F.);
#178=ORIENTED_EDGE('',*,*,#276,.T.);
#179=ORIENTED_EDGE('',*,*,#276,.F.);
#180=ORIENTED_EDGE('',*,*,#277,.F.);
#181=ORIENTED_EDGE('',*,*,#278,.T.);
#182=ORIENTED_EDGE('',*,*,#278,.F.);
#183=ORIENTED_EDGE('',*,*,#279,.T.);
#184=ORIENTED_EDGE('',*,*,#280,.T.);
#185=ORIENTED_EDGE('',*,*,#272,.T.);
#186=ORIENTED_EDGE('',*,*,#281,.F.);
#187=ORIENTED_EDGE('',*,*,#282,.F.);
#188=ORIENTED_EDGE('',*,*,#283,.F.);
#189=ORIENTED_EDGE('',*,*,#284,.F.);
#190=ORIENTED_EDGE('',*,*,#285,.F.);
#191=ORIENTED_EDGE('',*,*,#285,.T.);
#192=ORIENTED_EDGE('',*,*,#282,.T.);
#193=ORIENTED_EDGE('',*,*,#280,.F.);
#194=ORIENTED_EDGE('',*,*,#266,.T.);
#195=ORIENTED_EDGE('',*,*,#281,.T.);
#196=ORIENTED_EDGE('',*,*,#286,.T.);
#197=ORIENTED_EDGE('',*,*,#270,.T.);
#198=ORIENTED_EDGE('',*,*,#287,.T.);
#199=ORIENTED_EDGE('',*,*,#288,.T.);
#200=ORIENTED_EDGE('',*,*,#274,.F.);
#201=ORIENTED_EDGE('',*,*,#288,.F.);
#202=ORIENTED_EDGE('',*,*,#284,.T.);
#203=ORIENTED_EDGE('',*,*,#283,.T.);
#204=ORIENTED_EDGE('',*,*,#289,.T.);
#205=ORIENTED_EDGE('',*,*,#289,.F.);
#206=ORIENTED_EDGE('',*,*,#290,.T.);
#207=ORIENTED_EDGE('',*,*,#291,.T.);
#208=ORIENTED_EDGE('',*,*,#268,.T.);
#209=ORIENTED_EDGE('',*,*,#292,.T.);
#210=ORIENTED_EDGE('',*,*,#290,.F.);
#211=ORIENTED_EDGE('',*,*,#291,.F.);
#212=ORIENTED_EDGE('',*,*,#293,.F.);
#213=ORIENTED_EDGE('',*,*,#294,.F.);
#214=ORIENTED_EDGE('',*,*,#275,.T.);
#215=ORIENTED_EDGE('',*,*,#277,.T.);
#216=ORIENTED_EDGE('',*,*,#271,.T.);
#217=ORIENTED_EDGE('',*,*,#287,.F.);
#218=ORIENTED_EDGE('',*,*,#273,.F.);
#219=ORIENTED_EDGE('',*,*,#286,.F.);
#220=ORIENTED_EDGE('',*,*,#267,.F.);
#221=ORIENTED_EDGE('',*,*,#279,.F.);
#222=ORIENTED_EDGE('',*,*,#269,.T.);
#223=ORIENTED_EDGE('',*,*,#292,.F.);
#224=ORIENTED_EDGE('',*,*,#295,.T.);
#225=ORIENTED_EDGE('',*,*,#296,.T.);
#226=ORIENTED_EDGE('',*,*,#296,.F.);
#227=ORIENTED_EDGE('',*,*,#294,.T.);
#228=ORIENTED_EDGE('',*,*,#297,.T.);
#229=ORIENTED_EDGE('',*,*,#297,.F.);
#230=ORIENTED_EDGE('',*,*,#293,.T.);
#231=ORIENTED_EDGE('',*,*,#298,.T.);
#232=ORIENTED_EDGE('',*,*,#298,.F.);
#233=ORIENTED_EDGE('',*,*,#295,.F.);
#234=ORIENTED_EDGE('',*,*,#299,.F.);
#235=ORIENTED_EDGE('',*,*,#299,.T.);
#236=VERTEX_POINT('',#504);
#237=VERTEX_POINT('',#505);
#238=VERTEX_POINT('',#507);
#239=VERTEX_POINT('',#509);
#240=VERTEX_POINT('',#513);
#241=VERTEX_POINT('',#514);
#242=VERTEX_POINT('',#516);
#243=VERTEX_POINT('',#518);
#244=VERTEX_POINT('',#522);
#245=VERTEX_POINT('',#524);
#246=VERTEX_POINT('',#525);
#247=VERTEX_POINT('',#527);
#248=VERTEX_POINT('',#530);
#249=VERTEX_POINT('',#537);
#250=VERTEX_POINT('',#539);
#251=VERTEX_POINT('',#542);
#252=VERTEX_POINT('',#544);
#253=VERTEX_POINT('',#552);
#254=VERTEX_POINT('',#556);
#255=VERTEX_POINT('',#559);
#256=VERTEX_POINT('',#562);
#257=VERTEX_POINT('',#567);
#258=VERTEX_POINT('',#568);
#259=VERTEX_POINT('',#574);
#260=VERTEX_POINT('',#577);
#261=VERTEX_POINT('',#579);
#262=VERTEX_POINT('',#581);
#263=VERTEX_POINT('',#582);
#264=VERTEX_POINT('',#584);
#265=VERTEX_POINT('',#585);
#266=EDGE_CURVE('',#236,#237,#300,.T.);
#267=EDGE_CURVE('',#236,#238,#301,.T.);
#268=EDGE_CURVE('',#239,#238,#302,.T.);
#269=EDGE_CURVE('',#237,#239,#303,.T.);
#270=EDGE_CURVE('',#240,#241,#304,.T.);
#271=EDGE_CURVE('',#242,#240,#82,.T.);
#272=EDGE_CURVE('',#243,#242,#305,.T.);
#273=EDGE_CURVE('',#243,#241,#83,.T.);
#274=EDGE_CURVE('',#244,#244,#306,.T.);
#275=EDGE_CURVE('',#245,#246,#307,.T.);
#276=EDGE_CURVE('',#245,#247,#84,.T.);
#277=EDGE_CURVE('',#246,#245,#308,.T.);
#278=EDGE_CURVE('',#246,#248,#85,.T.);
#279=EDGE_CURVE('',#237,#236,#309,.T.);
#280=EDGE_CURVE('',#236,#243,#86,.T.);
#281=EDGE_CURVE('',#237,#242,#87,.T.);
#282=EDGE_CURVE('',#249,#249,#310,.T.);
#283=EDGE_CURVE('',#250,#250,#311,.T.);
#284=EDGE_CURVE('',#251,#251,#312,.T.);
#285=EDGE_CURVE('',#252,#252,#313,.T.);
#286=EDGE_CURVE('',#242,#243,#314,.T.);
#287=EDGE_CURVE('',#241,#240,#315,.T.);
#288=EDGE_CURVE('',#253,#253,#316,.T.);
#289=EDGE_CURVE('',#254,#254,#317,.T.);
#290=EDGE_CURVE('',#255,#255,#318,.T.);
#291=EDGE_CURVE('',#256,#256,#319,.T.);
#292=EDGE_CURVE('',#238,#239,#320,.T.);
#293=EDGE_CURVE('',#257,#258,#321,.T.);
#294=EDGE_CURVE('',#258,#257,#322,.T.);
#295=EDGE_CURVE('',#259,#259,#323,.T.);
#296=EDGE_CURVE('',#258,#260,#88,.T.);
#297=EDGE_CURVE('',#257,#261,#89,.T.);
#298=EDGE_CURVE('',#262,#263,#90,.T.);
#299=EDGE_CURVE('',#264,#265,#91,.T.);
#300=CIRCLE('',#349,21.);
#301=CIRCLE('',#350,5.);
#302=CIRCLE('',#351,26.);
#303=CIRCLE('',#352,5.);
#304=CIRCLE('',#354,15.);
#305=CIRCLE('',#355,21.);
#306=CIRCLE('',#357,50.);
#307=CIRCLE('',#358,50.);
#308=CIRCLE('',#359,50.);
#309=CIRCLE('',#361,21.);
#310=CIRCLE('',#363,46.);
#311=CIRCLE('',#364,46.5);
#312=CIRCLE('',#366,46.5);
#313=CIRCLE('',#367,46.);
#314=CIRCLE('',#370,21.);
#315=CIRCLE('',#372,15.);
#316=CIRCLE('',#374,47.6225952641916);
#317=CIRCLE('',#377,47.6225952641916);
#318=CIRCLE('',#379,50.);
#319=CIRCLE('',#381,50.);
#320=CIRCLE('',#382,26.);
#321=CIRCLE('',#385,38.000996415314);
#322=CIRCLE('',#386,38.000996415314);
#323=CIRCLE('',#390,35.4960143387439);
#324=INVISIBILITY((#325,#326,#327,#328));
#325=PRESENTATION_LAYER_ASSIGNMENT('100','Layer 100',(#346));
#326=PRESENTATION_LAYER_ASSIGNMENT('101','Layer 101',(#347));
#327=PRESENTATION_LAYER_ASSIGNMENT('102','Layer 102',(#348));
#328=PRESENTATION_LAYER_ASSIGNMENT('98','Layer 98',(#38));
#329=STYLED_ITEM('',(#333),#346);
#330=STYLED_ITEM('',(#334),#347);
#331=STYLED_ITEM('',(#335),#348);
#332=STYLED_ITEM('',(#336),#38);
#333=PRESENTATION_STYLE_ASSIGNMENT((#337));
#334=PRESENTATION_STYLE_ASSIGNMENT((#338));
#335=PRESENTATION_STYLE_ASSIGNMENT((#339));
#336=PRESENTATION_STYLE_ASSIGNMENT((#33));
#337=CURVE_STYLE('',#342,POSITIVE_LENGTH_MEASURE(0.7),#340);
#338=CURVE_STYLE('',#343,POSITIVE_LENGTH_MEASURE(0.7),#340);
#339=CURVE_STYLE('',#344,POSITIVE_LENGTH_MEASURE(0.7),#340);
#340=COLOUR_RGB('Medium Maroon',0.6,0.4,0.4);
#341=COLOUR_RGB('Medium Gray',0.490196078431373,0.490196078431373,0.490196078431373);
#342=DRAUGHTING_PRE_DEFINED_CURVE_FONT('continuous');
#343=DRAUGHTING_PRE_DEFINED_CURVE_FONT('continuous');
#344=DRAUGHTING_PRE_DEFINED_CURVE_FONT('continuous');
#345=AXIS2_PLACEMENT_3D('',#499,#393,#394);
#346=AXIS2_PLACEMENT_3D('PCS',#500,#395,#396);
#347=AXIS2_PLACEMENT_3D('CSW',#501,#397,#398);
#348=AXIS2_PLACEMENT_3D('MCS',#502,#399,#400);
#349=AXIS2_PLACEMENT_3D('',#503,#401,#402);
#350=AXIS2_PLACEMENT_3D('',#506,#403,#404);
#351=AXIS2_PLACEMENT_3D('',#508,#405,#406);
#352=AXIS2_PLACEMENT_3D('',#510,#407,#408);
#353=AXIS2_PLACEMENT_3D('',#511,#409,#410);
#354=AXIS2_PLACEMENT_3D('',#512,#411,#412);
#355=AXIS2_PLACEMENT_3D('',#517,#414,#415);
#356=AXIS2_PLACEMENT_3D('',#520,#417,#418);
#357=AXIS2_PLACEMENT_3D('',#521,#419,#420);
#358=AXIS2_PLACEMENT_3D('',#523,#421,#422);
#359=AXIS2_PLACEMENT_3D('',#528,#424,#425);
#360=AXIS2_PLACEMENT_3D('',#531,#427,#428);
#361=AXIS2_PLACEMENT_3D('',#532,#429,#430);
#362=AXIS2_PLACEMENT_3D('',#535,#433,#434);
#363=AXIS2_PLACEMENT_3D('',#536,#435,#436);
#364=AXIS2_PLACEMENT_3D('',#538,#437,#438);
#365=AXIS2_PLACEMENT_3D('',#540,#439,#440);
#366=AXIS2_PLACEMENT_3D('',#541,#441,#442);
#367=AXIS2_PLACEMENT_3D('',#543,#443,#444);
#368=AXIS2_PLACEMENT_3D('',#545,#445,#446);
#369=AXIS2_PLACEMENT_3D('',#546,#447,#448);
#370=AXIS2_PLACEMENT_3D('',#547,#449,#450);
#371=AXIS2_PLACEMENT_3D('',#548,#451,#452);
#372=AXIS2_PLACEMENT_3D('',#549,#453,#454);
#373=AXIS2_PLACEMENT_3D('',#550,#455,#456);
#374=AXIS2_PLACEMENT_3D('',#551,#457,#458);
#375=AXIS2_PLACEMENT_3D('',#553,#459,#460);
#376=AXIS2_PLACEMENT_3D('',#554,#461,#462);
#377=AXIS2_PLACEMENT_3D('',#555,#463,#464);
#378=AXIS2_PLACEMENT_3D('',#557,#465,#466);
#379=AXIS2_PLACEMENT_3D('',#558,#467,#468);
#380=AXIS2_PLACEMENT_3D('',#560,#469,#470);
#381=AXIS2_PLACEMENT_3D('',#561,#471,#472);
#382=AXIS2_PLACEMENT_3D('',#563,#473,#474);
#383=AXIS2_PLACEMENT_3D('',#564,#475,#476);
#384=AXIS2_PLACEMENT_3D('',#565,#477,#478);
#385=AXIS2_PLACEMENT_3D('',#566,#479,#480);
#386=AXIS2_PLACEMENT_3D('',#569,#481,#482);
#387=AXIS2_PLACEMENT_3D('',#570,#483,#484);
#388=AXIS2_PLACEMENT_3D('',#571,#485,#486);
#389=AXIS2_PLACEMENT_3D('',#572,#487,#488);
#390=AXIS2_PLACEMENT_3D('',#573,#489,#490);
#391=AXIS2_PLACEMENT_3D('',#575,#491,#492);
#392=AXIS2_PLACEMENT_3D('',#586,#497,#498);
#393=DIRECTION('',(0.,0.,1.));
#394=DIRECTION('',(1.,0.,0.));
#395=DIRECTION('',(0.,0.,1.));
#396=DIRECTION('',(1.,0.,0.));
#397=DIRECTION('',(0.,0.,1.));
#398=DIRECTION('',(1.,0.,0.));
#399=DIRECTION('',(0.,0.,1.));
#400=DIRECTION('',(1.,0.,0.));
#401=DIRECTION('',(0.,0.,-1.));
#402=DIRECTION('',(1.,0.,0.));
#403=DIRECTION('',(1.22464679914735E-16,-1.,0.));
#404=DIRECTION('',(-1.,-1.22464751432966E-16,0.));
#405=DIRECTION('',(0.,0.,1.));
#406=DIRECTION('',(1.,0.,0.));
#407=DIRECTION('',(0.,1.,0.));
#408=DIRECTION('',(1.,0.,0.));
#409=DIRECTION('',(0.,0.,-1.));
#410=DIRECTION('',(-1.,0.,0.));
#411=DIRECTION('',(0.,0.,-1.));
#412=DIRECTION('',(-1.,0.,0.));
#413=DIRECTION('',(-0.422618261740697,5.17558101501963E-17,-0.906307787036651));
#414=DIRECTION('',(0.,0.,1.));
#415=DIRECTION('',(1.,0.,0.));
#416=DIRECTION('',(0.422618261740697,0.,-0.906307787036651));
#417=DIRECTION('',(0.,0.,1.));
#418=DIRECTION('',(1.,0.,8.65005214814932E-17));
#419=DIRECTION('',(0.,0.,1.));
#420=DIRECTION('',(-1.,0.,0.));
#421=DIRECTION('',(0.,0.,1.));
#422=DIRECTION('',(1.,0.,0.));
#423=DIRECTION('',(0.,0.,-1.));
#424=DIRECTION('',(0.,0.,1.));
#425=DIRECTION('',(1.,0.,0.));
#426=DIRECTION('',(0.,0.,-1.));
#427=DIRECTION('',(0.,0.,-1.));
#428=DIRECTION('',(-1.,0.,0.));
#429=DIRECTION('',(0.,0.,-1.));
#430=DIRECTION('',(1.,0.,0.));
#431=DIRECTION('',(0.,0.,-1.));
#432=DIRECTION('',(0.,0.,-1.));
#433=DIRECTION('',(0.,0.,-1.));
#434=DIRECTION('',(-1.,0.,0.));
#435=DIRECTION('',(0.,0.,1.));
#436=DIRECTION('',(-1.,0.,0.));
#437=DIRECTION('',(0.,0.,-1.));
#438=DIRECTION('',(-1.,0.,0.));
#439=DIRECTION('',(0.,0.,1.));
#440=DIRECTION('',(1.,0.,0.));
#441=DIRECTION('',(0.,0.,1.));
#442=DIRECTION('',(1.,0.,0.));
#443=DIRECTION('',(0.,0.,-1.));
#444=DIRECTION('',(1.,0.,0.));
#445=DIRECTION('',(0.,0.,-1.));
#446=DIRECTION('',(-1.,0.,0.));
#447=DIRECTION('',(0.,0.,1.));
#448=DIRECTION('',(1.,0.,0.));
#449=DIRECTION('',(0.,0.,1.));
#450=DIRECTION('',(1.,0.,0.));
#451=DIRECTION('',(0.,0.,-1.));
#452=DIRECTION('',(-1.,0.,0.));
#453=DIRECTION('',(0.,0.,-1.));
#454=DIRECTION('',(-1.,0.,0.));
#455=DIRECTION('',(0.,0.,-1.));
#456=DIRECTION('',(-1.,0.,0.));
#457=DIRECTION('',(0.,0.,1.));
#458=DIRECTION('',(-1.,0.,0.));
#459=DIRECTION('',(0.,0.,1.));
#460=DIRECTION('',(1.,0.,-2.53094974530649E-17));
#461=DIRECTION('',(0.,0.,-1.));
#462=DIRECTION('',(-1.,0.,0.));
#463=DIRECTION('',(0.,0.,1.));
#464=DIRECTION('',(-1.,0.,0.));
#465=DIRECTION('',(0.,0.,1.));
#466=DIRECTION('',(1.,0.,0.));
#467=DIRECTION('',(0.,0.,1.));
#468=DIRECTION('',(-1.,0.,0.));
#469=DIRECTION('',(0.,0.,-1.));
#470=DIRECTION('',(-1.,0.,-5.0686615087462E-17));
#471=DIRECTION('',(0.,0.,-1.));
#472=DIRECTION('',(-1.,0.,0.));
#473=DIRECTION('',(0.,0.,1.));
#474=DIRECTION('',(1.,0.,0.));
#475=DIRECTION('',(0.,0.,-1.));
#476=DIRECTION('',(-1.,0.,0.));
#477=DIRECTION('',(0.,0.,-1.));
#478=DIRECTION('',(-1.,0.,0.));
#479=DIRECTION('',(0.,0.,1.));
#480=DIRECTION('',(1.,0.,0.));
#481=DIRECTION('',(0.,0.,1.));
#482=DIRECTION('',(1.,0.,0.));
#483=DIRECTION('',(0.,0.,1.));
#484=DIRECTION('',(1.,0.,0.));
#485=DIRECTION('',(0.,0.,1.));
#486=DIRECTION('',(1.,0.,8.65005214814932E-17));
#487=DIRECTION('',(0.,0.,-1.));
#488=DIRECTION('',(-1.,0.,0.));
#489=DIRECTION('',(0.,0.,1.));
#490=DIRECTION('',(1.,0.,0.));
#491=DIRECTION('',(0.,0.,1.));
#492=DIRECTION('',(1.,0.,0.));
#493=DIRECTION('',(-0.0500368852433455,0.,0.998747370517262));
#494=DIRECTION('',(0.0500368852433455,6.12775113525664E-18,0.998747370517262));
#495=DIRECTION('',(0.0500368852433455,0.,-0.998747370517262));
#496=DIRECTION('',(-0.0500368852433455,-6.12775113525664E-18,-0.998747370517262));
#497=DIRECTION('',(0.,0.,-1.));
#498=DIRECTION('',(-1.,0.,0.));
#499=CARTESIAN_POINT('',(0.,0.,0.));
#500=CARTESIAN_POINT('',(0.,0.,0.));
#501=CARTESIAN_POINT('',(0.,0.,-80.));
#502=CARTESIAN_POINT('',(0.,0.,0.));
#503=CARTESIAN_POINT('',(-1.07802450728147E-14,1.24999622180821E-5,-34.));
#504=CARTESIAN_POINT('',(-21.,1.24999622155104E-5,-34.));
#505=CARTESIAN_POINT('',(21.,1.24999622180821E-5,-34.));
#506=CARTESIAN_POINT('',(-26.,1.24999622148981E-5,-34.));
#507=CARTESIAN_POINT('',(-26.,1.24999622148981E-5,-29.));
#508=CARTESIAN_POINT('',(-1.07802450728147E-14,1.24999622180821E-5,-29.));
#509=CARTESIAN_POINT('',(26.,1.24999622180821E-5,-29.));
#510=CARTESIAN_POINT('',(26.,1.24999622180821E-5,-34.));
#511=CARTESIAN_POINT('',(-1.07802450728147E-14,1.24999622180821E-5,-34.));
#512=CARTESIAN_POINT('',(-1.07802450728147E-14,1.24999622180821E-5,-80.));
#513=CARTESIAN_POINT('',(15.,1.24999622162452E-5,-80.));
#514=CARTESIAN_POINT('',(-15.,1.24999622180821E-5,-80.));
#515=CARTESIAN_POINT('',(15.,1.24999622162452E-5,-80.));
#516=CARTESIAN_POINT('',(21.,1.24999622167963E-5,-67.1329584769426));
#517=CARTESIAN_POINT('',(-1.07802450728147E-14,1.24999622180821E-5,-67.1329584769426));
#518=CARTESIAN_POINT('',(-21.,1.24999622167963E-5,-67.1329584769426));
#519=CARTESIAN_POINT('',(-15.,1.24999622180821E-5,-80.));
#520=CARTESIAN_POINT('',(-1.07802450728147E-14,1.24999622180821E-5,-80.));
#521=CARTESIAN_POINT('',(-1.07802450728147E-14,1.24999622180821E-5,-16.7524047358084));
#522=CARTESIAN_POINT('',(-50.,1.24999622180821E-5,-16.7524047358084));
#523=CARTESIAN_POINT('',(-1.07802450728147E-14,1.24999622180821E-5,0.));
#524=CARTESIAN_POINT('',(-50.,1.24999622119589E-5,0.));
#525=CARTESIAN_POINT('',(50.,1.24999622180821E-5,0.));
#526=CARTESIAN_POINT('',(-50.,1.24999622119589E-5,-104.539422307193));
#527=CARTESIAN_POINT('',(-50.,1.24999621560268E-5,-3.80000033108811));
#528=CARTESIAN_POINT('',(-1.07802450728147E-14,1.24999622180821E-5,0.));
#529=CARTESIAN_POINT('',(50.,1.24999622180821E-5,-104.539422307193));
#530=CARTESIAN_POINT('',(50.,1.24999621984663E-5,-3.80000017366483));
#531=CARTESIAN_POINT('',(-1.07802450728147E-14,1.24999622180821E-5,-104.539422307193));
#532=CARTESIAN_POINT('',(-1.07802450728147E-14,1.24999622180821E-5,-34.));
#533=CARTESIAN_POINT('',(-21.,1.24999622155104E-5,-104.539422307193));
#534=CARTESIAN_POINT('',(21.,1.24999622180821E-5,-104.539422307193));
#535=CARTESIAN_POINT('',(-1.07802450728147E-14,1.24999622180821E-5,-104.539422307193));
#536=CARTESIAN_POINT('',(-1.07802450728147E-14,1.24999622180821E-5,-21.375));
#537=CARTESIAN_POINT('',(-46.,1.24999622180821E-5,-21.375));
#538=CARTESIAN_POINT('',(-1.07802450728147E-14,1.24999622180821E-5,-21.875));
#539=CARTESIAN_POINT('',(-46.5,1.24999622180821E-5,-21.875));
#540=CARTESIAN_POINT('',(-1.07802450728147E-14,1.24999622180821E-5,-21.375));
#541=CARTESIAN_POINT('',(-1.07802450728147E-14,1.24999622180821E-5,-18.125));
#542=CARTESIAN_POINT('',(46.5,1.24999622180821E-5,-18.125));
#543=CARTESIAN_POINT('',(-1.07802450728147E-14,1.24999622180821E-5,-18.625));
#544=CARTESIAN_POINT('',(46.,1.24999622180821E-5,-18.625));
#545=CARTESIAN_POINT('',(-1.07802450728147E-14,1.24999622180821E-5,-18.625));
#546=CARTESIAN_POINT('',(-1.07802450728147E-14,1.24999622180821E-5,0.));
#547=CARTESIAN_POINT('',(-1.07802450728147E-14,1.24999622180821E-5,-67.1329584769426));
#548=CARTESIAN_POINT('',(-1.07802450728147E-14,1.24999622180821E-5,-104.539422307193));
#549=CARTESIAN_POINT('',(-1.07802450728147E-14,1.24999622180821E-5,-80.));
#550=CARTESIAN_POINT('',(-1.07802450728147E-14,-14.9999875000378,-80.));
#551=CARTESIAN_POINT('',(-1.07802450728147E-14,1.24999622180821E-5,-18.125));
#552=CARTESIAN_POINT('',(-47.6225952641916,1.24999622180821E-5,-18.125));
#553=CARTESIAN_POINT('',(-1.07802450728147E-14,1.24999622180821E-5,-16.7524047358084));
#554=CARTESIAN_POINT('',(-1.07802450728147E-14,-47.6225827642294,-18.125));
#555=CARTESIAN_POINT('',(-1.07802450728147E-14,1.24999622180821E-5,-21.875));
#556=CARTESIAN_POINT('',(-47.6225952641916,1.24999622180821E-5,-21.875));
#557=CARTESIAN_POINT('',(-1.07802450728147E-14,-45.9999875000378,-21.875));
#558=CARTESIAN_POINT('',(-1.07802450728147E-14,1.24999622180821E-5,-23.2475952641916));
#559=CARTESIAN_POINT('',(-50.,1.24999622180821E-5,-23.2475952641916));
#560=CARTESIAN_POINT('',(-1.07802450728147E-14,1.24999622180821E-5,-21.875));
#561=CARTESIAN_POINT('',(-1.07802450728147E-14,1.24999622180821E-5,-29.));
#562=CARTESIAN_POINT('',(-50.,1.24999622180821E-5,-29.));
#563=CARTESIAN_POINT('',(-1.07802450728147E-14,1.24999622180821E-5,-29.));
#564=CARTESIAN_POINT('',(-1.07802450728147E-14,-49.9999875000378,-29.));
#565=CARTESIAN_POINT('',(-1.07802450728147E-14,1.24999622180821E-5,-104.539422307193));
#566=CARTESIAN_POINT('',(-1.07802450728147E-14,1.24999622180821E-5,0.));
#567=CARTESIAN_POINT('',(-38.000996415314,1.24999622180821E-5,0.));
#568=CARTESIAN_POINT('',(38.000996415314,1.24999622227359E-5,0.));
#569=CARTESIAN_POINT('',(-1.07802450728147E-14,1.24999622180821E-5,0.));
#570=CARTESIAN_POINT('',(-1.07802450728147E-14,-39.0542776916935,0.));
#571=CARTESIAN_POINT('',(-1.07802450728147E-14,1.24999622180821E-5,-80.));
#572=CARTESIAN_POINT('',(-1.07802450728147E-14,1.24999622180821E-5,-34.));
#573=CARTESIAN_POINT('',(-1.07802450728147E-14,1.24999622180821E-5,50.));
#574=CARTESIAN_POINT('',(35.4960143387439,1.24999622180821E-5,50.));
#575=CARTESIAN_POINT('',(-1.07802450728147E-14,1.24999622370078E-5,50.));
#576=CARTESIAN_POINT('',(37.9007971322512,1.24999622180821E-5,2.));
#577=CARTESIAN_POINT('',(37.5709639729185,1.24999622367359E-5,8.58354329992408));
#578=CARTESIAN_POINT('',(-37.9007971322512,1.24999622134406E-5,2.));
#579=CARTESIAN_POINT('',(-37.570963974631,1.24999626319128E-5,8.58354326574273));
#580=CARTESIAN_POINT('',(37.9007971322512,1.24999622180821E-5,2.));
#581=CARTESIAN_POINT('',(36.2475089617149,1.24999622180821E-5,35.));
#582=CARTESIAN_POINT('',(36.9262511938535,1.24999622225536E-5,21.452153919841));
#583=CARTESIAN_POINT('',(-37.9007971322512,1.24999622134406E-5,2.));
#584=CARTESIAN_POINT('',(-35.9970107540579,1.24999622136738E-5,40.));
#585=CARTESIAN_POINT('',(-36.9262511951701,1.24999660517541E-5,21.4521538935618));
#586=CARTESIAN_POINT('',(-1.07802450728147E-14,1.24999622180821E-5,2.));
#587=MECHANICAL_DESIGN_GEOMETRIC_PRESENTATION_REPRESENTATION('',(#329,#330,
#331,#332),#588);
#588=(
GEOMETRIC_REPRESENTATION_CONTEXT(3)
GLOBAL_UNCERTAINTY_ASSIGNED_CONTEXT((#589))
GLOBAL_UNIT_ASSIGNED_CONTEXT((#595,#591,#590))
REPRESENTATION_CONTEXT('HSK.100A-W.12.080','TOP_LEVEL_ASSEMBLY_PART')
);
#589=UNCERTAINTY_MEASURE_WITH_UNIT(LENGTH_MEASURE(2.E-5),#595,
'DISTANCE_ACCURACY_VALUE','Maximum Tolerance applied to model');
#590=(
NAMED_UNIT(*)
SI_UNIT($,.STERADIAN.)
SOLID_ANGLE_UNIT()
);
#591=(
CONVERSION_BASED_UNIT('DEGREE',#593)
NAMED_UNIT(#592)
PLANE_ANGLE_UNIT()
);
#592=DIMENSIONAL_EXPONENTS(0.,0.,0.,0.,0.,0.,0.);
#593=PLANE_ANGLE_MEASURE_WITH_UNIT(PLANE_ANGLE_MEASURE(0.0174532925),#594);
#594=(
NAMED_UNIT(*)
PLANE_ANGLE_UNIT()
SI_UNIT($,.RADIAN.)
);
#595=(
LENGTH_UNIT()
NAMED_UNIT(*)
SI_UNIT(.MILLI.,.METRE.)
);
ENDSEC;
END-ISO-10303-21;
