ISO-10303-21;
HEADER;
/* Generated by software containing ST-Developer
 * from STEP Tools, Inc. (www.steptools.com) 
 */
/* OPTION: using custom schema-name function */

FILE_DESCRIPTION(
/* description */ (''),
/* implementation_level */ '2;1');

FILE_NAME(
/* name */ 'HSK.100A-MTS.1.110.stp',
/* time_stamp */ '2024-07-21T09:18:01+02:00',
/* author */ (''),
/* organization */ (''),
/* preprocessor_version */ 'ST-DEVELOPER v16.7',
/* originating_system */ 'SIEMENS PLM Software NX 12.0',
/* authorisation */ '');

FILE_SCHEMA (('AUTOMOTIVE_DESIGN { 1 0 10303 214 3 1 1 1 }'));
ENDSEC;

DATA;
#10=CONSTRUCTIVE_GEOMETRY_REPRESENTATION_RELATIONSHIP(
'supplemental geometry','',#32,#11);
#11=CONSTRUCTIVE_GEOMETRY_REPRESENTATION('supplemental geometry',(#318,
#319,#320),#538);
#12=PROPERTY_DEFINITION_REPRESENTATION(#16,#14);
#13=PROPERTY_DEFINITION_REPRESENTATION(#17,#15);
#14=REPRESENTATION('',(#18),#538);
#15=REPRESENTATION('',(#19),#538);
#16=PROPERTY_DEFINITION('pmi validation property','',#23);
#17=PROPERTY_DEFINITION('pmi validation property','',#23);
#18=VALUE_REPRESENTATION_ITEM('number of annotations',COUNT_MEASURE(0.));
#19=VALUE_REPRESENTATION_ITEM('number of views',COUNT_MEASURE(0.));
#20=SHAPE_REPRESENTATION_RELATIONSHIP('None',
'relationship between pf6612088076ynum-None and pf6612088076ynum-None',
#32,#21);
#21=ADVANCED_BREP_SHAPE_REPRESENTATION('pf6612088076ynum-None',(#38),#538);
#22=SHAPE_DEFINITION_REPRESENTATION(#23,#32);
#23=PRODUCT_DEFINITION_SHAPE('','',#24);
#24=PRODUCT_DEFINITION(' ','',#26,#25);
#25=PRODUCT_DEFINITION_CONTEXT('part definition',#31,'design');
#26=PRODUCT_DEFINITION_FORMATION_WITH_SPECIFIED_SOURCE(' ',' ',#28,
 .NOT_KNOWN.);
#27=PRODUCT_RELATED_PRODUCT_CATEGORY('part','',(#28));
#28=PRODUCT('pf6612088076ynum','pf6612088076ynum',' ',(#29));
#29=PRODUCT_CONTEXT(' ',#31,'mechanical');
#30=APPLICATION_PROTOCOL_DEFINITION('international standard',
'automotive_design',2010,#31);
#31=APPLICATION_CONTEXT(
'core data for automotive mechanical design processes');
#32=SHAPE_REPRESENTATION('pf6612088076ynum-None',(#317),#538);
#33=SURFACE_STYLE_USAGE(.BOTH.,#34);
#34=SURFACE_SIDE_STYLE('',(#35));
#35=SURFACE_STYLE_FILL_AREA(#36);
#36=FILL_AREA_STYLE('',(#37));
#37=FILL_AREA_STYLE_COLOUR('',#313);
#38=MANIFOLD_SOLID_BREP('\X\B0\X2\014100AE0106\X0\-\X\B1\X2\02DD0104\X0\X
4',#39);
#39=CLOSED_SHELL('',(#96,#97,#98,#99,#100,#101,#102,#103,#104,#105,#106,
#107,#108,#109,#110,#111,#112,#113));
#40=CONICAL_SURFACE('',#343,50.,60.0000000000002);
#41=CONICAL_SURFACE('',#348,47.6225952641916,60.0000000000002);
#42=CONICAL_SURFACE('',#360,37.9007971322512,2.8681);
#43=PLANE('',#337);
#44=PLANE('',#344);
#45=PLANE('',#346);
#46=PLANE('',#351);
#47=PLANE('',#355);
#48=PLANE('',#359);
#49=FACE_BOUND('',#126,.T.);
#50=FACE_BOUND('',#127,.T.);
#51=FACE_BOUND('',#128,.T.);
#52=FACE_BOUND('',#129,.T.);
#53=FACE_BOUND('',#130,.T.);
#54=FACE_BOUND('',#131,.T.);
#55=FACE_BOUND('',#133,.T.);
#56=FACE_BOUND('',#134,.T.);
#57=FACE_BOUND('',#135,.T.);
#58=FACE_BOUND('',#136,.T.);
#59=FACE_BOUND('',#137,.T.);
#60=FACE_BOUND('',#138,.T.);
#61=FACE_BOUND('',#139,.T.);
#62=FACE_BOUND('',#140,.T.);
#63=FACE_BOUND('',#141,.T.);
#64=FACE_BOUND('',#142,.T.);
#65=FACE_BOUND('',#143,.T.);
#66=FACE_BOUND('',#144,.T.);
#67=FACE_BOUND('',#145,.T.);
#68=FACE_BOUND('',#146,.T.);
#69=FACE_BOUND('',#147,.T.);
#70=FACE_BOUND('',#148,.T.);
#71=FACE_BOUND('',#152,.T.);
#72=FACE_BOUND('',#153,.T.);
#73=FACE_BOUND('',#154,.T.);
#74=FACE_BOUND('',#155,.T.);
#75=CYLINDRICAL_SURFACE('',#328,12.5);
#76=CYLINDRICAL_SURFACE('',#335,46.);
#77=CYLINDRICAL_SURFACE('',#341,50.);
#78=CYLINDRICAL_SURFACE('',#352,50.);
#79=CYLINDRICAL_SURFACE('',#356,12.5);
#80=LINE('',#471,#88);
#81=LINE('',#475,#89);
#82=LINE('',#492,#90);
#83=LINE('',#497,#91);
#84=LINE('',#526,#92);
#85=LINE('',#529,#93);
#86=LINE('',#531,#94);
#87=LINE('',#533,#95);
#88=VECTOR('',#381,1.);
#89=VECTOR('',#384,1.);
#90=VECTOR('',#407,1.);
#91=VECTOR('',#410,1.);
#92=VECTOR('',#451,1.);
#93=VECTOR('',#452,1.);
#94=VECTOR('',#453,1.);
#95=VECTOR('',#454,1.);
#96=ADVANCED_FACE('',(#118),#114,.F.);
#97=ADVANCED_FACE('',(#119),#75,.T.);
#98=ADVANCED_FACE('',(#49,#50),#115,.F.);
#99=ADVANCED_FACE('',(#51,#52),#116,.F.);
#100=ADVANCED_FACE('',(#53,#54),#76,.T.);
#101=ADVANCED_FACE('',(#120),#43,.T.);
#102=ADVANCED_FACE('',(#55,#56),#77,.T.);
#103=ADVANCED_FACE('',(#57,#58),#40,.T.);
#104=ADVANCED_FACE('',(#59,#60),#44,.T.);
#105=ADVANCED_FACE('',(#61,#62),#45,.T.);
#106=ADVANCED_FACE('',(#63,#64),#41,.T.);
#107=ADVANCED_FACE('',(#65,#66),#46,.T.);
#108=ADVANCED_FACE('',(#67,#68),#78,.T.);
#109=ADVANCED_FACE('',(#69,#70),#47,.T.);
#110=ADVANCED_FACE('',(#121),#79,.T.);
#111=ADVANCED_FACE('',(#122),#117,.F.);
#112=ADVANCED_FACE('',(#123),#48,.T.);
#113=ADVANCED_FACE('',(#71,#72,#73,#74),#42,.T.);
#114=TOROIDAL_SURFACE('',#325,20.5,8.);
#115=TOROIDAL_SURFACE('',#331,46.5,0.5);
#116=TOROIDAL_SURFACE('',#334,46.5,0.5);
#117=TOROIDAL_SURFACE('',#357,20.5,8.);
#118=FACE_OUTER_BOUND('',#124,.T.);
#119=FACE_OUTER_BOUND('',#125,.T.);
#120=FACE_OUTER_BOUND('',#132,.T.);
#121=FACE_OUTER_BOUND('',#149,.T.);
#122=FACE_OUTER_BOUND('',#150,.T.);
#123=FACE_OUTER_BOUND('',#151,.T.);
#124=EDGE_LOOP('',(#156,#157,#158,#159));
#125=EDGE_LOOP('',(#160,#161,#162,#163));
#126=EDGE_LOOP('',(#164));
#127=EDGE_LOOP('',(#165));
#128=EDGE_LOOP('',(#166));
#129=EDGE_LOOP('',(#167));
#130=EDGE_LOOP('',(#168));
#131=EDGE_LOOP('',(#169));
#132=EDGE_LOOP('',(#170,#171));
#133=EDGE_LOOP('',(#172));
#134=EDGE_LOOP('',(#173,#174,#175,#176,#177,#178));
#135=EDGE_LOOP('',(#179));
#136=EDGE_LOOP('',(#180));
#137=EDGE_LOOP('',(#181));
#138=EDGE_LOOP('',(#182));
#139=EDGE_LOOP('',(#183));
#140=EDGE_LOOP('',(#184));
#141=EDGE_LOOP('',(#185));
#142=EDGE_LOOP('',(#186));
#143=EDGE_LOOP('',(#187));
#144=EDGE_LOOP('',(#188,#189));
#145=EDGE_LOOP('',(#190));
#146=EDGE_LOOP('',(#191));
#147=EDGE_LOOP('',(#192,#193));
#148=EDGE_LOOP('',(#194,#195));
#149=EDGE_LOOP('',(#196,#197,#198,#199));
#150=EDGE_LOOP('',(#200,#201,#202,#203));
#151=EDGE_LOOP('',(#204));
#152=EDGE_LOOP('',(#205,#206));
#153=EDGE_LOOP('',(#207,#208,#209,#210,#211,#212));
#154=EDGE_LOOP('',(#213,#214));
#155=EDGE_LOOP('',(#215));
#156=ORIENTED_EDGE('',*,*,#244,.F.);
#157=ORIENTED_EDGE('',*,*,#245,.F.);
#158=ORIENTED_EDGE('',*,*,#246,.F.);
#159=ORIENTED_EDGE('',*,*,#247,.T.);
#160=ORIENTED_EDGE('',*,*,#248,.T.);
#161=ORIENTED_EDGE('',*,*,#249,.F.);
#162=ORIENTED_EDGE('',*,*,#250,.F.);
#163=ORIENTED_EDGE('',*,*,#251,.T.);
#164=ORIENTED_EDGE('',*,*,#252,.F.);
#165=ORIENTED_EDGE('',*,*,#253,.F.);
#166=ORIENTED_EDGE('',*,*,#254,.F.);
#167=ORIENTED_EDGE('',*,*,#255,.F.);
#168=ORIENTED_EDGE('',*,*,#255,.T.);
#169=ORIENTED_EDGE('',*,*,#252,.T.);
#170=ORIENTED_EDGE('',*,*,#250,.T.);
#171=ORIENTED_EDGE('',*,*,#256,.T.);
#172=ORIENTED_EDGE('',*,*,#257,.T.);
#173=ORIENTED_EDGE('',*,*,#258,.F.);
#174=ORIENTED_EDGE('',*,*,#258,.T.);
#175=ORIENTED_EDGE('',*,*,#259,.F.);
#176=ORIENTED_EDGE('',*,*,#260,.F.);
#177=ORIENTED_EDGE('',*,*,#260,.T.);
#178=ORIENTED_EDGE('',*,*,#261,.F.);
#179=ORIENTED_EDGE('',*,*,#257,.F.);
#180=ORIENTED_EDGE('',*,*,#262,.T.);
#181=ORIENTED_EDGE('',*,*,#262,.F.);
#182=ORIENTED_EDGE('',*,*,#254,.T.);
#183=ORIENTED_EDGE('',*,*,#253,.T.);
#184=ORIENTED_EDGE('',*,*,#263,.T.);
#185=ORIENTED_EDGE('',*,*,#263,.F.);
#186=ORIENTED_EDGE('',*,*,#264,.T.);
#187=ORIENTED_EDGE('',*,*,#265,.T.);
#188=ORIENTED_EDGE('',*,*,#246,.T.);
#189=ORIENTED_EDGE('',*,*,#266,.T.);
#190=ORIENTED_EDGE('',*,*,#264,.F.);
#191=ORIENTED_EDGE('',*,*,#265,.F.);
#192=ORIENTED_EDGE('',*,*,#267,.F.);
#193=ORIENTED_EDGE('',*,*,#268,.F.);
#194=ORIENTED_EDGE('',*,*,#261,.T.);
#195=ORIENTED_EDGE('',*,*,#259,.T.);
#196=ORIENTED_EDGE('',*,*,#249,.T.);
#197=ORIENTED_EDGE('',*,*,#244,.T.);
#198=ORIENTED_EDGE('',*,*,#251,.F.);
#199=ORIENTED_EDGE('',*,*,#256,.F.);
#200=ORIENTED_EDGE('',*,*,#245,.T.);
#201=ORIENTED_EDGE('',*,*,#248,.F.);
#202=ORIENTED_EDGE('',*,*,#247,.F.);
#203=ORIENTED_EDGE('',*,*,#266,.F.);
#204=ORIENTED_EDGE('',*,*,#269,.T.);
#205=ORIENTED_EDGE('',*,*,#270,.F.);
#206=ORIENTED_EDGE('',*,*,#270,.T.);
#207=ORIENTED_EDGE('',*,*,#271,.F.);
#208=ORIENTED_EDGE('',*,*,#271,.T.);
#209=ORIENTED_EDGE('',*,*,#267,.T.);
#210=ORIENTED_EDGE('',*,*,#272,.T.);
#211=ORIENTED_EDGE('',*,*,#272,.F.);
#212=ORIENTED_EDGE('',*,*,#268,.T.);
#213=ORIENTED_EDGE('',*,*,#273,.T.);
#214=ORIENTED_EDGE('',*,*,#273,.F.);
#215=ORIENTED_EDGE('',*,*,#269,.F.);
#216=VERTEX_POINT('',#462);
#217=VERTEX_POINT('',#463);
#218=VERTEX_POINT('',#465);
#219=VERTEX_POINT('',#467);
#220=VERTEX_POINT('',#472);
#221=VERTEX_POINT('',#474);
#222=VERTEX_POINT('',#478);
#223=VERTEX_POINT('',#480);
#224=VERTEX_POINT('',#483);
#225=VERTEX_POINT('',#485);
#226=VERTEX_POINT('',#491);
#227=VERTEX_POINT('',#493);
#228=VERTEX_POINT('',#494);
#229=VERTEX_POINT('',#496);
#230=VERTEX_POINT('',#498);
#231=VERTEX_POINT('',#502);
#232=VERTEX_POINT('',#506);
#233=VERTEX_POINT('',#509);
#234=VERTEX_POINT('',#512);
#235=VERTEX_POINT('',#517);
#236=VERTEX_POINT('',#518);
#237=VERTEX_POINT('',#524);
#238=VERTEX_POINT('',#527);
#239=VERTEX_POINT('',#528);
#240=VERTEX_POINT('',#530);
#241=VERTEX_POINT('',#532);
#242=VERTEX_POINT('',#534);
#243=VERTEX_POINT('',#535);
#244=EDGE_CURVE('',#216,#217,#274,.T.);
#245=EDGE_CURVE('',#218,#216,#275,.T.);
#246=EDGE_CURVE('',#219,#218,#276,.T.);
#247=EDGE_CURVE('',#219,#217,#277,.T.);
#248=EDGE_CURVE('',#217,#216,#278,.T.);
#249=EDGE_CURVE('',#220,#216,#80,.T.);
#250=EDGE_CURVE('',#221,#220,#279,.T.);
#251=EDGE_CURVE('',#221,#217,#81,.T.);
#252=EDGE_CURVE('',#222,#222,#280,.T.);
#253=EDGE_CURVE('',#223,#223,#281,.T.);
#254=EDGE_CURVE('',#224,#224,#282,.T.);
#255=EDGE_CURVE('',#225,#225,#283,.T.);
#256=EDGE_CURVE('',#220,#221,#284,.T.);
#257=EDGE_CURVE('',#226,#226,#285,.T.);
#258=EDGE_CURVE('',#227,#228,#82,.T.);
#259=EDGE_CURVE('',#229,#228,#286,.T.);
#260=EDGE_CURVE('',#230,#229,#83,.T.);
#261=EDGE_CURVE('',#228,#229,#287,.T.);
#262=EDGE_CURVE('',#231,#231,#288,.T.);
#263=EDGE_CURVE('',#232,#232,#289,.T.);
#264=EDGE_CURVE('',#233,#233,#290,.T.);
#265=EDGE_CURVE('',#234,#234,#291,.T.);
#266=EDGE_CURVE('',#218,#219,#292,.T.);
#267=EDGE_CURVE('',#235,#236,#293,.T.);
#268=EDGE_CURVE('',#236,#235,#294,.T.);
#269=EDGE_CURVE('',#237,#237,#295,.T.);
#270=EDGE_CURVE('',#238,#239,#84,.T.);
#271=EDGE_CURVE('',#240,#235,#85,.T.);
#272=EDGE_CURVE('',#236,#241,#86,.T.);
#273=EDGE_CURVE('',#242,#243,#87,.T.);
#274=CIRCLE('',#321,12.5);
#275=CIRCLE('',#322,8.);
#276=CIRCLE('',#323,20.5);
#277=CIRCLE('',#324,8.);
#278=CIRCLE('',#326,12.5);
#279=CIRCLE('',#327,12.5);
#280=CIRCLE('',#329,46.);
#281=CIRCLE('',#330,46.5);
#282=CIRCLE('',#332,46.5);
#283=CIRCLE('',#333,46.);
#284=CIRCLE('',#336,12.5);
#285=CIRCLE('',#338,50.);
#286=CIRCLE('',#339,50.);
#287=CIRCLE('',#340,50.);
#288=CIRCLE('',#342,47.6225952641916);
#289=CIRCLE('',#345,47.6225952641916);
#290=CIRCLE('',#347,50.);
#291=CIRCLE('',#349,50.);
#292=CIRCLE('',#350,20.5);
#293=CIRCLE('',#353,38.000996415314);
#294=CIRCLE('',#354,38.000996415314);
#295=CIRCLE('',#358,35.4960143387439);
#296=INVISIBILITY((#297,#298,#299,#300));
#297=PRESENTATION_LAYER_ASSIGNMENT('100','Layer 100',(#318));
#298=PRESENTATION_LAYER_ASSIGNMENT('101','Layer 101',(#319));
#299=PRESENTATION_LAYER_ASSIGNMENT('102','Layer 102',(#320));
#300=PRESENTATION_LAYER_ASSIGNMENT('98','Layer 98',(#38));
#301=STYLED_ITEM('',(#305),#318);
#302=STYLED_ITEM('',(#306),#319);
#303=STYLED_ITEM('',(#307),#320);
#304=STYLED_ITEM('',(#308),#38);
#305=PRESENTATION_STYLE_ASSIGNMENT((#309));
#306=PRESENTATION_STYLE_ASSIGNMENT((#310));
#307=PRESENTATION_STYLE_ASSIGNMENT((#311));
#308=PRESENTATION_STYLE_ASSIGNMENT((#33));
#309=CURVE_STYLE('',#314,POSITIVE_LENGTH_MEASURE(0.7),#312);
#310=CURVE_STYLE('',#315,POSITIVE_LENGTH_MEASURE(0.7),#312);
#311=CURVE_STYLE('',#316,POSITIVE_LENGTH_MEASURE(0.7),#312);
#312=COLOUR_RGB('Medium Maroon',0.6,0.4,0.4);
#313=COLOUR_RGB('Medium Gray',0.490196078431373,0.490196078431373,0.490196078431373);
#314=DRAUGHTING_PRE_DEFINED_CURVE_FONT('continuous');
#315=DRAUGHTING_PRE_DEFINED_CURVE_FONT('continuous');
#316=DRAUGHTING_PRE_DEFINED_CURVE_FONT('continuous');
#317=AXIS2_PLACEMENT_3D('',#457,#361,#362);
#318=AXIS2_PLACEMENT_3D('PCS',#458,#363,#364);
#319=AXIS2_PLACEMENT_3D('CSW',#459,#365,#366);
#320=AXIS2_PLACEMENT_3D('MCS',#460,#367,#368);
#321=AXIS2_PLACEMENT_3D('',#461,#369,#370);
#322=AXIS2_PLACEMENT_3D('',#464,#371,#372);
#323=AXIS2_PLACEMENT_3D('',#466,#373,#374);
#324=AXIS2_PLACEMENT_3D('',#468,#375,#376);
#325=AXIS2_PLACEMENT_3D('',#469,#377,#378);
#326=AXIS2_PLACEMENT_3D('',#470,#379,#380);
#327=AXIS2_PLACEMENT_3D('',#473,#382,#383);
#328=AXIS2_PLACEMENT_3D('',#476,#385,#386);
#329=AXIS2_PLACEMENT_3D('',#477,#387,#388);
#330=AXIS2_PLACEMENT_3D('',#479,#389,#390);
#331=AXIS2_PLACEMENT_3D('',#481,#391,#392);
#332=AXIS2_PLACEMENT_3D('',#482,#393,#394);
#333=AXIS2_PLACEMENT_3D('',#484,#395,#396);
#334=AXIS2_PLACEMENT_3D('',#486,#397,#398);
#335=AXIS2_PLACEMENT_3D('',#487,#399,#400);
#336=AXIS2_PLACEMENT_3D('',#488,#401,#402);
#337=AXIS2_PLACEMENT_3D('',#489,#403,#404);
#338=AXIS2_PLACEMENT_3D('',#490,#405,#406);
#339=AXIS2_PLACEMENT_3D('',#495,#408,#409);
#340=AXIS2_PLACEMENT_3D('',#499,#411,#412);
#341=AXIS2_PLACEMENT_3D('',#500,#413,#414);
#342=AXIS2_PLACEMENT_3D('',#501,#415,#416);
#343=AXIS2_PLACEMENT_3D('',#503,#417,#418);
#344=AXIS2_PLACEMENT_3D('',#504,#419,#420);
#345=AXIS2_PLACEMENT_3D('',#505,#421,#422);
#346=AXIS2_PLACEMENT_3D('',#507,#423,#424);
#347=AXIS2_PLACEMENT_3D('',#508,#425,#426);
#348=AXIS2_PLACEMENT_3D('',#510,#427,#428);
#349=AXIS2_PLACEMENT_3D('',#511,#429,#430);
#350=AXIS2_PLACEMENT_3D('',#513,#431,#432);
#351=AXIS2_PLACEMENT_3D('',#514,#433,#434);
#352=AXIS2_PLACEMENT_3D('',#515,#435,#436);
#353=AXIS2_PLACEMENT_3D('',#516,#437,#438);
#354=AXIS2_PLACEMENT_3D('',#519,#439,#440);
#355=AXIS2_PLACEMENT_3D('',#520,#441,#442);
#356=AXIS2_PLACEMENT_3D('',#521,#443,#444);
#357=AXIS2_PLACEMENT_3D('',#522,#445,#446);
#358=AXIS2_PLACEMENT_3D('',#523,#447,#448);
#359=AXIS2_PLACEMENT_3D('',#525,#449,#450);
#360=AXIS2_PLACEMENT_3D('',#536,#455,#456);
#361=DIRECTION('',(0.,0.,1.));
#362=DIRECTION('',(1.,0.,0.));
#363=DIRECTION('',(0.,0.,1.));
#364=DIRECTION('',(1.,0.,0.));
#365=DIRECTION('',(0.,0.,1.));
#366=DIRECTION('',(1.,0.,0.));
#367=DIRECTION('',(0.,0.,1.));
#368=DIRECTION('',(1.,0.,0.));
#369=DIRECTION('',(0.,0.,-1.));
#370=DIRECTION('',(1.,0.,0.));
#371=DIRECTION('',(-1.22464679914735E-16,1.,0.));
#372=DIRECTION('',(-1.,-1.22464710073935E-16,0.));
#373=DIRECTION('',(0.,0.,1.));
#374=DIRECTION('',(1.,0.,0.));
#375=DIRECTION('',(0.,-1.,0.));
#376=DIRECTION('',(1.,0.,0.));
#377=DIRECTION('',(0.,0.,-1.));
#378=DIRECTION('',(-1.,0.,0.));
#379=DIRECTION('',(0.,0.,-1.));
#380=DIRECTION('',(1.,0.,0.));
#381=DIRECTION('',(0.,0.,1.));
#382=DIRECTION('',(0.,0.,-1.));
#383=DIRECTION('',(-1.,0.,0.));
#384=DIRECTION('',(0.,0.,1.));
#385=DIRECTION('',(0.,0.,-1.));
#386=DIRECTION('',(-1.,0.,0.));
#387=DIRECTION('',(0.,0.,1.));
#388=DIRECTION('',(-1.,0.,0.));
#389=DIRECTION('',(0.,0.,-1.));
#390=DIRECTION('',(-1.,0.,0.));
#391=DIRECTION('',(0.,0.,1.));
#392=DIRECTION('',(1.,0.,0.));
#393=DIRECTION('',(0.,0.,1.));
#394=DIRECTION('',(1.,0.,0.));
#395=DIRECTION('',(0.,0.,-1.));
#396=DIRECTION('',(1.,0.,0.));
#397=DIRECTION('',(0.,0.,-1.));
#398=DIRECTION('',(-1.,0.,0.));
#399=DIRECTION('',(0.,0.,1.));
#400=DIRECTION('',(1.,0.,0.));
#401=DIRECTION('',(0.,0.,-1.));
#402=DIRECTION('',(-1.,0.,0.));
#403=DIRECTION('',(0.,0.,-1.));
#404=DIRECTION('',(-1.,0.,0.));
#405=DIRECTION('',(0.,0.,1.));
#406=DIRECTION('',(-1.,0.,0.));
#407=DIRECTION('',(0.,0.,1.));
#408=DIRECTION('',(0.,0.,1.));
#409=DIRECTION('',(1.,0.,0.));
#410=DIRECTION('',(0.,0.,1.));
#411=DIRECTION('',(0.,0.,1.));
#412=DIRECTION('',(1.,0.,0.));
#413=DIRECTION('',(0.,0.,-1.));
#414=DIRECTION('',(-1.,0.,0.));
#415=DIRECTION('',(0.,0.,1.));
#416=DIRECTION('',(-1.,0.,0.));
#417=DIRECTION('',(0.,0.,1.));
#418=DIRECTION('',(1.,0.,-2.14157286141318E-17));
#419=DIRECTION('',(0.,0.,-1.));
#420=DIRECTION('',(-1.,0.,0.));
#421=DIRECTION('',(0.,0.,1.));
#422=DIRECTION('',(-1.,0.,0.));
#423=DIRECTION('',(0.,0.,1.));
#424=DIRECTION('',(1.,0.,0.));
#425=DIRECTION('',(0.,0.,1.));
#426=DIRECTION('',(-1.,0.,0.));
#427=DIRECTION('',(0.,0.,-1.));
#428=DIRECTION('',(-1.,0.,-4.67876446961187E-17));
#429=DIRECTION('',(0.,0.,-1.));
#430=DIRECTION('',(-1.,0.,0.));
#431=DIRECTION('',(0.,0.,1.));
#432=DIRECTION('',(1.,0.,0.));
#433=DIRECTION('',(0.,0.,-1.));
#434=DIRECTION('',(-1.,0.,0.));
#435=DIRECTION('',(0.,0.,-1.));
#436=DIRECTION('',(-1.,0.,0.));
#437=DIRECTION('',(0.,0.,1.));
#438=DIRECTION('',(1.,0.,0.));
#439=DIRECTION('',(0.,0.,1.));
#440=DIRECTION('',(1.,0.,0.));
#441=DIRECTION('',(0.,0.,1.));
#442=DIRECTION('',(1.,0.,0.));
#443=DIRECTION('',(0.,0.,-1.));
#444=DIRECTION('',(-1.,0.,0.));
#445=DIRECTION('',(0.,0.,-1.));
#446=DIRECTION('',(-1.,0.,0.));
#447=DIRECTION('',(0.,0.,1.));
#448=DIRECTION('',(1.,0.,0.));
#449=DIRECTION('',(0.,0.,1.));
#450=DIRECTION('',(1.,0.,0.));
#451=DIRECTION('',(-0.0500368852433455,0.,0.998747370517262));
#452=DIRECTION('',(0.0500368852433455,0.,-0.998747370517262));
#453=DIRECTION('',(0.0500368852433455,6.12775113525664E-18,0.998747370517262));
#454=DIRECTION('',(-0.0500368852433455,-6.12775113525664E-18,-0.998747370517262));
#455=DIRECTION('',(0.,0.,-1.));
#456=DIRECTION('',(-1.,0.,1.18276011050838E-16));
#457=CARTESIAN_POINT('',(0.,0.,0.));
#458=CARTESIAN_POINT('',(0.,0.,0.));
#459=CARTESIAN_POINT('',(0.,0.,-110.));
#460=CARTESIAN_POINT('',(0.,0.,0.));
#461=CARTESIAN_POINT('',(-4.63841303342541E-14,1.24999622180821E-5,-37.));
#462=CARTESIAN_POINT('',(-12.5,1.24999622165513E-5,-37.));
#463=CARTESIAN_POINT('',(12.4999999999999,1.24999622180821E-5,-37.));
#464=CARTESIAN_POINT('',(-20.5,1.24999622155716E-5,-37.));
#465=CARTESIAN_POINT('',(-20.5,1.24999622155716E-5,-29.));
#466=CARTESIAN_POINT('',(-4.63841303342541E-14,1.24999622180821E-5,-29.));
#467=CARTESIAN_POINT('',(20.4999999999999,1.24999622180821E-5,-29.));
#468=CARTESIAN_POINT('',(20.4999999999999,1.24999622180821E-5,-37.));
#469=CARTESIAN_POINT('',(-4.63841303342541E-14,1.24999622180821E-5,-37.));
#470=CARTESIAN_POINT('',(-4.63841303342541E-14,1.24999622180821E-5,-37.));
#471=CARTESIAN_POINT('',(-12.5,1.24999622165513E-5,-104.539422307193));
#472=CARTESIAN_POINT('',(-12.5,1.24999622165513E-5,-110.));
#473=CARTESIAN_POINT('',(-4.63841303342541E-14,1.24999622180821E-5,-110.));
#474=CARTESIAN_POINT('',(12.4999999999999,1.24999622180821E-5,-110.));
#475=CARTESIAN_POINT('',(12.4999999999999,1.24999622180821E-5,-104.539422307193));
#476=CARTESIAN_POINT('',(-4.63841303342541E-14,1.24999622180821E-5,-104.539422307193));
#477=CARTESIAN_POINT('',(-4.63841303342541E-14,1.24999622180821E-5,-21.375));
#478=CARTESIAN_POINT('',(-46.,1.24999622180821E-5,-21.375));
#479=CARTESIAN_POINT('',(-4.63841303342541E-14,1.24999622180821E-5,-21.875));
#480=CARTESIAN_POINT('',(-46.5,1.24999622180821E-5,-21.875));
#481=CARTESIAN_POINT('',(-4.63841303342541E-14,1.24999622180821E-5,-21.375));
#482=CARTESIAN_POINT('',(-4.63841303342541E-14,1.24999622180821E-5,-18.125));
#483=CARTESIAN_POINT('',(46.5,1.24999622180821E-5,-18.125));
#484=CARTESIAN_POINT('',(-4.63841303342541E-14,1.24999622180821E-5,-18.625));
#485=CARTESIAN_POINT('',(46.,1.24999622180821E-5,-18.625));
#486=CARTESIAN_POINT('',(-4.63841303342541E-14,1.24999622180821E-5,-18.625));
#487=CARTESIAN_POINT('',(-4.63841303342541E-14,1.24999622180821E-5,-6.93889390390723E-15));
#488=CARTESIAN_POINT('',(-4.63841303342541E-14,1.24999622180821E-5,-110.));
#489=CARTESIAN_POINT('',(-4.63841303342541E-14,-12.4999875000378,-110.));
#490=CARTESIAN_POINT('',(-4.63841303342541E-14,1.24999622180821E-5,-16.7524047358084));
#491=CARTESIAN_POINT('',(-50.,1.24999622180821E-5,-16.7524047358084));
#492=CARTESIAN_POINT('',(-50.,1.24999622119589E-5,-104.539422307193));
#493=CARTESIAN_POINT('',(-50.,1.2499962181537E-5,-3.80000033108816));
#494=CARTESIAN_POINT('',(-50.,1.24999622119589E-5,0.));
#495=CARTESIAN_POINT('',(-4.63841303342541E-14,1.24999622180821E-5,0.));
#496=CARTESIAN_POINT('',(49.9999999999999,1.24999622180821E-5,0.));
#497=CARTESIAN_POINT('',(49.9999999999999,1.24999622180821E-5,-104.539422307193));
#498=CARTESIAN_POINT('',(49.9999999999999,1.24999621984663E-5,-3.80000017366483));
#499=CARTESIAN_POINT('',(-4.63841303342541E-14,1.24999622180821E-5,0.));
#500=CARTESIAN_POINT('',(-4.63841303342541E-14,1.24999622180821E-5,-104.539422307193));
#501=CARTESIAN_POINT('',(-4.63841303342541E-14,1.24999622180821E-5,-18.125));
#502=CARTESIAN_POINT('',(-47.6225952641917,1.24999622180821E-5,-18.125));
#503=CARTESIAN_POINT('',(-4.63841303342541E-14,1.24999622180821E-5,-16.7524047358084));
#504=CARTESIAN_POINT('',(-4.63841303342541E-14,-47.6225827642294,-18.125));
#505=CARTESIAN_POINT('',(-4.63841303342541E-14,1.24999622180821E-5,-21.875));
#506=CARTESIAN_POINT('',(-47.6225952641917,1.24999622180821E-5,-21.875));
#507=CARTESIAN_POINT('',(-4.63841303342541E-14,-45.9999875000378,-21.875));
#508=CARTESIAN_POINT('',(-4.63841303342541E-14,1.24999622180821E-5,-23.2475952641916));
#509=CARTESIAN_POINT('',(-50.,1.24999622180821E-5,-23.2475952641916));
#510=CARTESIAN_POINT('',(-4.63841303342541E-14,1.24999622180821E-5,-21.875));
#511=CARTESIAN_POINT('',(-4.63841303342541E-14,1.24999622180821E-5,-29.));
#512=CARTESIAN_POINT('',(-50.,1.24999622180821E-5,-29.));
#513=CARTESIAN_POINT('',(-4.63841303342541E-14,1.24999622180821E-5,-29.));
#514=CARTESIAN_POINT('',(-4.63841303342541E-14,-49.9999875000378,-29.));
#515=CARTESIAN_POINT('',(-4.63841303342541E-14,1.24999622180821E-5,-104.539422307193));
#516=CARTESIAN_POINT('',(-4.63841303342541E-14,1.24999622180821E-5,-6.93889390390723E-15));
#517=CARTESIAN_POINT('',(38.000996415314,1.24999622180821E-5,-6.93889390390723E-15));
#518=CARTESIAN_POINT('',(-38.0009964153141,1.24999622180821E-5,-6.93889390390723E-15));
#519=CARTESIAN_POINT('',(-4.63841303342541E-14,1.24999622180821E-5,-6.93889390390723E-15));
#520=CARTESIAN_POINT('',(-4.63841303342541E-14,-39.0542776916935,-6.93889390390723E-15));
#521=CARTESIAN_POINT('',(-4.63841303342541E-14,1.24999622180821E-5,-104.539422307193));
#522=CARTESIAN_POINT('',(-4.63841303342541E-14,1.24999622180821E-5,-37.));
#523=CARTESIAN_POINT('',(-4.63841303342541E-14,1.24999622180821E-5,50.));
#524=CARTESIAN_POINT('',(35.4960143387439,1.24999622180821E-5,50.));
#525=CARTESIAN_POINT('',(-4.63841303342541E-14,1.24999622370078E-5,50.));
#526=CARTESIAN_POINT('',(37.9007971322512,1.24999622180821E-5,1.99999999999999));
#527=CARTESIAN_POINT('',(36.9262511938535,1.24999622225536E-5,21.452153919841));
#528=CARTESIAN_POINT('',(36.2475089617149,1.24999622180821E-5,35.));
#529=CARTESIAN_POINT('',(37.9007971322512,1.24999622180821E-5,1.99999999999999));
#530=CARTESIAN_POINT('',(37.5709639729185,1.24999622367359E-5,8.58354329992407));
#531=CARTESIAN_POINT('',(-37.9007971322513,1.24999622134406E-5,1.99999999999999));
#532=CARTESIAN_POINT('',(-37.5709639746311,1.24999626319128E-5,8.58354326574272));
#533=CARTESIAN_POINT('',(-37.9007971322513,1.24999622134406E-5,1.99999999999999));
#534=CARTESIAN_POINT('',(-35.997010754058,1.24999622136738E-5,40.));
#535=CARTESIAN_POINT('',(-36.9262511951701,1.24999660517541E-5,21.4521538935617));
#536=CARTESIAN_POINT('',(-4.63841303342541E-14,1.24999622180821E-5,1.99999999999999));
#537=MECHANICAL_DESIGN_GEOMETRIC_PRESENTATION_REPRESENTATION('',(#301,#302,
#303,#304),#538);
#538=(
GEOMETRIC_REPRESENTATION_CONTEXT(3)
GLOBAL_UNCERTAINTY_ASSIGNED_CONTEXT((#539))
GLOBAL_UNIT_ASSIGNED_CONTEXT((#545,#541,#540))
REPRESENTATION_CONTEXT('HSK.100A-MTS.1','TOP_LEVEL_ASSEMBLY_PART')
);
#539=UNCERTAINTY_MEASURE_WITH_UNIT(LENGTH_MEASURE(2.E-5),#545,
'DISTANCE_ACCURACY_VALUE','Maximum Tolerance applied to model');
#540=(
NAMED_UNIT(*)
SI_UNIT($,.STERADIAN.)
SOLID_ANGLE_UNIT()
);
#541=(
CONVERSION_BASED_UNIT('DEGREE',#543)
NAMED_UNIT(#542)
PLANE_ANGLE_UNIT()
);
#542=DIMENSIONAL_EXPONENTS(0.,0.,0.,0.,0.,0.,0.);
#543=PLANE_ANGLE_MEASURE_WITH_UNIT(PLANE_ANGLE_MEASURE(0.0174532925),#544);
#544=(
NAMED_UNIT(*)
PLANE_ANGLE_UNIT()
SI_UNIT($,.RADIAN.)
);
#545=(
LENGTH_UNIT()
NAMED_UNIT(*)
SI_UNIT(.MILLI.,.METRE.)
);
ENDSEC;
END-ISO-10303-21;
