ISO-10303-21;
HEADER;
/* Generated by software containing ST-Developer
 * from STEP Tools, Inc. (www.steptools.com) 
 */
/* OPTION: using custom schema-name function */

FILE_DESCRIPTION(
/* description */ (''),
/* implementation_level */ '2;1');

FILE_NAME(
/* name */ 'HSK.100A-HC.25.150.stp',
/* time_stamp */ '2024-07-21T08:55:09+02:00',
/* author */ (''),
/* organization */ (''),
/* preprocessor_version */ 'ST-DEVELOPER v16.7',
/* originating_system */ 'SIEMENS PLM Software NX 12.0',
/* authorisation */ '');

FILE_SCHEMA (('AUTOMOTIVE_DESIGN { 1 0 10303 214 3 1 1 1 }'));
ENDSEC;

DATA;
#10=CONSTRUCTIVE_GEOMETRY_REPRESENTATION_RELATIONSHIP(
'supplemental geometry','',#32,#11);
#11=CONSTRUCTIVE_GEOMETRY_REPRESENTATION('supplemental geometry',(#333,
#334,#335),#574);
#12=PROPERTY_DEFINITION_REPRESENTATION(#16,#14);
#13=PROPERTY_DEFINITION_REPRESENTATION(#17,#15);
#14=REPRESENTATION('',(#18),#574);
#15=REPRESENTATION('',(#19),#574);
#16=PROPERTY_DEFINITION('pmi validation property','',#23);
#17=PROPERTY_DEFINITION('pmi validation property','',#23);
#18=VALUE_REPRESENTATION_ITEM('number of annotations',COUNT_MEASURE(0.));
#19=VALUE_REPRESENTATION_ITEM('number of views',COUNT_MEASURE(0.));
#20=SHAPE_REPRESENTATION_RELATIONSHIP('None',
'relationship between pf6612088076ynpu-None and pf6612088076ynpu-None',
#32,#21);
#21=ADVANCED_BREP_SHAPE_REPRESENTATION('pf6612088076ynpu-None',(#38),#574);
#22=SHAPE_DEFINITION_REPRESENTATION(#23,#32);
#23=PRODUCT_DEFINITION_SHAPE('','',#24);
#24=PRODUCT_DEFINITION(' ','',#26,#25);
#25=PRODUCT_DEFINITION_CONTEXT('part definition',#31,'design');
#26=PRODUCT_DEFINITION_FORMATION_WITH_SPECIFIED_SOURCE(' ',' ',#28,
 .NOT_KNOWN.);
#27=PRODUCT_RELATED_PRODUCT_CATEGORY('part','',(#28));
#28=PRODUCT('pf6612088076ynpu','pf6612088076ynpu',' ',(#29));
#29=PRODUCT_CONTEXT(' ',#31,'mechanical');
#30=APPLICATION_PROTOCOL_DEFINITION('international standard',
'automotive_design',2010,#31);
#31=APPLICATION_CONTEXT(
'core data for automotive mechanical design processes');
#32=SHAPE_REPRESENTATION('pf6612088076ynpu-None',(#332),#574);
#33=SURFACE_STYLE_USAGE(.BOTH.,#34);
#34=SURFACE_SIDE_STYLE('',(#35));
#35=SURFACE_STYLE_FILL_AREA(#36);
#36=FILL_AREA_STYLE('',(#37));
#37=FILL_AREA_STYLE_COLOUR('',#328);
#38=MANIFOLD_SOLID_BREP('',#39);
#39=CLOSED_SHELL('',(#93,#94,#95,#96,#97,#98,#99,#100,#101,#102,#103,#104,
#105,#106,#107,#108,#109,#110,#111,#112,#113));
#40=TOROIDAL_SURFACE('',#354,30.,5.);
#41=TOROIDAL_SURFACE('',#365,47.,1.);
#42=TOROIDAL_SURFACE('',#369,47.,1.);
#43=TOROIDAL_SURFACE('',#376,30.,5.);
#44=FACE_BOUND('',#134,.T.);
#45=FACE_BOUND('',#135,.T.);
#46=FACE_BOUND('',#138,.T.);
#47=FACE_BOUND('',#139,.T.);
#48=FACE_BOUND('',#140,.T.);
#49=FACE_BOUND('',#141,.T.);
#50=FACE_BOUND('',#142,.T.);
#51=FACE_BOUND('',#143,.T.);
#52=FACE_BOUND('',#144,.T.);
#53=FACE_BOUND('',#145,.T.);
#54=FACE_BOUND('',#146,.T.);
#55=FACE_BOUND('',#147,.T.);
#56=FACE_BOUND('',#148,.T.);
#57=FACE_BOUND('',#149,.T.);
#58=FACE_BOUND('',#150,.T.);
#59=FACE_BOUND('',#151,.T.);
#60=FACE_BOUND('',#152,.T.);
#61=FACE_BOUND('',#153,.T.);
#62=FACE_BOUND('',#154,.T.);
#63=FACE_BOUND('',#155,.T.);
#64=FACE_BOUND('',#156,.T.);
#65=FACE_BOUND('',#157,.T.);
#66=CYLINDRICAL_SURFACE('',#344,25.);
#67=CYLINDRICAL_SURFACE('',#355,25.);
#68=CYLINDRICAL_SURFACE('',#367,46.);
#69=CYLINDRICAL_SURFACE('',#374,50.);
#70=CYLINDRICAL_SURFACE('',#375,50.);
#71=CONICAL_SURFACE('',#340,23.,10.);
#72=CONICAL_SURFACE('',#342,23.,10.);
#73=CONICAL_SURFACE('',#361,47.6225952641917,59.9999999999999);
#74=CONICAL_SURFACE('',#373,50.,59.9999999999998);
#75=CONICAL_SURFACE('',#380,38.0074886388255,2.86805555555556);
#76=CONICAL_SURFACE('',#381,38.0074886388255,2.86805555555556);
#77=LINE('',#499,#85);
#78=LINE('',#501,#86);
#79=LINE('',#507,#87);
#80=LINE('',#511,#88);
#81=LINE('',#558,#89);
#82=LINE('',#560,#90);
#83=LINE('',#569,#91);
#84=LINE('',#570,#92);
#85=VECTOR('',#396,1.);
#86=VECTOR('',#397,1.);
#87=VECTOR('',#406,1.);
#88=VECTOR('',#409,1.);
#89=VECTOR('',#472,1.);
#90=VECTOR('',#473,1.);
#91=VECTOR('',#484,1.);
#92=VECTOR('',#485,1.);
#93=ADVANCED_FACE('',(#120),#114,.T.);
#94=ADVANCED_FACE('',(#121),#71,.T.);
#95=ADVANCED_FACE('',(#122),#72,.T.);
#96=ADVANCED_FACE('',(#123),#66,.T.);
#97=ADVANCED_FACE('',(#44,#45),#115,.F.);
#98=ADVANCED_FACE('',(#124),#40,.F.);
#99=ADVANCED_FACE('',(#125),#67,.T.);
#100=ADVANCED_FACE('',(#46,#47),#116,.F.);
#101=ADVANCED_FACE('',(#48,#49),#73,.T.);
#102=ADVANCED_FACE('',(#50,#51),#117,.T.);
#103=ADVANCED_FACE('',(#52,#53),#41,.F.);
#104=ADVANCED_FACE('',(#54,#55),#68,.T.);
#105=ADVANCED_FACE('',(#56,#57),#42,.F.);
#106=ADVANCED_FACE('',(#58,#59),#118,.T.);
#107=ADVANCED_FACE('',(#60,#61),#74,.T.);
#108=ADVANCED_FACE('',(#62,#63),#69,.T.);
#109=ADVANCED_FACE('',(#64,#65),#70,.T.);
#110=ADVANCED_FACE('',(#126),#43,.F.);
#111=ADVANCED_FACE('',(#127),#119,.F.);
#112=ADVANCED_FACE('',(#128),#75,.T.);
#113=ADVANCED_FACE('',(#129),#76,.T.);
#114=PLANE('',#338);
#115=PLANE('',#349);
#116=PLANE('',#358);
#117=PLANE('',#363);
#118=PLANE('',#371);
#119=PLANE('',#379);
#120=FACE_OUTER_BOUND('',#130,.T.);
#121=FACE_OUTER_BOUND('',#131,.T.);
#122=FACE_OUTER_BOUND('',#132,.T.);
#123=FACE_OUTER_BOUND('',#133,.T.);
#124=FACE_OUTER_BOUND('',#136,.T.);
#125=FACE_OUTER_BOUND('',#137,.T.);
#126=FACE_OUTER_BOUND('',#158,.T.);
#127=FACE_OUTER_BOUND('',#159,.T.);
#128=FACE_OUTER_BOUND('',#160,.T.);
#129=FACE_OUTER_BOUND('',#161,.T.);
#130=EDGE_LOOP('',(#162,#163));
#131=EDGE_LOOP('',(#164,#165,#166,#167));
#132=EDGE_LOOP('',(#168,#169,#170,#171));
#133=EDGE_LOOP('',(#172,#173,#174,#175));
#134=EDGE_LOOP('',(#176,#177));
#135=EDGE_LOOP('',(#178,#179));
#136=EDGE_LOOP('',(#180,#181,#182,#183));
#137=EDGE_LOOP('',(#184,#185,#186,#187));
#138=EDGE_LOOP('',(#188));
#139=EDGE_LOOP('',(#189,#190));
#140=EDGE_LOOP('',(#191));
#141=EDGE_LOOP('',(#192));
#142=EDGE_LOOP('',(#193));
#143=EDGE_LOOP('',(#194));
#144=EDGE_LOOP('',(#195));
#145=EDGE_LOOP('',(#196));
#146=EDGE_LOOP('',(#197));
#147=EDGE_LOOP('',(#198));
#148=EDGE_LOOP('',(#199));
#149=EDGE_LOOP('',(#200));
#150=EDGE_LOOP('',(#201));
#151=EDGE_LOOP('',(#202));
#152=EDGE_LOOP('',(#203));
#153=EDGE_LOOP('',(#204));
#154=EDGE_LOOP('',(#205));
#155=EDGE_LOOP('',(#206));
#156=EDGE_LOOP('',(#207));
#157=EDGE_LOOP('',(#208,#209,#210,#211,#212,#213));
#158=EDGE_LOOP('',(#214,#215,#216,#217));
#159=EDGE_LOOP('',(#218,#219));
#160=EDGE_LOOP('',(#220,#221,#222,#223));
#161=EDGE_LOOP('',(#224,#225,#226,#227));
#162=ORIENTED_EDGE('',*,*,#253,.T.);
#163=ORIENTED_EDGE('',*,*,#254,.T.);
#164=ORIENTED_EDGE('',*,*,#255,.T.);
#165=ORIENTED_EDGE('',*,*,#253,.F.);
#166=ORIENTED_EDGE('',*,*,#256,.F.);
#167=ORIENTED_EDGE('',*,*,#257,.T.);
#168=ORIENTED_EDGE('',*,*,#254,.F.);
#169=ORIENTED_EDGE('',*,*,#255,.F.);
#170=ORIENTED_EDGE('',*,*,#258,.T.);
#171=ORIENTED_EDGE('',*,*,#256,.T.);
#172=ORIENTED_EDGE('',*,*,#259,.T.);
#173=ORIENTED_EDGE('',*,*,#260,.T.);
#174=ORIENTED_EDGE('',*,*,#261,.T.);
#175=ORIENTED_EDGE('',*,*,#258,.F.);
#176=ORIENTED_EDGE('',*,*,#262,.T.);
#177=ORIENTED_EDGE('',*,*,#263,.T.);
#178=ORIENTED_EDGE('',*,*,#264,.T.);
#179=ORIENTED_EDGE('',*,*,#265,.T.);
#180=ORIENTED_EDGE('',*,*,#266,.F.);
#181=ORIENTED_EDGE('',*,*,#267,.F.);
#182=ORIENTED_EDGE('',*,*,#268,.F.);
#183=ORIENTED_EDGE('',*,*,#269,.T.);
#184=ORIENTED_EDGE('',*,*,#268,.T.);
#185=ORIENTED_EDGE('',*,*,#259,.F.);
#186=ORIENTED_EDGE('',*,*,#257,.F.);
#187=ORIENTED_EDGE('',*,*,#261,.F.);
#188=ORIENTED_EDGE('',*,*,#270,.F.);
#189=ORIENTED_EDGE('',*,*,#271,.T.);
#190=ORIENTED_EDGE('',*,*,#266,.T.);
#191=ORIENTED_EDGE('',*,*,#272,.T.);
#192=ORIENTED_EDGE('',*,*,#273,.F.);
#193=ORIENTED_EDGE('',*,*,#273,.T.);
#194=ORIENTED_EDGE('',*,*,#274,.F.);
#195=ORIENTED_EDGE('',*,*,#274,.T.);
#196=ORIENTED_EDGE('',*,*,#275,.F.);
#197=ORIENTED_EDGE('',*,*,#275,.T.);
#198=ORIENTED_EDGE('',*,*,#276,.F.);
#199=ORIENTED_EDGE('',*,*,#276,.T.);
#200=ORIENTED_EDGE('',*,*,#277,.F.);
#201=ORIENTED_EDGE('',*,*,#277,.T.);
#202=ORIENTED_EDGE('',*,*,#278,.F.);
#203=ORIENTED_EDGE('',*,*,#278,.T.);
#204=ORIENTED_EDGE('',*,*,#279,.F.);
#205=ORIENTED_EDGE('',*,*,#270,.T.);
#206=ORIENTED_EDGE('',*,*,#272,.F.);
#207=ORIENTED_EDGE('',*,*,#279,.T.);
#208=ORIENTED_EDGE('',*,*,#280,.F.);
#209=ORIENTED_EDGE('',*,*,#280,.T.);
#210=ORIENTED_EDGE('',*,*,#262,.F.);
#211=ORIENTED_EDGE('',*,*,#281,.F.);
#212=ORIENTED_EDGE('',*,*,#281,.T.);
#213=ORIENTED_EDGE('',*,*,#263,.F.);
#214=ORIENTED_EDGE('',*,*,#267,.T.);
#215=ORIENTED_EDGE('',*,*,#271,.F.);
#216=ORIENTED_EDGE('',*,*,#269,.F.);
#217=ORIENTED_EDGE('',*,*,#260,.F.);
#218=ORIENTED_EDGE('',*,*,#282,.F.);
#219=ORIENTED_EDGE('',*,*,#283,.T.);
#220=ORIENTED_EDGE('',*,*,#265,.F.);
#221=ORIENTED_EDGE('',*,*,#284,.T.);
#222=ORIENTED_EDGE('',*,*,#282,.T.);
#223=ORIENTED_EDGE('',*,*,#285,.F.);
#224=ORIENTED_EDGE('',*,*,#264,.F.);
#225=ORIENTED_EDGE('',*,*,#285,.T.);
#226=ORIENTED_EDGE('',*,*,#283,.F.);
#227=ORIENTED_EDGE('',*,*,#284,.F.);
#228=VERTEX_POINT('',#495);
#229=VERTEX_POINT('',#496);
#230=VERTEX_POINT('',#500);
#231=VERTEX_POINT('',#502);
#232=VERTEX_POINT('',#508);
#233=VERTEX_POINT('',#510);
#234=VERTEX_POINT('',#514);
#235=VERTEX_POINT('',#515);
#236=VERTEX_POINT('',#518);
#237=VERTEX_POINT('',#519);
#238=VERTEX_POINT('',#523);
#239=VERTEX_POINT('',#524);
#240=VERTEX_POINT('',#531);
#241=VERTEX_POINT('',#535);
#242=VERTEX_POINT('',#537);
#243=VERTEX_POINT('',#540);
#244=VERTEX_POINT('',#543);
#245=VERTEX_POINT('',#546);
#246=VERTEX_POINT('',#549);
#247=VERTEX_POINT('',#552);
#248=VERTEX_POINT('',#555);
#249=VERTEX_POINT('',#559);
#250=VERTEX_POINT('',#561);
#251=VERTEX_POINT('',#565);
#252=VERTEX_POINT('',#566);
#253=EDGE_CURVE('',#228,#229,#286,.T.);
#254=EDGE_CURVE('',#229,#228,#287,.T.);
#255=EDGE_CURVE('',#230,#229,#77,.T.);
#256=EDGE_CURVE('',#231,#228,#78,.T.);
#257=EDGE_CURVE('',#231,#230,#288,.T.);
#258=EDGE_CURVE('',#230,#231,#289,.T.);
#259=EDGE_CURVE('',#230,#232,#79,.T.);
#260=EDGE_CURVE('',#232,#233,#290,.T.);
#261=EDGE_CURVE('',#233,#231,#80,.T.);
#262=EDGE_CURVE('',#234,#235,#291,.T.);
#263=EDGE_CURVE('',#235,#234,#292,.T.);
#264=EDGE_CURVE('',#236,#237,#293,.T.);
#265=EDGE_CURVE('',#237,#236,#294,.T.);
#266=EDGE_CURVE('',#238,#239,#295,.T.);
#267=EDGE_CURVE('',#232,#238,#296,.T.);
#268=EDGE_CURVE('',#233,#232,#297,.T.);
#269=EDGE_CURVE('',#233,#239,#298,.T.);
#270=EDGE_CURVE('',#240,#240,#299,.T.);
#271=EDGE_CURVE('',#239,#238,#300,.T.);
#272=EDGE_CURVE('',#241,#241,#301,.T.);
#273=EDGE_CURVE('',#242,#242,#302,.T.);
#274=EDGE_CURVE('',#243,#243,#303,.T.);
#275=EDGE_CURVE('',#244,#244,#304,.T.);
#276=EDGE_CURVE('',#245,#245,#305,.T.);
#277=EDGE_CURVE('',#246,#246,#306,.T.);
#278=EDGE_CURVE('',#247,#247,#307,.T.);
#279=EDGE_CURVE('',#248,#248,#308,.T.);
#280=EDGE_CURVE('',#249,#235,#81,.T.);
#281=EDGE_CURVE('',#250,#234,#82,.T.);
#282=EDGE_CURVE('',#251,#252,#309,.T.);
#283=EDGE_CURVE('',#251,#252,#310,.T.);
#284=EDGE_CURVE('',#237,#251,#83,.T.);
#285=EDGE_CURVE('',#236,#252,#84,.T.);
#286=CIRCLE('',#336,23.);
#287=CIRCLE('',#337,23.);
#288=CIRCLE('',#339,25.);
#289=CIRCLE('',#341,25.);
#290=CIRCLE('',#343,25.);
#291=CIRCLE('',#345,50.);
#292=CIRCLE('',#346,50.);
#293=CIRCLE('',#347,38.0074886388255);
#294=CIRCLE('',#348,38.0074886388255);
#295=CIRCLE('',#350,30.);
#296=CIRCLE('',#351,5.);
#297=CIRCLE('',#352,25.);
#298=CIRCLE('',#353,5.);
#299=CIRCLE('',#356,50.);
#300=CIRCLE('',#357,30.);
#301=CIRCLE('',#359,50.);
#302=CIRCLE('',#360,47.6225952641917);
#303=CIRCLE('',#362,47.);
#304=CIRCLE('',#364,46.);
#305=CIRCLE('',#366,46.);
#306=CIRCLE('',#368,47.);
#307=CIRCLE('',#370,47.6225952641917);
#308=CIRCLE('',#372,50.);
#309=CIRCLE('',#377,35.502545444698);
#310=CIRCLE('',#378,35.502545444698);
#311=INVISIBILITY((#312,#313,#314,#315));
#312=PRESENTATION_LAYER_ASSIGNMENT('100','Layer 100',(#333));
#313=PRESENTATION_LAYER_ASSIGNMENT('101','Layer 101',(#334));
#314=PRESENTATION_LAYER_ASSIGNMENT('102','Layer 102',(#335));
#315=PRESENTATION_LAYER_ASSIGNMENT('98','Layer 98',(#38));
#316=STYLED_ITEM('',(#320),#333);
#317=STYLED_ITEM('',(#321),#334);
#318=STYLED_ITEM('',(#322),#335);
#319=STYLED_ITEM('',(#323),#38);
#320=PRESENTATION_STYLE_ASSIGNMENT((#324));
#321=PRESENTATION_STYLE_ASSIGNMENT((#325));
#322=PRESENTATION_STYLE_ASSIGNMENT((#326));
#323=PRESENTATION_STYLE_ASSIGNMENT((#33));
#324=CURVE_STYLE('',#329,POSITIVE_LENGTH_MEASURE(0.7),#327);
#325=CURVE_STYLE('',#330,POSITIVE_LENGTH_MEASURE(0.7),#327);
#326=CURVE_STYLE('',#331,POSITIVE_LENGTH_MEASURE(0.7),#327);
#327=COLOUR_RGB('Medium Maroon',0.6,0.4,0.4);
#328=COLOUR_RGB('Medium Gray',0.490196078431373,0.490196078431373,0.490196078431373);
#329=DRAUGHTING_PRE_DEFINED_CURVE_FONT('continuous');
#330=DRAUGHTING_PRE_DEFINED_CURVE_FONT('continuous');
#331=DRAUGHTING_PRE_DEFINED_CURVE_FONT('continuous');
#332=AXIS2_PLACEMENT_3D('',#490,#382,#383);
#333=AXIS2_PLACEMENT_3D('PCS',#491,#384,#385);
#334=AXIS2_PLACEMENT_3D('CSW',#492,#386,#387);
#335=AXIS2_PLACEMENT_3D('MCS',#493,#388,#389);
#336=AXIS2_PLACEMENT_3D('',#494,#390,#391);
#337=AXIS2_PLACEMENT_3D('',#497,#392,#393);
#338=AXIS2_PLACEMENT_3D('',#498,#394,#395);
#339=AXIS2_PLACEMENT_3D('',#503,#398,#399);
#340=AXIS2_PLACEMENT_3D('',#504,#400,#401);
#341=AXIS2_PLACEMENT_3D('',#505,#402,#403);
#342=AXIS2_PLACEMENT_3D('',#506,#404,#405);
#343=AXIS2_PLACEMENT_3D('',#509,#407,#408);
#344=AXIS2_PLACEMENT_3D('',#512,#410,#411);
#345=AXIS2_PLACEMENT_3D('',#513,#412,#413);
#346=AXIS2_PLACEMENT_3D('',#516,#414,#415);
#347=AXIS2_PLACEMENT_3D('',#517,#416,#417);
#348=AXIS2_PLACEMENT_3D('',#520,#418,#419);
#349=AXIS2_PLACEMENT_3D('',#521,#420,#421);
#350=AXIS2_PLACEMENT_3D('',#522,#422,#423);
#351=AXIS2_PLACEMENT_3D('',#525,#424,#425);
#352=AXIS2_PLACEMENT_3D('',#526,#426,#427);
#353=AXIS2_PLACEMENT_3D('',#527,#428,#429);
#354=AXIS2_PLACEMENT_3D('',#528,#430,#431);
#355=AXIS2_PLACEMENT_3D('',#529,#432,#433);
#356=AXIS2_PLACEMENT_3D('',#530,#434,#435);
#357=AXIS2_PLACEMENT_3D('',#532,#436,#437);
#358=AXIS2_PLACEMENT_3D('',#533,#438,#439);
#359=AXIS2_PLACEMENT_3D('',#534,#440,#441);
#360=AXIS2_PLACEMENT_3D('',#536,#442,#443);
#361=AXIS2_PLACEMENT_3D('',#538,#444,#445);
#362=AXIS2_PLACEMENT_3D('',#539,#446,#447);
#363=AXIS2_PLACEMENT_3D('',#541,#448,#449);
#364=AXIS2_PLACEMENT_3D('',#542,#450,#451);
#365=AXIS2_PLACEMENT_3D('',#544,#452,#453);
#366=AXIS2_PLACEMENT_3D('',#545,#454,#455);
#367=AXIS2_PLACEMENT_3D('',#547,#456,#457);
#368=AXIS2_PLACEMENT_3D('',#548,#458,#459);
#369=AXIS2_PLACEMENT_3D('',#550,#460,#461);
#370=AXIS2_PLACEMENT_3D('',#551,#462,#463);
#371=AXIS2_PLACEMENT_3D('',#553,#464,#465);
#372=AXIS2_PLACEMENT_3D('',#554,#466,#467);
#373=AXIS2_PLACEMENT_3D('',#556,#468,#469);
#374=AXIS2_PLACEMENT_3D('',#557,#470,#471);
#375=AXIS2_PLACEMENT_3D('',#562,#474,#475);
#376=AXIS2_PLACEMENT_3D('',#563,#476,#477);
#377=AXIS2_PLACEMENT_3D('',#564,#478,#479);
#378=AXIS2_PLACEMENT_3D('',#567,#480,#481);
#379=AXIS2_PLACEMENT_3D('',#568,#482,#483);
#380=AXIS2_PLACEMENT_3D('',#571,#486,#487);
#381=AXIS2_PLACEMENT_3D('',#572,#488,#489);
#382=DIRECTION('',(0.,0.,1.));
#383=DIRECTION('',(1.,0.,0.));
#384=DIRECTION('',(0.,0.,1.));
#385=DIRECTION('',(1.,0.,0.));
#386=DIRECTION('',(0.,0.,1.));
#387=DIRECTION('',(1.,0.,0.));
#388=DIRECTION('',(0.,0.,1.));
#389=DIRECTION('',(1.,0.,0.));
#390=DIRECTION('',(0.,0.,-1.));
#391=DIRECTION('',(1.,0.,0.));
#392=DIRECTION('',(0.,0.,-1.));
#393=DIRECTION('',(1.,0.,0.));
#394=DIRECTION('',(0.,0.,-1.));
#395=DIRECTION('',(-1.,0.,0.));
#396=DIRECTION('',(-0.173648177666931,2.12657684957578E-17,-0.984807753012208));
#397=DIRECTION('',(0.173648177666931,0.,-0.984807753012208));
#398=DIRECTION('',(0.,0.,-1.));
#399=DIRECTION('',(1.,0.,0.));
#400=DIRECTION('',(0.,0.,1.));
#401=DIRECTION('',(1.,0.,0.));
#402=DIRECTION('',(0.,0.,-1.));
#403=DIRECTION('',(1.,0.,0.));
#404=DIRECTION('',(0.,0.,1.));
#405=DIRECTION('',(1.,0.,0.));
#406=DIRECTION('',(0.,0.,1.));
#407=DIRECTION('',(0.,0.,-1.));
#408=DIRECTION('',(-1.,0.,0.));
#409=DIRECTION('',(0.,0.,-1.));
#410=DIRECTION('',(0.,0.,-1.));
#411=DIRECTION('',(-1.,0.,0.));
#412=DIRECTION('',(0.,0.,1.));
#413=DIRECTION('',(-1.,0.,0.));
#414=DIRECTION('',(0.,0.,1.));
#415=DIRECTION('',(-1.,0.,0.));
#416=DIRECTION('',(0.,0.,-1.));
#417=DIRECTION('',(-1.,0.,0.));
#418=DIRECTION('',(0.,0.,-1.));
#419=DIRECTION('',(-1.,0.,0.));
#420=DIRECTION('',(0.,0.,-1.));
#421=DIRECTION('',(-1.,0.,0.));
#422=DIRECTION('',(0.,0.,1.));
#423=DIRECTION('',(-1.,0.,0.));
#424=DIRECTION('',(1.22464679914735E-16,1.,0.));
#425=DIRECTION('',(-1.,1.22464679914735E-16,0.));
#426=DIRECTION('',(0.,0.,-1.));
#427=DIRECTION('',(-1.,0.,0.));
#428=DIRECTION('',(0.,-1.,0.));
#429=DIRECTION('',(1.,0.,0.));
#430=DIRECTION('',(0.,0.,1.));
#431=DIRECTION('',(1.,0.,0.));
#432=DIRECTION('',(0.,0.,1.));
#433=DIRECTION('',(1.,0.,0.));
#434=DIRECTION('',(0.,0.,1.));
#435=DIRECTION('',(-1.,0.,0.));
#436=DIRECTION('',(0.,0.,1.));
#437=DIRECTION('',(-1.,0.,0.));
#438=DIRECTION('',(0.,0.,1.));
#439=DIRECTION('',(1.,0.,0.));
#440=DIRECTION('',(0.,0.,1.));
#441=DIRECTION('',(-1.,0.,0.));
#442=DIRECTION('',(0.,0.,1.));
#443=DIRECTION('',(-1.,0.,0.));
#444=DIRECTION('',(0.,0.,-1.));
#445=DIRECTION('',(-1.,0.,-4.2888674304776E-17));
#446=DIRECTION('',(0.,0.,1.));
#447=DIRECTION('',(-1.,0.,0.));
#448=DIRECTION('',(0.,0.,1.));
#449=DIRECTION('',(1.,0.,0.));
#450=DIRECTION('',(0.,0.,1.));
#451=DIRECTION('',(-1.,0.,0.));
#452=DIRECTION('',(0.,0.,1.));
#453=DIRECTION('',(1.,0.,0.));
#454=DIRECTION('',(0.,0.,1.));
#455=DIRECTION('',(-1.,0.,0.));
#456=DIRECTION('',(0.,0.,1.));
#457=DIRECTION('',(1.,0.,0.));
#458=DIRECTION('',(0.,0.,1.));
#459=DIRECTION('',(-1.,0.,0.));
#460=DIRECTION('',(0.,0.,1.));
#461=DIRECTION('',(1.,0.,0.));
#462=DIRECTION('',(0.,0.,1.));
#463=DIRECTION('',(-1.,0.,0.));
#464=DIRECTION('',(0.,0.,-1.));
#465=DIRECTION('',(-1.,0.,0.));
#466=DIRECTION('',(0.,0.,1.));
#467=DIRECTION('',(-1.,0.,0.));
#468=DIRECTION('',(0.,0.,1.));
#469=DIRECTION('',(1.,0.,-2.72563818725318E-17));
#470=DIRECTION('',(0.,0.,1.));
#471=DIRECTION('',(1.,0.,0.));
#472=DIRECTION('',(0.,0.,1.));
#473=DIRECTION('',(0.,0.,1.));
#474=DIRECTION('',(0.,0.,1.));
#475=DIRECTION('',(1.,0.,0.));
#476=DIRECTION('',(0.,0.,1.));
#477=DIRECTION('',(1.,0.,0.));
#478=DIRECTION('',(0.,-2.27784304641408E-16,-1.));
#479=DIRECTION('',(0.,1.,-1.95447785982441E-16));
#480=DIRECTION('',(0.,2.27784304641408E-16,1.));
#481=DIRECTION('',(0.,1.,-1.95447785982441E-16));
#482=DIRECTION('',(0.,-2.27784304641408E-16,-1.));
#483=DIRECTION('',(0.,1.,-2.28983498828939E-16));
#484=DIRECTION('',(6.12765625816607E-18,-0.0500361105131076,0.998747409330668));
#485=DIRECTION('',(0.,0.0500361105131081,0.998747409330668));
#486=DIRECTION('',(0.,-2.27784304641408E-16,-1.));
#487=DIRECTION('',(0.,1.,3.15023546218131E-16));
#488=DIRECTION('',(0.,-2.27784304641408E-16,-1.));
#489=DIRECTION('',(0.,1.,3.15023546218131E-16));
#490=CARTESIAN_POINT('',(0.,0.,0.));
#491=CARTESIAN_POINT('',(0.,0.,0.));
#492=CARTESIAN_POINT('',(0.,0.,-150.));
#493=CARTESIAN_POINT('',(0.,0.,0.));
#494=CARTESIAN_POINT('',(-5.95749121118056E-14,-1.34106353887572E-29,-150.));
#495=CARTESIAN_POINT('',(-23.0000000000001,-1.34106353887572E-29,-150.));
#496=CARTESIAN_POINT('',(22.9999999999999,-2.93915231795366E-15,-150.));
#497=CARTESIAN_POINT('',(-5.95749121118056E-14,-1.34106353887572E-29,-150.));
#498=CARTESIAN_POINT('',(-5.95749121118056E-14,-1.34106353887572E-29,-150.));
#499=CARTESIAN_POINT('',(22.9999999999999,-2.81668763803893E-15,-150.));
#500=CARTESIAN_POINT('',(24.9999999999999,-1.34106353887572E-29,-138.657436360765));
#501=CARTESIAN_POINT('',(-23.0000000000001,-1.34106353887572E-29,-150.));
#502=CARTESIAN_POINT('',(-25.0000000000001,-3.0616169978684E-15,-138.657436360765));
#503=CARTESIAN_POINT('',(-5.95749121118056E-14,-1.34106353887572E-29,-138.657436360765));
#504=CARTESIAN_POINT('',(-5.95749121118056E-14,-1.34106353887572E-29,-150.));
#505=CARTESIAN_POINT('',(-5.95749121118056E-14,-1.34106353887572E-29,-138.657436360765));
#506=CARTESIAN_POINT('',(-5.95749121118056E-14,-1.34106353887572E-29,-150.));
#507=CARTESIAN_POINT('',(24.9999999999999,-1.34106353887572E-29,-152.818070107289));
#508=CARTESIAN_POINT('',(24.9999999999999,-3.0616169978684E-15,-34.));
#509=CARTESIAN_POINT('',(-5.95749121118056E-14,-1.34106353887572E-29,-34.));
#510=CARTESIAN_POINT('',(-25.0000000000001,-1.34106353887572E-29,-34.));
#511=CARTESIAN_POINT('',(-25.0000000000001,-3.0616169978684E-15,-152.818070107289));
#512=CARTESIAN_POINT('',(-5.95749121118056E-14,-1.34106353887572E-29,-152.818070107289));
#513=CARTESIAN_POINT('',(-5.95749121118056E-14,-1.34106353887572E-29,0.));
#514=CARTESIAN_POINT('',(-50.0000000000001,-1.34106353887572E-29,0.));
#515=CARTESIAN_POINT('',(49.9999999999999,-6.12323399573678E-15,0.));
#516=CARTESIAN_POINT('',(-5.95749121118056E-14,-1.34106353887572E-29,0.));
#517=CARTESIAN_POINT('',(-6.00086434953332E-14,-1.64921232997768E-29,-1.38777878078145E-14));
#518=CARTESIAN_POINT('',(-5.49203371812889E-14,-38.0074886388255,-1.38777878078145E-14));
#519=CARTESIAN_POINT('',(-5.95749121118056E-14,38.0074886388255,-1.38777878078145E-14));
#520=CARTESIAN_POINT('',(-6.00086434953332E-14,-1.64921232997768E-29,-1.38777878078145E-14));
#521=CARTESIAN_POINT('',(-5.95749121118056E-14,-1.34106353887572E-29,-1.38777878078145E-14));
#522=CARTESIAN_POINT('',(-5.95749121118056E-14,-1.34106353887572E-29,-29.));
#523=CARTESIAN_POINT('',(29.9999999999999,-3.67394039744207E-15,-29.));
#524=CARTESIAN_POINT('',(-30.0000000000001,-1.34106353887572E-29,-29.));
#525=CARTESIAN_POINT('',(29.9999999999999,-3.67394039744207E-15,-34.));
#526=CARTESIAN_POINT('',(-5.95749121118056E-14,-1.34106353887572E-29,-34.));
#527=CARTESIAN_POINT('',(-30.0000000000001,-1.34106353887572E-29,-34.));
#528=CARTESIAN_POINT('',(-5.95749121118056E-14,-1.34106353887572E-29,-34.));
#529=CARTESIAN_POINT('',(-5.95749121118056E-14,-1.34106353887572E-29,60.105));
#530=CARTESIAN_POINT('',(-5.95749121118056E-14,-1.34106353887572E-29,-29.));
#531=CARTESIAN_POINT('',(-50.0000000000001,-1.34106353887572E-29,-29.));
#532=CARTESIAN_POINT('',(-5.95749121118056E-14,-1.34106353887572E-29,-29.));
#533=CARTESIAN_POINT('',(-5.95749121118056E-14,-50.,-29.));
#534=CARTESIAN_POINT('',(-5.95749121118056E-14,-1.34106353887572E-29,-23.2475952641917));
#535=CARTESIAN_POINT('',(-50.0000000000001,-1.34106353887572E-29,-23.2475952641917));
#536=CARTESIAN_POINT('',(-5.95749121118056E-14,-1.34106353887572E-29,-21.875));
#537=CARTESIAN_POINT('',(-47.6225952641917,-1.34106353887572E-29,-21.875));
#538=CARTESIAN_POINT('',(-5.95749121118056E-14,-1.34106353887572E-29,-21.875));
#539=CARTESIAN_POINT('',(-5.95749121118056E-14,-1.34106353887572E-29,-21.875));
#540=CARTESIAN_POINT('',(-47.0000000000001,-1.34106353887572E-29,-21.875));
#541=CARTESIAN_POINT('',(-5.95749121118056E-14,-47.6225952641917,-21.875));
#542=CARTESIAN_POINT('',(-5.95749121118056E-14,-1.34106353887572E-29,-20.875));
#543=CARTESIAN_POINT('',(-46.0000000000001,-1.34106353887572E-29,-20.875));
#544=CARTESIAN_POINT('',(-5.95749121118056E-14,-1.34106353887572E-29,-20.875));
#545=CARTESIAN_POINT('',(-5.95749121118056E-14,-1.34106353887572E-29,-19.125));
#546=CARTESIAN_POINT('',(-46.0000000000001,-1.34106353887572E-29,-19.125));
#547=CARTESIAN_POINT('',(-5.95749121118056E-14,-1.34106353887572E-29,-2.08166817117217E-14));
#548=CARTESIAN_POINT('',(-5.95749121118056E-14,-1.34106353887572E-29,-18.125));
#549=CARTESIAN_POINT('',(-47.0000000000001,-1.34106353887572E-29,-18.125));
#550=CARTESIAN_POINT('',(-5.95749121118056E-14,-1.34106353887572E-29,-19.125));
#551=CARTESIAN_POINT('',(-5.95749121118056E-14,-1.34106353887572E-29,-18.125));
#552=CARTESIAN_POINT('',(-47.6225952641917,-1.34106353887572E-29,-18.125));
#553=CARTESIAN_POINT('',(-5.95749121118056E-14,-47.6225952641917,-18.125));
#554=CARTESIAN_POINT('',(-5.95749121118056E-14,-1.34106353887572E-29,-16.7524047358084));
#555=CARTESIAN_POINT('',(-50.0000000000001,-1.34106353887572E-29,-16.7524047358084));
#556=CARTESIAN_POINT('',(-5.95749121118056E-14,-1.34106353887572E-29,-16.7524047358084));
#557=CARTESIAN_POINT('',(-5.95749121118056E-14,-1.34106353887572E-29,-2.77555756156289E-14));
#558=CARTESIAN_POINT('',(49.9999999999999,-6.12323399573678E-15,-2.77555756156289E-14));
#559=CARTESIAN_POINT('',(49.9999999999999,-6.12323399573678E-15,-5.));
#560=CARTESIAN_POINT('',(-50.0000000000001,-1.34106353887572E-29,-2.77555756156289E-14));
#561=CARTESIAN_POINT('',(-50.0000000000001,-1.34106353887572E-29,-5.));
#562=CARTESIAN_POINT('',(-5.95749121118056E-14,-1.34106353887572E-29,-2.77555756156289E-14));
#563=CARTESIAN_POINT('',(-5.95749121118056E-14,-1.34106353887572E-29,-34.));
#564=CARTESIAN_POINT('',(-5.95749121118056E-14,1.13892152320704E-14,50.));
#565=CARTESIAN_POINT('',(-6.39227199758488E-14,35.502545444698,50.));
#566=CARTESIAN_POINT('',(-5.95749121118056E-14,-35.5025454446979,50.));
#567=CARTESIAN_POINT('',(-5.95749121118056E-14,1.13892152320704E-14,50.));
#568=CARTESIAN_POINT('',(-5.95749121118056E-14,-35.5025454446979,50.));
#569=CARTESIAN_POINT('',(-6.42294870423223E-14,38.0074886388255,-3.46944695195361E-14));
#570=CARTESIAN_POINT('',(-5.95749121118056E-14,-38.0074886388255,-2.08166817117217E-14));
#571=CARTESIAN_POINT('',(-5.95749121118056E-14,-1.64921232997768E-29,-2.77555756156289E-14));
#572=CARTESIAN_POINT('',(-5.95749121118056E-14,-1.64921232997768E-29,-2.77555756156289E-14));
#573=MECHANICAL_DESIGN_GEOMETRIC_PRESENTATION_REPRESENTATION('',(#316,#317,
#318,#319),#574);
#574=(
GEOMETRIC_REPRESENTATION_CONTEXT(3)
GLOBAL_UNCERTAINTY_ASSIGNED_CONTEXT((#575))
GLOBAL_UNIT_ASSIGNED_CONTEXT((#581,#577,#576))
REPRESENTATION_CONTEXT('HSK.100A-HC.25','TOP_LEVEL_ASSEMBLY_PART')
);
#575=UNCERTAINTY_MEASURE_WITH_UNIT(LENGTH_MEASURE(2.E-5),#581,
'DISTANCE_ACCURACY_VALUE','Maximum Tolerance applied to model');
#576=(
NAMED_UNIT(*)
SI_UNIT($,.STERADIAN.)
SOLID_ANGLE_UNIT()
);
#577=(
CONVERSION_BASED_UNIT('DEGREE',#579)
NAMED_UNIT(#578)
PLANE_ANGLE_UNIT()
);
#578=DIMENSIONAL_EXPONENTS(0.,0.,0.,0.,0.,0.,0.);
#579=PLANE_ANGLE_MEASURE_WITH_UNIT(PLANE_ANGLE_MEASURE(0.0174532925),#580);
#580=(
NAMED_UNIT(*)
PLANE_ANGLE_UNIT()
SI_UNIT($,.RADIAN.)
);
#581=(
LENGTH_UNIT()
NAMED_UNIT(*)
SI_UNIT(.MILLI.,.METRE.)
);
ENDSEC;
END-ISO-10303-21;
