ISO-10303-21;
HEADER;
/* Generated by software containing ST-Developer
 * from STEP Tools, Inc. (www.steptools.com) 
 */
/* OPTION: using custom schema-name function */

FILE_DESCRIPTION(
/* description */ (''),
/* implementation_level */ '2;1');

FILE_NAME(
/* name */ 'HSK.100A-FMH2.22.060.stp',
/* time_stamp */ '2024-07-20T22:29:51+02:00',
/* author */ (''),
/* organization */ (''),
/* preprocessor_version */ 'ST-DEVELOPER v16.7',
/* originating_system */ 'SIEMENS PLM Software NX 12.0',
/* authorisation */ '');

FILE_SCHEMA (('AUTOMOTIVE_DESIGN { 1 0 10303 214 3 1 1 1 }'));
ENDSEC;

DATA;
#10=CONSTRUCTIVE_GEOMETRY_REPRESENTATION_RELATIONSHIP(
'supplemental geometry','',#32,#11);
#11=CONSTRUCTIVE_GEOMETRY_REPRESENTATION('supplemental geometry',(#354,
#355,#356),#599);
#12=PROPERTY_DEFINITION_REPRESENTATION(#16,#14);
#13=PROPERTY_DEFINITION_REPRESENTATION(#17,#15);
#14=REPRESENTATION('',(#18),#599);
#15=REPRESENTATION('',(#19),#599);
#16=PROPERTY_DEFINITION('pmi validation property','',#23);
#17=PROPERTY_DEFINITION('pmi validation property','',#23);
#18=VALUE_REPRESENTATION_ITEM('number of annotations',COUNT_MEASURE(0.));
#19=VALUE_REPRESENTATION_ITEM('number of views',COUNT_MEASURE(0.));
#20=SHAPE_REPRESENTATION_RELATIONSHIP('None',
'relationship between pf66136429D4x1ny-None and pf66136429D4x1ny-None',
#32,#21);
#21=ADVANCED_BREP_SHAPE_REPRESENTATION('pf66136429D4x1ny-None',(#38),#599);
#22=SHAPE_DEFINITION_REPRESENTATION(#23,#32);
#23=PRODUCT_DEFINITION_SHAPE('','',#24);
#24=PRODUCT_DEFINITION(' ','',#26,#25);
#25=PRODUCT_DEFINITION_CONTEXT('part definition',#31,'design');
#26=PRODUCT_DEFINITION_FORMATION_WITH_SPECIFIED_SOURCE(' ',' ',#28,
 .NOT_KNOWN.);
#27=PRODUCT_RELATED_PRODUCT_CATEGORY('part','',(#28));
#28=PRODUCT('pf66136429D4x1ny','pf66136429D4x1ny',' ',(#29));
#29=PRODUCT_CONTEXT(' ',#31,'mechanical');
#30=APPLICATION_PROTOCOL_DEFINITION('international standard',
'automotive_design',2010,#31);
#31=APPLICATION_CONTEXT(
'core data for automotive mechanical design processes');
#32=SHAPE_REPRESENTATION('pf66136429D4x1ny-None',(#353),#599);
#33=SURFACE_STYLE_USAGE(.BOTH.,#34);
#34=SURFACE_SIDE_STYLE('',(#35));
#35=SURFACE_STYLE_FILL_AREA(#36);
#36=FILL_AREA_STYLE('',(#37));
#37=FILL_AREA_STYLE_COLOUR('',#349);
#38=MANIFOLD_SOLID_BREP('\X\B0\X2\014100AE0106\X0\-\X\B1\X2\017000C20154\X0\8',
#39);
#39=CLOSED_SHELL('',(#58,#59,#60,#61,#62,#63,#64,#65,#66,#67,#68,#69,#70,
#71,#72,#73,#74,#75));
#40=CONICAL_SURFACE('',#377,50.,60.0000000000002);
#41=CONICAL_SURFACE('',#386,47.6225952641916,60.0000000000002);
#42=CONICAL_SURFACE('',#399,37.9007971322512,2.8681);
#43=PLANE('',#372);
#44=PLANE('',#379);
#45=PLANE('',#385);
#46=PLANE('',#389);
#47=PLANE('',#392);
#48=PLANE('',#395);
#49=PLANE('',#398);
#50=TOROIDAL_SURFACE('',#369,23.,3.);
#51=TOROIDAL_SURFACE('',#387,46.5,0.5);
#52=TOROIDAL_SURFACE('',#388,46.5,0.5);
#53=FACE_OUTER_BOUND('',#133,.T.);
#54=FACE_OUTER_BOUND('',#134,.T.);
#55=FACE_OUTER_BOUND('',#157,.T.);
#56=FACE_OUTER_BOUND('',#158,.T.);
#57=FACE_OUTER_BOUND('',#159,.T.);
#58=ADVANCED_FACE('',(#103,#104),#76,.T.);
#59=ADVANCED_FACE('',(#53),#77,.T.);
#60=ADVANCED_FACE('',(#54),#50,.F.);
#61=ADVANCED_FACE('',(#105,#106),#43,.T.);
#62=ADVANCED_FACE('',(#107,#108),#78,.T.);
#63=ADVANCED_FACE('',(#109,#110),#40,.T.);
#64=ADVANCED_FACE('',(#111,#112),#44,.T.);
#65=ADVANCED_FACE('',(#113,#114),#79,.T.);
#66=ADVANCED_FACE('',(#115,#116),#45,.T.);
#67=ADVANCED_FACE('',(#117,#118),#41,.T.);
#68=ADVANCED_FACE('',(#119,#120),#51,.F.);
#69=ADVANCED_FACE('',(#121,#122),#52,.F.);
#70=ADVANCED_FACE('',(#123,#124),#46,.T.);
#71=ADVANCED_FACE('',(#125,#126),#47,.T.);
#72=ADVANCED_FACE('',(#55),#48,.T.);
#73=ADVANCED_FACE('',(#56),#80,.T.);
#74=ADVANCED_FACE('',(#57),#49,.T.);
#75=ADVANCED_FACE('',(#127,#128,#129,#130),#42,.T.);
#76=CYLINDRICAL_SURFACE('',#360,50.);
#77=CYLINDRICAL_SURFACE('',#364,20.);
#78=CYLINDRICAL_SURFACE('',#375,50.);
#79=CYLINDRICAL_SURFACE('',#382,46.);
#80=CYLINDRICAL_SURFACE('',#396,11.);
#81=LINE('',#514,#92);
#82=LINE('',#517,#93);
#83=LINE('',#523,#94);
#84=LINE('',#526,#95);
#85=LINE('',#578,#96);
#86=LINE('',#580,#97);
#87=LINE('',#581,#98);
#88=LINE('',#587,#99);
#89=LINE('',#589,#100);
#90=LINE('',#591,#101);
#91=LINE('',#594,#102);
#92=VECTOR('',#412,1.);
#93=VECTOR('',#415,1.);
#94=VECTOR('',#420,1.);
#95=VECTOR('',#423,1.);
#96=VECTOR('',#490,1.);
#97=VECTOR('',#491,1.);
#98=VECTOR('',#492,1.);
#99=VECTOR('',#499,1.);
#100=VECTOR('',#500,1.);
#101=VECTOR('',#501,1.);
#102=VECTOR('',#502,1.);
#103=FACE_BOUND('',#131,.T.);
#104=FACE_BOUND('',#132,.T.);
#105=FACE_BOUND('',#135,.T.);
#106=FACE_BOUND('',#136,.T.);
#107=FACE_BOUND('',#137,.T.);
#108=FACE_BOUND('',#138,.T.);
#109=FACE_BOUND('',#139,.T.);
#110=FACE_BOUND('',#140,.T.);
#111=FACE_BOUND('',#141,.T.);
#112=FACE_BOUND('',#142,.T.);
#113=FACE_BOUND('',#143,.T.);
#114=FACE_BOUND('',#144,.T.);
#115=FACE_BOUND('',#145,.T.);
#116=FACE_BOUND('',#146,.T.);
#117=FACE_BOUND('',#147,.T.);
#118=FACE_BOUND('',#148,.T.);
#119=FACE_BOUND('',#149,.T.);
#120=FACE_BOUND('',#150,.T.);
#121=FACE_BOUND('',#151,.T.);
#122=FACE_BOUND('',#152,.T.);
#123=FACE_BOUND('',#153,.T.);
#124=FACE_BOUND('',#154,.T.);
#125=FACE_BOUND('',#155,.T.);
#126=FACE_BOUND('',#156,.T.);
#127=FACE_BOUND('',#160,.T.);
#128=FACE_BOUND('',#161,.T.);
#129=FACE_BOUND('',#162,.T.);
#130=FACE_BOUND('',#163,.T.);
#131=EDGE_LOOP('',(#164));
#132=EDGE_LOOP('',(#165,#166,#167,#168,#169,#170));
#133=EDGE_LOOP('',(#171,#172,#173,#174,#175,#176,#177));
#134=EDGE_LOOP('',(#178,#179,#180,#181,#182,#183,#184));
#135=EDGE_LOOP('',(#185,#186));
#136=EDGE_LOOP('',(#187,#188));
#137=EDGE_LOOP('',(#189));
#138=EDGE_LOOP('',(#190));
#139=EDGE_LOOP('',(#191));
#140=EDGE_LOOP('',(#192));
#141=EDGE_LOOP('',(#193));
#142=EDGE_LOOP('',(#194));
#143=EDGE_LOOP('',(#195));
#144=EDGE_LOOP('',(#196));
#145=EDGE_LOOP('',(#197));
#146=EDGE_LOOP('',(#198));
#147=EDGE_LOOP('',(#199));
#148=EDGE_LOOP('',(#200));
#149=EDGE_LOOP('',(#201));
#150=EDGE_LOOP('',(#202));
#151=EDGE_LOOP('',(#203));
#152=EDGE_LOOP('',(#204));
#153=EDGE_LOOP('',(#205));
#154=EDGE_LOOP('',(#206,#207));
#155=EDGE_LOOP('',(#208,#209));
#156=EDGE_LOOP('',(#210,#211));
#157=EDGE_LOOP('',(#212,#213));
#158=EDGE_LOOP('',(#214,#215,#216,#217,#218,#219,#220,#221,#222,#223));
#159=EDGE_LOOP('',(#224));
#160=EDGE_LOOP('',(#225,#226,#227,#228,#229,#230));
#161=EDGE_LOOP('',(#231,#232));
#162=EDGE_LOOP('',(#233));
#163=EDGE_LOOP('',(#234,#235));
#164=ORIENTED_EDGE('',*,*,#271,.T.);
#165=ORIENTED_EDGE('',*,*,#272,.F.);
#166=ORIENTED_EDGE('',*,*,#273,.F.);
#167=ORIENTED_EDGE('',*,*,#273,.T.);
#168=ORIENTED_EDGE('',*,*,#274,.F.);
#169=ORIENTED_EDGE('',*,*,#275,.F.);
#170=ORIENTED_EDGE('',*,*,#275,.T.);
#171=ORIENTED_EDGE('',*,*,#276,.F.);
#172=ORIENTED_EDGE('',*,*,#277,.T.);
#173=ORIENTED_EDGE('',*,*,#277,.F.);
#174=ORIENTED_EDGE('',*,*,#278,.F.);
#175=ORIENTED_EDGE('',*,*,#279,.T.);
#176=ORIENTED_EDGE('',*,*,#280,.T.);
#177=ORIENTED_EDGE('',*,*,#279,.F.);
#178=ORIENTED_EDGE('',*,*,#281,.T.);
#179=ORIENTED_EDGE('',*,*,#281,.F.);
#180=ORIENTED_EDGE('',*,*,#282,.F.);
#181=ORIENTED_EDGE('',*,*,#283,.T.);
#182=ORIENTED_EDGE('',*,*,#280,.F.);
#183=ORIENTED_EDGE('',*,*,#283,.F.);
#184=ORIENTED_EDGE('',*,*,#284,.F.);
#185=ORIENTED_EDGE('',*,*,#285,.F.);
#186=ORIENTED_EDGE('',*,*,#286,.F.);
#187=ORIENTED_EDGE('',*,*,#278,.T.);
#188=ORIENTED_EDGE('',*,*,#276,.T.);
#189=ORIENTED_EDGE('',*,*,#287,.F.);
#190=ORIENTED_EDGE('',*,*,#288,.F.);
#191=ORIENTED_EDGE('',*,*,#289,.T.);
#192=ORIENTED_EDGE('',*,*,#271,.F.);
#193=ORIENTED_EDGE('',*,*,#289,.F.);
#194=ORIENTED_EDGE('',*,*,#290,.T.);
#195=ORIENTED_EDGE('',*,*,#291,.T.);
#196=ORIENTED_EDGE('',*,*,#292,.T.);
#197=ORIENTED_EDGE('',*,*,#293,.T.);
#198=ORIENTED_EDGE('',*,*,#294,.T.);
#199=ORIENTED_EDGE('',*,*,#294,.F.);
#200=ORIENTED_EDGE('',*,*,#287,.T.);
#201=ORIENTED_EDGE('',*,*,#292,.F.);
#202=ORIENTED_EDGE('',*,*,#293,.F.);
#203=ORIENTED_EDGE('',*,*,#290,.F.);
#204=ORIENTED_EDGE('',*,*,#291,.F.);
#205=ORIENTED_EDGE('',*,*,#288,.T.);
#206=ORIENTED_EDGE('',*,*,#282,.T.);
#207=ORIENTED_EDGE('',*,*,#284,.T.);
#208=ORIENTED_EDGE('',*,*,#295,.F.);
#209=ORIENTED_EDGE('',*,*,#296,.F.);
#210=ORIENTED_EDGE('',*,*,#272,.T.);
#211=ORIENTED_EDGE('',*,*,#274,.T.);
#212=ORIENTED_EDGE('',*,*,#297,.T.);
#213=ORIENTED_EDGE('',*,*,#298,.T.);
#214=ORIENTED_EDGE('',*,*,#299,.F.);
#215=ORIENTED_EDGE('',*,*,#299,.T.);
#216=ORIENTED_EDGE('',*,*,#298,.F.);
#217=ORIENTED_EDGE('',*,*,#300,.T.);
#218=ORIENTED_EDGE('',*,*,#285,.T.);
#219=ORIENTED_EDGE('',*,*,#301,.F.);
#220=ORIENTED_EDGE('',*,*,#301,.T.);
#221=ORIENTED_EDGE('',*,*,#286,.T.);
#222=ORIENTED_EDGE('',*,*,#300,.F.);
#223=ORIENTED_EDGE('',*,*,#297,.F.);
#224=ORIENTED_EDGE('',*,*,#302,.T.);
#225=ORIENTED_EDGE('',*,*,#303,.F.);
#226=ORIENTED_EDGE('',*,*,#303,.T.);
#227=ORIENTED_EDGE('',*,*,#296,.T.);
#228=ORIENTED_EDGE('',*,*,#304,.T.);
#229=ORIENTED_EDGE('',*,*,#304,.F.);
#230=ORIENTED_EDGE('',*,*,#295,.T.);
#231=ORIENTED_EDGE('',*,*,#305,.F.);
#232=ORIENTED_EDGE('',*,*,#305,.T.);
#233=ORIENTED_EDGE('',*,*,#302,.F.);
#234=ORIENTED_EDGE('',*,*,#306,.F.);
#235=ORIENTED_EDGE('',*,*,#306,.T.);
#236=VERTEX_POINT('',#510);
#237=VERTEX_POINT('',#512);
#238=VERTEX_POINT('',#513);
#239=VERTEX_POINT('',#515);
#240=VERTEX_POINT('',#518);
#241=VERTEX_POINT('',#521);
#242=VERTEX_POINT('',#522);
#243=VERTEX_POINT('',#524);
#244=VERTEX_POINT('',#527);
#245=VERTEX_POINT('',#531);
#246=VERTEX_POINT('',#532);
#247=VERTEX_POINT('',#534);
#248=VERTEX_POINT('',#539);
#249=VERTEX_POINT('',#540);
#250=VERTEX_POINT('',#544);
#251=VERTEX_POINT('',#546);
#252=VERTEX_POINT('',#549);
#253=VERTEX_POINT('',#552);
#254=VERTEX_POINT('',#555);
#255=VERTEX_POINT('',#557);
#256=VERTEX_POINT('',#560);
#257=VERTEX_POINT('',#562);
#258=VERTEX_POINT('',#569);
#259=VERTEX_POINT('',#570);
#260=VERTEX_POINT('',#574);
#261=VERTEX_POINT('',#575);
#262=VERTEX_POINT('',#579);
#263=VERTEX_POINT('',#582);
#264=VERTEX_POINT('',#585);
#265=VERTEX_POINT('',#588);
#266=VERTEX_POINT('',#590);
#267=VERTEX_POINT('',#592);
#268=VERTEX_POINT('',#593);
#269=VERTEX_POINT('',#595);
#270=VERTEX_POINT('',#596);
#271=EDGE_CURVE('',#236,#236,#307,.T.);
#272=EDGE_CURVE('',#237,#238,#308,.T.);
#273=EDGE_CURVE('',#239,#237,#81,.T.);
#274=EDGE_CURVE('',#238,#237,#309,.T.);
#275=EDGE_CURVE('',#240,#238,#82,.T.);
#276=EDGE_CURVE('',#241,#242,#310,.T.);
#277=EDGE_CURVE('',#241,#243,#83,.T.);
#278=EDGE_CURVE('',#242,#241,#311,.T.);
#279=EDGE_CURVE('',#242,#244,#84,.T.);
#280=EDGE_CURVE('',#244,#244,#312,.T.);
#281=EDGE_CURVE('',#245,#246,#313,.T.);
#282=EDGE_CURVE('',#247,#245,#314,.T.);
#283=EDGE_CURVE('',#247,#244,#315,.T.);
#284=EDGE_CURVE('',#245,#247,#316,.T.);
#285=EDGE_CURVE('',#248,#249,#317,.T.);
#286=EDGE_CURVE('',#249,#248,#318,.T.);
#287=EDGE_CURVE('',#250,#250,#319,.T.);
#288=EDGE_CURVE('',#251,#251,#320,.T.);
#289=EDGE_CURVE('',#252,#252,#321,.T.);
#290=EDGE_CURVE('',#253,#253,#322,.T.);
#291=EDGE_CURVE('',#254,#254,#323,.T.);
#292=EDGE_CURVE('',#255,#255,#324,.T.);
#293=EDGE_CURVE('',#256,#256,#325,.T.);
#294=EDGE_CURVE('',#257,#257,#326,.T.);
#295=EDGE_CURVE('',#258,#259,#327,.T.);
#296=EDGE_CURVE('',#259,#258,#328,.T.);
#297=EDGE_CURVE('',#260,#261,#329,.T.);
#298=EDGE_CURVE('',#261,#260,#330,.T.);
#299=EDGE_CURVE('',#262,#260,#85,.T.);
#300=EDGE_CURVE('',#261,#248,#86,.T.);
#301=EDGE_CURVE('',#263,#249,#87,.T.);
#302=EDGE_CURVE('',#264,#264,#331,.T.);
#303=EDGE_CURVE('',#265,#259,#88,.T.);
#304=EDGE_CURVE('',#258,#266,#89,.T.);
#305=EDGE_CURVE('',#267,#268,#90,.T.);
#306=EDGE_CURVE('',#269,#270,#91,.T.);
#307=CIRCLE('',#357,50.);
#308=CIRCLE('',#358,50.);
#309=CIRCLE('',#359,50.);
#310=CIRCLE('',#361,20.);
#311=CIRCLE('',#362,20.);
#312=CIRCLE('',#363,20.);
#313=CIRCLE('',#365,3.);
#314=CIRCLE('',#366,23.);
#315=CIRCLE('',#367,3.);
#316=CIRCLE('',#368,23.);
#317=CIRCLE('',#370,11.);
#318=CIRCLE('',#371,11.);
#319=CIRCLE('',#373,50.);
#320=CIRCLE('',#374,50.);
#321=CIRCLE('',#376,47.6225952641916);
#322=CIRCLE('',#378,46.5);
#323=CIRCLE('',#380,46.);
#324=CIRCLE('',#381,46.);
#325=CIRCLE('',#383,46.5);
#326=CIRCLE('',#384,47.6225952641916);
#327=CIRCLE('',#390,38.000996415314);
#328=CIRCLE('',#391,38.000996415314);
#329=CIRCLE('',#393,11.);
#330=CIRCLE('',#394,11.);
#331=CIRCLE('',#397,35.4960143387439);
#332=INVISIBILITY((#333,#334,#335,#336));
#333=PRESENTATION_LAYER_ASSIGNMENT('100','Layer 100',(#354));
#334=PRESENTATION_LAYER_ASSIGNMENT('101','Layer 101',(#355));
#335=PRESENTATION_LAYER_ASSIGNMENT('102','Layer 102',(#356));
#336=PRESENTATION_LAYER_ASSIGNMENT('98','Layer 98',(#38));
#337=STYLED_ITEM('',(#341),#354);
#338=STYLED_ITEM('',(#342),#355);
#339=STYLED_ITEM('',(#343),#356);
#340=STYLED_ITEM('',(#344),#38);
#341=PRESENTATION_STYLE_ASSIGNMENT((#345));
#342=PRESENTATION_STYLE_ASSIGNMENT((#346));
#343=PRESENTATION_STYLE_ASSIGNMENT((#347));
#344=PRESENTATION_STYLE_ASSIGNMENT((#33));
#345=CURVE_STYLE('',#350,POSITIVE_LENGTH_MEASURE(0.7),#348);
#346=CURVE_STYLE('',#351,POSITIVE_LENGTH_MEASURE(0.7),#348);
#347=CURVE_STYLE('',#352,POSITIVE_LENGTH_MEASURE(0.7),#348);
#348=COLOUR_RGB('Medium Maroon',0.6,0.4,0.4);
#349=COLOUR_RGB('Medium Gray',0.490196078431373,0.490196078431373,0.490196078431373);
#350=DRAUGHTING_PRE_DEFINED_CURVE_FONT('continuous');
#351=DRAUGHTING_PRE_DEFINED_CURVE_FONT('continuous');
#352=DRAUGHTING_PRE_DEFINED_CURVE_FONT('continuous');
#353=AXIS2_PLACEMENT_3D('',#505,#400,#401);
#354=AXIS2_PLACEMENT_3D('PCS',#506,#402,#403);
#355=AXIS2_PLACEMENT_3D('CSW',#507,#404,#405);
#356=AXIS2_PLACEMENT_3D('MCS',#508,#406,#407);
#357=AXIS2_PLACEMENT_3D('',#509,#408,#409);
#358=AXIS2_PLACEMENT_3D('',#511,#410,#411);
#359=AXIS2_PLACEMENT_3D('',#516,#413,#414);
#360=AXIS2_PLACEMENT_3D('',#519,#416,#417);
#361=AXIS2_PLACEMENT_3D('',#520,#418,#419);
#362=AXIS2_PLACEMENT_3D('',#525,#421,#422);
#363=AXIS2_PLACEMENT_3D('',#528,#424,#425);
#364=AXIS2_PLACEMENT_3D('',#529,#426,#427);
#365=AXIS2_PLACEMENT_3D('',#530,#428,#429);
#366=AXIS2_PLACEMENT_3D('',#533,#430,#431);
#367=AXIS2_PLACEMENT_3D('',#535,#432,#433);
#368=AXIS2_PLACEMENT_3D('',#536,#434,#435);
#369=AXIS2_PLACEMENT_3D('',#537,#436,#437);
#370=AXIS2_PLACEMENT_3D('',#538,#438,#439);
#371=AXIS2_PLACEMENT_3D('',#541,#440,#441);
#372=AXIS2_PLACEMENT_3D('',#542,#442,#443);
#373=AXIS2_PLACEMENT_3D('',#543,#444,#445);
#374=AXIS2_PLACEMENT_3D('',#545,#446,#447);
#375=AXIS2_PLACEMENT_3D('',#547,#448,#449);
#376=AXIS2_PLACEMENT_3D('',#548,#450,#451);
#377=AXIS2_PLACEMENT_3D('',#550,#452,#453);
#378=AXIS2_PLACEMENT_3D('',#551,#454,#455);
#379=AXIS2_PLACEMENT_3D('',#553,#456,#457);
#380=AXIS2_PLACEMENT_3D('',#554,#458,#459);
#381=AXIS2_PLACEMENT_3D('',#556,#460,#461);
#382=AXIS2_PLACEMENT_3D('',#558,#462,#463);
#383=AXIS2_PLACEMENT_3D('',#559,#464,#465);
#384=AXIS2_PLACEMENT_3D('',#561,#466,#467);
#385=AXIS2_PLACEMENT_3D('',#563,#468,#469);
#386=AXIS2_PLACEMENT_3D('',#564,#470,#471);
#387=AXIS2_PLACEMENT_3D('',#565,#472,#473);
#388=AXIS2_PLACEMENT_3D('',#566,#474,#475);
#389=AXIS2_PLACEMENT_3D('',#567,#476,#477);
#390=AXIS2_PLACEMENT_3D('',#568,#478,#479);
#391=AXIS2_PLACEMENT_3D('',#571,#480,#481);
#392=AXIS2_PLACEMENT_3D('',#572,#482,#483);
#393=AXIS2_PLACEMENT_3D('',#573,#484,#485);
#394=AXIS2_PLACEMENT_3D('',#576,#486,#487);
#395=AXIS2_PLACEMENT_3D('',#577,#488,#489);
#396=AXIS2_PLACEMENT_3D('',#583,#493,#494);
#397=AXIS2_PLACEMENT_3D('',#584,#495,#496);
#398=AXIS2_PLACEMENT_3D('',#586,#497,#498);
#399=AXIS2_PLACEMENT_3D('',#597,#503,#504);
#400=DIRECTION('',(0.,0.,1.));
#401=DIRECTION('',(1.,0.,0.));
#402=DIRECTION('',(0.,0.,1.));
#403=DIRECTION('',(1.,0.,0.));
#404=DIRECTION('',(0.,0.,1.));
#405=DIRECTION('',(1.,0.,0.));
#406=DIRECTION('',(0.,0.,1.));
#407=DIRECTION('',(1.,0.,0.));
#408=DIRECTION('',(0.,0.,1.));
#409=DIRECTION('',(-1.,0.,0.));
#410=DIRECTION('',(0.,0.,1.));
#411=DIRECTION('',(1.,0.,0.));
#412=DIRECTION('',(0.,0.,1.));
#413=DIRECTION('',(0.,0.,1.));
#414=DIRECTION('',(1.,0.,0.));
#415=DIRECTION('',(0.,0.,1.));
#416=DIRECTION('',(0.,0.,-1.));
#417=DIRECTION('',(-1.,0.,0.));
#418=DIRECTION('',(0.,0.,-1.));
#419=DIRECTION('',(-1.,0.,0.));
#420=DIRECTION('',(0.,0.,1.));
#421=DIRECTION('',(0.,0.,-1.));
#422=DIRECTION('',(-1.,0.,0.));
#423=DIRECTION('',(0.,0.,1.));
#424=DIRECTION('',(0.,0.,-1.));
#425=DIRECTION('',(1.,0.,0.));
#426=DIRECTION('',(0.,0.,-1.));
#427=DIRECTION('',(-1.,0.,0.));
#428=DIRECTION('',(-1.22464679914735E-16,1.,0.));
#429=DIRECTION('',(-1.,-1.22464641142217E-16,0.));
#430=DIRECTION('',(0.,0.,1.));
#431=DIRECTION('',(1.,0.,0.));
#432=DIRECTION('',(0.,-1.,0.));
#433=DIRECTION('',(1.,0.,0.));
#434=DIRECTION('',(0.,0.,1.));
#435=DIRECTION('',(1.,0.,0.));
#436=DIRECTION('',(0.,0.,-1.));
#437=DIRECTION('',(-1.,0.,0.));
#438=DIRECTION('',(0.,0.,-1.));
#439=DIRECTION('',(-1.,0.,0.));
#440=DIRECTION('',(0.,0.,-1.));
#441=DIRECTION('',(-1.,0.,0.));
#442=DIRECTION('',(0.,0.,-1.));
#443=DIRECTION('',(-1.,0.,0.));
#444=DIRECTION('',(0.,0.,1.));
#445=DIRECTION('',(-1.,0.,0.));
#446=DIRECTION('',(0.,0.,-1.));
#447=DIRECTION('',(-1.,0.,0.));
#448=DIRECTION('',(0.,0.,-1.));
#449=DIRECTION('',(-1.,0.,0.));
#450=DIRECTION('',(0.,0.,1.));
#451=DIRECTION('',(-1.,0.,0.));
#452=DIRECTION('',(0.,0.,1.));
#453=DIRECTION('',(1.,0.,-2.72563818725314E-17));
#454=DIRECTION('',(0.,0.,1.));
#455=DIRECTION('',(1.,0.,0.));
#456=DIRECTION('',(0.,0.,-1.));
#457=DIRECTION('',(-1.,0.,0.));
#458=DIRECTION('',(0.,0.,-1.));
#459=DIRECTION('',(1.,0.,0.));
#460=DIRECTION('',(0.,0.,1.));
#461=DIRECTION('',(-1.,0.,0.));
#462=DIRECTION('',(0.,0.,1.));
#463=DIRECTION('',(1.,0.,0.));
#464=DIRECTION('',(0.,0.,-1.));
#465=DIRECTION('',(-1.,0.,0.));
#466=DIRECTION('',(0.,0.,1.));
#467=DIRECTION('',(-1.,0.,0.));
#468=DIRECTION('',(0.,0.,1.));
#469=DIRECTION('',(1.,0.,0.));
#470=DIRECTION('',(0.,0.,-1.));
#471=DIRECTION('',(-1.,0.,-5.26361002831336E-17));
#472=DIRECTION('',(0.,0.,1.));
#473=DIRECTION('',(1.,0.,0.));
#474=DIRECTION('',(0.,0.,-1.));
#475=DIRECTION('',(-1.,0.,0.));
#476=DIRECTION('',(0.,0.,-1.));
#477=DIRECTION('',(-1.,0.,0.));
#478=DIRECTION('',(0.,0.,1.));
#479=DIRECTION('',(1.,0.,0.));
#480=DIRECTION('',(0.,0.,1.));
#481=DIRECTION('',(1.,0.,0.));
#482=DIRECTION('',(0.,0.,1.));
#483=DIRECTION('',(1.,0.,0.));
#484=DIRECTION('',(0.,0.,-1.));
#485=DIRECTION('',(-1.,0.,0.));
#486=DIRECTION('',(0.,0.,-1.));
#487=DIRECTION('',(-1.,0.,0.));
#488=DIRECTION('',(0.,0.,-1.));
#489=DIRECTION('',(-1.,0.,0.));
#490=DIRECTION('',(0.,0.,-1.));
#491=DIRECTION('',(0.,0.,1.));
#492=DIRECTION('',(0.,0.,1.));
#493=DIRECTION('',(0.,0.,-1.));
#494=DIRECTION('',(-1.,0.,0.));
#495=DIRECTION('',(0.,0.,1.));
#496=DIRECTION('',(1.,0.,0.));
#497=DIRECTION('',(0.,0.,1.));
#498=DIRECTION('',(1.,0.,0.));
#499=DIRECTION('',(0.0500368852433455,0.,-0.998747370517262));
#500=DIRECTION('',(0.0500368852433455,6.12775113525664E-18,0.998747370517262));
#501=DIRECTION('',(-0.0500368852433455,0.,0.998747370517262));
#502=DIRECTION('',(-0.0500368852433455,-6.12775113525664E-18,-0.998747370517262));
#503=DIRECTION('',(0.,0.,-1.));
#504=DIRECTION('',(-1.,0.,-3.94253370169459E-17));
#505=CARTESIAN_POINT('',(0.,0.,0.));
#506=CARTESIAN_POINT('',(0.,0.,0.));
#507=CARTESIAN_POINT('',(0.,0.,-60.));
#508=CARTESIAN_POINT('',(0.,0.,0.));
#509=CARTESIAN_POINT('',(-2.43929408742852E-14,1.24999622180821E-5,-16.7524047358084));
#510=CARTESIAN_POINT('',(-50.,1.24999622180821E-5,-16.7524047358084));
#511=CARTESIAN_POINT('',(-2.43929408742852E-14,1.24999622180821E-5,0.));
#512=CARTESIAN_POINT('',(-50.,1.24999622119589E-5,0.));
#513=CARTESIAN_POINT('',(50.,1.24999622180821E-5,0.));
#514=CARTESIAN_POINT('',(-50.,1.24999622119589E-5,-104.539422307193));
#515=CARTESIAN_POINT('',(-50.,1.24999621577357E-5,-3.80000033108812));
#516=CARTESIAN_POINT('',(-2.43929408742852E-14,1.24999622180821E-5,0.));
#517=CARTESIAN_POINT('',(50.,1.24999622180821E-5,-104.539422307193));
#518=CARTESIAN_POINT('',(50.,1.24999621981767E-5,-3.80000017366485));
#519=CARTESIAN_POINT('',(-2.43929408742852E-14,1.24999622180821E-5,-104.539422307193));
#520=CARTESIAN_POINT('',(-2.43929408742852E-14,1.24999622180821E-5,-48.));
#521=CARTESIAN_POINT('',(-20.,1.24999622156328E-5,-48.));
#522=CARTESIAN_POINT('',(20.,1.24999622180821E-5,-48.));
#523=CARTESIAN_POINT('',(-20.,1.24999622156328E-5,-104.539422307193));
#524=CARTESIAN_POINT('',(-20.,1.24999622168575E-5,-46.5993420767853));
#525=CARTESIAN_POINT('',(-2.43929408742852E-14,1.24999622180821E-5,-48.));
#526=CARTESIAN_POINT('',(20.,1.24999622180821E-5,-104.539422307193));
#527=CARTESIAN_POINT('',(20.,1.24999622180821E-5,-32.));
#528=CARTESIAN_POINT('',(-2.43929408742852E-14,1.24999622180821E-5,-32.));
#529=CARTESIAN_POINT('',(-2.43929408742852E-14,1.24999622180821E-5,-104.539422307193));
#530=CARTESIAN_POINT('',(-23.,1.24999622152655E-5,-32.));
#531=CARTESIAN_POINT('',(-23.,1.24999622152655E-5,-29.));
#532=CARTESIAN_POINT('',(-20.0739460507973,1.24999491827196E-5,-31.3380269746013));
#533=CARTESIAN_POINT('',(-2.43929408742852E-14,1.24999622180821E-5,-29.));
#534=CARTESIAN_POINT('',(23.,1.24999622180821E-5,-29.));
#535=CARTESIAN_POINT('',(23.,1.24999622180821E-5,-32.));
#536=CARTESIAN_POINT('',(-2.43929408742852E-14,1.24999622180821E-5,-29.));
#537=CARTESIAN_POINT('',(-2.43929408742852E-14,1.24999622180821E-5,-32.));
#538=CARTESIAN_POINT('',(-2.43929408742852E-14,1.24999622180821E-5,-48.));
#539=CARTESIAN_POINT('',(-11.,1.24999622180821E-5,-48.));
#540=CARTESIAN_POINT('',(11.,1.24999622187557E-5,-48.));
#541=CARTESIAN_POINT('',(-2.43929408742852E-14,1.24999622180821E-5,-48.));
#542=CARTESIAN_POINT('',(-2.43929408742852E-14,-19.9999875000378,-48.));
#543=CARTESIAN_POINT('',(-2.43929408742852E-14,1.24999622180821E-5,-23.2475952641916));
#544=CARTESIAN_POINT('',(-50.,1.24999622180821E-5,-23.2475952641916));
#545=CARTESIAN_POINT('',(-2.43929408742852E-14,1.24999622180821E-5,-29.));
#546=CARTESIAN_POINT('',(-50.,1.24999622180821E-5,-29.));
#547=CARTESIAN_POINT('',(-2.43929408742852E-14,1.24999622180821E-5,-104.539422307193));
#548=CARTESIAN_POINT('',(-2.43929408742852E-14,1.24999622180821E-5,-18.125));
#549=CARTESIAN_POINT('',(-47.6225952641917,1.24999622180821E-5,-18.125));
#550=CARTESIAN_POINT('',(-2.43929408742852E-14,1.24999622180821E-5,-16.7524047358084));
#551=CARTESIAN_POINT('',(-2.43929408742852E-14,1.24999622180821E-5,-18.125));
#552=CARTESIAN_POINT('',(46.5,1.24999622180821E-5,-18.125));
#553=CARTESIAN_POINT('',(-2.43929408742852E-14,-47.6225827642294,-18.125));
#554=CARTESIAN_POINT('',(-2.43929408742852E-14,1.24999622180821E-5,-18.625));
#555=CARTESIAN_POINT('',(46.,1.24999622180821E-5,-18.625));
#556=CARTESIAN_POINT('',(-2.43929408742852E-14,1.24999622180821E-5,-21.375));
#557=CARTESIAN_POINT('',(-46.,1.24999622180821E-5,-21.375));
#558=CARTESIAN_POINT('',(-2.43929408742852E-14,1.24999622180821E-5,3.46944695195361E-15));
#559=CARTESIAN_POINT('',(-2.43929408742852E-14,1.24999622180821E-5,-21.875));
#560=CARTESIAN_POINT('',(-46.5,1.24999622180821E-5,-21.875));
#561=CARTESIAN_POINT('',(-2.43929408742852E-14,1.24999622180821E-5,-21.875));
#562=CARTESIAN_POINT('',(-47.6225952641917,1.24999622180821E-5,-21.875));
#563=CARTESIAN_POINT('',(-2.43929408742852E-14,-45.9999875000378,-21.875));
#564=CARTESIAN_POINT('',(-2.43929408742852E-14,1.24999622180821E-5,-21.875));
#565=CARTESIAN_POINT('',(-2.43929408742852E-14,1.24999622180821E-5,-21.375));
#566=CARTESIAN_POINT('',(-2.43929408742852E-14,1.24999622180821E-5,-18.625));
#567=CARTESIAN_POINT('',(-2.43929408742852E-14,-49.9999875000378,-29.));
#568=CARTESIAN_POINT('',(-2.43929408742852E-14,1.24999622180821E-5,3.46944695195361E-15));
#569=CARTESIAN_POINT('',(-38.000996415314,1.24999622180821E-5,3.46944695195361E-15));
#570=CARTESIAN_POINT('',(38.000996415314,1.24999622227359E-5,3.46944695195361E-15));
#571=CARTESIAN_POINT('',(-2.43929408742852E-14,1.24999622180821E-5,3.46944695195361E-15));
#572=CARTESIAN_POINT('',(-2.43929408742852E-14,-39.0542776916935,3.46944695195361E-15));
#573=CARTESIAN_POINT('',(-2.43929408742852E-14,1.24999622180821E-5,-79.));
#574=CARTESIAN_POINT('',(11.,1.24999622180821E-5,-79.));
#575=CARTESIAN_POINT('',(-11.,1.2499962216735E-5,-79.));
#576=CARTESIAN_POINT('',(-2.43929408742852E-14,1.24999622180821E-5,-79.));
#577=CARTESIAN_POINT('',(-2.43929408742852E-14,-10.9999875000378,-79.));
#578=CARTESIAN_POINT('',(11.,1.24999622180821E-5,-104.539422307193));
#579=CARTESIAN_POINT('',(11.,1.24999622180821E-5,-77.));
#580=CARTESIAN_POINT('',(-11.,1.2499962216735E-5,-104.539422307193));
#581=CARTESIAN_POINT('',(11.,1.24999622180821E-5,-104.539422307193));
#582=CARTESIAN_POINT('',(11.,1.2499962220213E-5,-51.9));
#583=CARTESIAN_POINT('',(-2.43929408742852E-14,1.24999622180821E-5,-104.539422307193));
#584=CARTESIAN_POINT('',(-2.43929408742852E-14,1.24999622180821E-5,50.));
#585=CARTESIAN_POINT('',(35.4960143387439,1.24999622180821E-5,50.));
#586=CARTESIAN_POINT('',(-2.43929408742852E-14,1.24999622370078E-5,50.));
#587=CARTESIAN_POINT('',(37.9007971322512,1.24999622180821E-5,2.00000000000001));
#588=CARTESIAN_POINT('',(37.5709639729185,1.24999622367359E-5,8.58354329992408));
#589=CARTESIAN_POINT('',(-37.9007971322512,1.24999622134406E-5,2.00000000000001));
#590=CARTESIAN_POINT('',(-37.570963974631,1.24999626319128E-5,8.58354326574273));
#591=CARTESIAN_POINT('',(37.9007971322512,1.24999622180821E-5,2.00000000000001));
#592=CARTESIAN_POINT('',(36.9262511938535,1.24999622225536E-5,21.452153919841));
#593=CARTESIAN_POINT('',(36.2475089617149,1.24999622180821E-5,35.));
#594=CARTESIAN_POINT('',(-37.9007971322512,1.24999622134406E-5,2.00000000000001));
#595=CARTESIAN_POINT('',(-35.9970107540579,1.24999622136738E-5,40.));
#596=CARTESIAN_POINT('',(-36.9262511951701,1.24999660517541E-5,21.4521538935618));
#597=CARTESIAN_POINT('',(-2.43929408742852E-14,1.24999622180821E-5,2.00000000000001));
#598=MECHANICAL_DESIGN_GEOMETRIC_PRESENTATION_REPRESENTATION('',(#337,#338,
#339,#340),#599);
#599=(
GEOMETRIC_REPRESENTATION_CONTEXT(3)
GLOBAL_UNCERTAINTY_ASSIGNED_CONTEXT((#600))
GLOBAL_UNIT_ASSIGNED_CONTEXT((#606,#602,#601))
REPRESENTATION_CONTEXT('HSK.100A-FMH2.22','TOP_LEVEL_ASSEMBLY_PART')
);
#600=UNCERTAINTY_MEASURE_WITH_UNIT(LENGTH_MEASURE(2.E-5),#606,
'DISTANCE_ACCURACY_VALUE','Maximum Tolerance applied to model');
#601=(
NAMED_UNIT(*)
SI_UNIT($,.STERADIAN.)
SOLID_ANGLE_UNIT()
);
#602=(
CONVERSION_BASED_UNIT('DEGREE',#604)
NAMED_UNIT(#603)
PLANE_ANGLE_UNIT()
);
#603=DIMENSIONAL_EXPONENTS(0.,0.,0.,0.,0.,0.,0.);
#604=PLANE_ANGLE_MEASURE_WITH_UNIT(PLANE_ANGLE_MEASURE(0.0174532925),#605);
#605=(
NAMED_UNIT(*)
PLANE_ANGLE_UNIT()
SI_UNIT($,.RADIAN.)
);
#606=(
LENGTH_UNIT()
NAMED_UNIT(*)
SI_UNIT(.MILLI.,.METRE.)
);
ENDSEC;
END-ISO-10303-21;
