ISO-10303-21;
HEADER;
/* Generated by software containing ST-Developer
 * from STEP Tools, Inc. (www.steptools.com) 
 */
/* OPTION: using custom schema-name function */

FILE_DESCRIPTION(
/* description */ (''),
/* implementation_level */ '2;1');

FILE_NAME(
/* name */ 'h8551.3_64-r9501.3_64_3d_light.stp',
/* time_stamp */ '2021-09-02T22:45:43+02:00',
/* author */ (''),
/* organization */ ('SMS'),
/* preprocessor_version */ 'ST-DEVELOPER v16.7',
/* originating_system */ 'SIEMENS PLM Software NX 12.0',
/* authorisation */ '');

FILE_SCHEMA (('AUTOMOTIVE_DESIGN { 1 0 10303 214 3 1 1 1 }'));
ENDSEC;

DATA;
#10=CONSTRUCTIVE_GEOMETRY_REPRESENTATION_RELATIONSHIP(
'supplemental geometry','',#26,#11);
#11=CONSTRUCTIVE_GEOMETRY_REPRESENTATION('supplemental geometry',(#213,
#214,#215),#349);
#12=GEOMETRICALLY_BOUNDED_WIREFRAME_SHAPE_REPRESENTATION(
'H8551.3_64-R9501.3_64_3D_light-None',(#27),#349);
#13=SHAPE_REPRESENTATION_RELATIONSHIP('None',
'relationship between H8551.3_64-R9501.3_64_3D_light-None and H8551.3_
64-R9501.3_64_3D_light-None',#26,#15);
#14=SHAPE_REPRESENTATION_RELATIONSHIP('None',
'relationship between H8551.3_64-R9501.3_64_3D_light-None and H8551.3_
64-R9501.3_64_3D_light-None',#26,#12);
#15=ADVANCED_BREP_SHAPE_REPRESENTATION(
'H8551.3_64-R9501.3_64_3D_light-None',(#39,#40),#349);
#16=SHAPE_DEFINITION_REPRESENTATION(#17,#26);
#17=PRODUCT_DEFINITION_SHAPE('','',#18);
#18=PRODUCT_DEFINITION(' ','',#20,#19);
#19=PRODUCT_DEFINITION_CONTEXT('part definition',#25,'design');
#20=PRODUCT_DEFINITION_FORMATION_WITH_SPECIFIED_SOURCE(' ',' ',#22,
 .NOT_KNOWN.);
#21=PRODUCT_RELATED_PRODUCT_CATEGORY('part','',(#22));
#22=PRODUCT('H8551.3_64-R9501.3_64_3D_light',
'H8551.3_64-R9501.3_64_3D_light',' ',(#23));
#23=PRODUCT_CONTEXT(' ',#25,'mechanical');
#24=APPLICATION_PROTOCOL_DEFINITION('international standard',
'automotive_design',2010,#25);
#25=APPLICATION_CONTEXT(
'core data for automotive mechanical design processes');
#26=SHAPE_REPRESENTATION('H8551.3_64-R9501.3_64_3D_light-None',(#212),#349);
#27=GEOMETRIC_CURVE_SET('None',(#292,#293,#294,#180));
#28=VERTEX_LOOP('',#151);
#29=SURFACE_STYLE_USAGE(.BOTH.,#31);
#30=SURFACE_STYLE_USAGE(.BOTH.,#32);
#31=SURFACE_SIDE_STYLE('',(#33));
#32=SURFACE_SIDE_STYLE('',(#34));
#33=SURFACE_STYLE_FILL_AREA(#35);
#34=SURFACE_STYLE_FILL_AREA(#36);
#35=FILL_AREA_STYLE('',(#37));
#36=FILL_AREA_STYLE('',(#38));
#37=FILL_AREA_STYLE_COLOUR('',#210);
#38=FILL_AREA_STYLE_COLOUR('',#211);
#39=MANIFOLD_SOLID_BREP('NOCUT',#41);
#40=MANIFOLD_SOLID_BREP('CUT',#42);
#41=CLOSED_SHELL('',(#59,#60,#61,#62,#63,#64,#65,#66,#67));
#42=CLOSED_SHELL('',(#68,#69,#70));
#43=PLANE('',#226);
#44=PLANE('',#228);
#45=PLANE('',#229);
#46=PLANE('',#230);
#47=PLANE('',#231);
#48=PLANE('',#235);
#49=FACE_OUTER_BOUND('',#103,.T.);
#50=FACE_OUTER_BOUND('',#106,.T.);
#51=FACE_OUTER_BOUND('',#107,.T.);
#52=FACE_OUTER_BOUND('',#108,.T.);
#53=FACE_OUTER_BOUND('',#109,.T.);
#54=FACE_OUTER_BOUND('',#112,.T.);
#55=CONICAL_SURFACE('',#224,13.2,14.9759845147567);
#56=CONICAL_SURFACE('',#227,15.875,45.);
#57=CONICAL_SURFACE('',#234,13.2973,0.0103132402009794);
#58=CONICAL_SURFACE('',#236,3.93267262846632E-14,70.0000000000004);
#59=ADVANCED_FACE('CYL_FACE',(#83,#84,#85),#71,.T.);
#60=ADVANCED_FACE('',(#86,#87),#72,.T.);
#61=ADVANCED_FACE('',(#88,#89),#55,.T.);
#62=ADVANCED_FACE('',(#49),#43,.T.);
#63=ADVANCED_FACE('',(#90,#91),#56,.T.);
#64=ADVANCED_FACE('',(#50),#44,.T.);
#65=ADVANCED_FACE('',(#51),#45,.T.);
#66=ADVANCED_FACE('',(#52),#46,.T.);
#67=ADVANCED_FACE('',(#53),#47,.T.);
#68=ADVANCED_FACE('',(#92,#93),#57,.T.);
#69=ADVANCED_FACE('',(#54),#48,.F.);
#70=ADVANCED_FACE('',(#94,#95),#58,.T.);
#71=CYLINDRICAL_SURFACE('',#220,15.875);
#72=CYLINDRICAL_SURFACE('',#223,13.2);
#73=ELLIPSE('',#218,21.7063234449402,15.875);
#74=ELLIPSE('',#219,23.277182072029,15.875);
#75=LINE('',#315,#79);
#76=LINE('',#320,#80);
#77=LINE('',#334,#81);
#78=LINE('',#336,#82);
#79=VECTOR('',#249,1.);
#80=VECTOR('',#252,1.);
#81=VECTOR('',#271,1.);
#82=VECTOR('',#274,1.);
#83=FACE_BOUND('',#96,.T.);
#84=FACE_BOUND('',#97,.T.);
#85=FACE_BOUND('',#98,.T.);
#86=FACE_BOUND('',#99,.T.);
#87=FACE_BOUND('',#100,.T.);
#88=FACE_BOUND('',#101,.T.);
#89=FACE_BOUND('',#102,.T.);
#90=FACE_BOUND('',#104,.T.);
#91=FACE_BOUND('',#105,.T.);
#92=FACE_BOUND('',#110,.T.);
#93=FACE_BOUND('',#111,.T.);
#94=FACE_BOUND('',#28,.T.);
#95=FACE_BOUND('',#113,.T.);
#96=EDGE_LOOP('',(#114));
#97=EDGE_LOOP('',(#115));
#98=EDGE_LOOP('',(#116,#117,#118,#119));
#99=EDGE_LOOP('',(#120));
#100=EDGE_LOOP('',(#121));
#101=EDGE_LOOP('',(#122));
#102=EDGE_LOOP('',(#123));
#103=EDGE_LOOP('',(#124));
#104=EDGE_LOOP('',(#125));
#105=EDGE_LOOP('',(#126));
#106=EDGE_LOOP('',(#127,#128));
#107=EDGE_LOOP('',(#129,#130,#131,#132));
#108=EDGE_LOOP('',(#133,#134));
#109=EDGE_LOOP('',(#135));
#110=EDGE_LOOP('',(#136));
#111=EDGE_LOOP('',(#137));
#112=EDGE_LOOP('',(#138));
#113=EDGE_LOOP('',(#139));
#114=ORIENTED_EDGE('',*,*,#152,.T.);
#115=ORIENTED_EDGE('',*,*,#153,.F.);
#116=ORIENTED_EDGE('',*,*,#154,.T.);
#117=ORIENTED_EDGE('',*,*,#155,.T.);
#118=ORIENTED_EDGE('',*,*,#156,.T.);
#119=ORIENTED_EDGE('',*,*,#157,.T.);
#120=ORIENTED_EDGE('',*,*,#158,.F.);
#121=ORIENTED_EDGE('',*,*,#159,.F.);
#122=ORIENTED_EDGE('',*,*,#153,.T.);
#123=ORIENTED_EDGE('',*,*,#159,.T.);
#124=ORIENTED_EDGE('',*,*,#160,.F.);
#125=ORIENTED_EDGE('',*,*,#160,.T.);
#126=ORIENTED_EDGE('',*,*,#152,.F.);
#127=ORIENTED_EDGE('',*,*,#161,.T.);
#128=ORIENTED_EDGE('',*,*,#155,.F.);
#129=ORIENTED_EDGE('',*,*,#162,.T.);
#130=ORIENTED_EDGE('',*,*,#156,.F.);
#131=ORIENTED_EDGE('',*,*,#161,.F.);
#132=ORIENTED_EDGE('',*,*,#154,.F.);
#133=ORIENTED_EDGE('',*,*,#162,.F.);
#134=ORIENTED_EDGE('',*,*,#157,.F.);
#135=ORIENTED_EDGE('',*,*,#158,.T.);
#136=ORIENTED_EDGE('',*,*,#163,.T.);
#137=ORIENTED_EDGE('',*,*,#164,.T.);
#138=ORIENTED_EDGE('',*,*,#164,.F.);
#139=ORIENTED_EDGE('',*,*,#163,.F.);
#140=VERTEX_POINT('',#312);
#141=VERTEX_POINT('',#314);
#142=VERTEX_POINT('',#316);
#143=VERTEX_POINT('',#317);
#144=VERTEX_POINT('',#319);
#145=VERTEX_POINT('',#321);
#146=VERTEX_POINT('',#325);
#147=VERTEX_POINT('',#327);
#148=VERTEX_POINT('',#331);
#149=VERTEX_POINT('',#341);
#150=VERTEX_POINT('',#343);
#151=VERTEX_POINT('',#346);
#152=EDGE_CURVE('',#140,#140,#165,.T.);
#153=EDGE_CURVE('',#141,#141,#166,.T.);
#154=EDGE_CURVE('',#142,#143,#75,.T.);
#155=EDGE_CURVE('',#143,#144,#73,.T.);
#156=EDGE_CURVE('',#144,#145,#76,.T.);
#157=EDGE_CURVE('',#145,#142,#74,.T.);
#158=EDGE_CURVE('',#146,#146,#167,.T.);
#159=EDGE_CURVE('',#147,#147,#168,.T.);
#160=EDGE_CURVE('',#148,#148,#169,.T.);
#161=EDGE_CURVE('',#143,#144,#77,.T.);
#162=EDGE_CURVE('',#142,#145,#78,.T.);
#163=EDGE_CURVE('',#149,#149,#170,.T.);
#164=EDGE_CURVE('',#150,#150,#171,.T.);
#165=CIRCLE('',#216,15.875);
#166=CIRCLE('',#217,15.875);
#167=CIRCLE('',#221,13.2);
#168=CIRCLE('',#222,13.2);
#169=CIRCLE('',#225,14.875);
#170=CIRCLE('',#232,13.2955);
#171=CIRCLE('',#233,13.2932930499249);
#172=CURVE_STYLE('',#176,POSITIVE_LENGTH_MEASURE(0.18),#182);
#173=CURVE_STYLE('',#177,POSITIVE_LENGTH_MEASURE(0.13),#209);
#174=CURVE_STYLE('',#178,POSITIVE_LENGTH_MEASURE(0.18),#208);
#175=CURVE_STYLE('',#179,POSITIVE_LENGTH_MEASURE(0.18),#208);
#176=DRAUGHTING_PRE_DEFINED_CURVE_FONT('continuous');
#177=DRAUGHTING_PRE_DEFINED_CURVE_FONT('continuous');
#178=DRAUGHTING_PRE_DEFINED_CURVE_FONT('continuous');
#179=DRAUGHTING_PRE_DEFINED_CURVE_FONT('continuous');
#180=B_SPLINE_CURVE_WITH_KNOTS('CUTTING PART LINE',3,(#295,#296,#297,#298,
#299,#300,#301,#302,#303,#304,#305,#306,#307),.UNSPECIFIED.,.T.,.F.,(4,
3,3,3,4),(0.,0.30104095434286,0.535065844759504,0.750914567159374,1.),
 .UNSPECIFIED.);
#181=DRAUGHTING_PRE_DEFINED_COLOUR('white');
#182=DRAUGHTING_PRE_DEFINED_COLOUR('blue');
#183=PRESENTATION_LAYER_ASSIGNMENT('1','Layer 1',(#292,#293,#294,#180,#213,
#214,#215,#39,#40));
#184=STYLED_ITEM('',(#193),#292);
#185=STYLED_ITEM('',(#194),#293);
#186=STYLED_ITEM('',(#195),#294);
#187=STYLED_ITEM('',(#196),#180);
#188=STYLED_ITEM('',(#197),#213);
#189=STYLED_ITEM('',(#198),#214);
#190=STYLED_ITEM('',(#199),#215);
#191=STYLED_ITEM('',(#200),#39);
#192=STYLED_ITEM('',(#201),#40);
#193=PRESENTATION_STYLE_ASSIGNMENT((#202));
#194=PRESENTATION_STYLE_ASSIGNMENT((#203));
#195=PRESENTATION_STYLE_ASSIGNMENT((#204));
#196=PRESENTATION_STYLE_ASSIGNMENT((#172));
#197=PRESENTATION_STYLE_ASSIGNMENT((#173));
#198=PRESENTATION_STYLE_ASSIGNMENT((#174));
#199=PRESENTATION_STYLE_ASSIGNMENT((#175));
#200=PRESENTATION_STYLE_ASSIGNMENT((#29));
#201=PRESENTATION_STYLE_ASSIGNMENT((#30));
#202=POINT_STYLE('',#205,POSITIVE_LENGTH_MEASURE(3.),#208);
#203=POINT_STYLE('',#206,POSITIVE_LENGTH_MEASURE(3.),#181);
#204=POINT_STYLE('',#207,POSITIVE_LENGTH_MEASURE(3.),#208);
#205=PRE_DEFINED_POINT_MARKER_SYMBOL('plus');
#206=PRE_DEFINED_POINT_MARKER_SYMBOL('plus');
#207=PRE_DEFINED_POINT_MARKER_SYMBOL('plus');
#208=COLOUR_RGB('Medium Maroon',0.6,0.4,0.4);
#209=COLOUR_RGB('Silver Gray',0.6,0.6,0.6);
#210=COLOUR_RGB('TLS_NOCUT',0.498023956664378,0.498023956664378,0.498023956664378);
#211=COLOUR_RGB('TLS_CUT',0.8,0.8,0.8);
#212=AXIS2_PLACEMENT_3D('',#291,#237,#238);
#213=AXIS2_PLACEMENT_3D('PCS',#308,#239,#240);
#214=AXIS2_PLACEMENT_3D('MCS',#309,#241,#242);
#215=AXIS2_PLACEMENT_3D('CIP',#310,#243,#244);
#216=AXIS2_PLACEMENT_3D('',#311,#245,#246);
#217=AXIS2_PLACEMENT_3D('',#313,#247,#248);
#218=AXIS2_PLACEMENT_3D('',#318,#250,#251);
#219=AXIS2_PLACEMENT_3D('',#322,#253,#254);
#220=AXIS2_PLACEMENT_3D('',#323,#255,#256);
#221=AXIS2_PLACEMENT_3D('',#324,#257,#258);
#222=AXIS2_PLACEMENT_3D('',#326,#259,#260);
#223=AXIS2_PLACEMENT_3D('',#328,#261,#262);
#224=AXIS2_PLACEMENT_3D('',#329,#263,#264);
#225=AXIS2_PLACEMENT_3D('',#330,#265,#266);
#226=AXIS2_PLACEMENT_3D('',#332,#267,#268);
#227=AXIS2_PLACEMENT_3D('',#333,#269,#270);
#228=AXIS2_PLACEMENT_3D('',#335,#272,#273);
#229=AXIS2_PLACEMENT_3D('',#337,#275,#276);
#230=AXIS2_PLACEMENT_3D('',#338,#277,#278);
#231=AXIS2_PLACEMENT_3D('',#339,#279,#280);
#232=AXIS2_PLACEMENT_3D('',#340,#281,#282);
#233=AXIS2_PLACEMENT_3D('',#342,#283,#284);
#234=AXIS2_PLACEMENT_3D('',#344,#285,#286);
#235=AXIS2_PLACEMENT_3D('',#345,#287,#288);
#236=AXIS2_PLACEMENT_3D('',#347,#289,#290);
#237=DIRECTION('',(0.,0.,1.));
#238=DIRECTION('',(1.,0.,0.));
#239=DIRECTION('',(0.,0.,1.));
#240=DIRECTION('',(1.,0.,0.));
#241=DIRECTION('',(0.,0.,1.));
#242=DIRECTION('',(1.,0.,0.));
#243=DIRECTION('',(0.,0.,1.));
#244=DIRECTION('',(1.,0.,0.));
#245=DIRECTION('',(0.,0.,-1.));
#246=DIRECTION('',(-1.,0.,0.));
#247=DIRECTION('',(0.,0.,-1.));
#248=DIRECTION('',(-1.,0.,0.));
#249=DIRECTION('',(0.,0.,1.));
#250=DIRECTION('',(0.,0.681998360062499,0.73135370161917));
#251=DIRECTION('',(0.,0.73135370161917,-0.681998360062499));
#252=DIRECTION('',(0.,0.,-1.));
#253=DIRECTION('',(0.,0.731353701619171,-0.681998360062499));
#254=DIRECTION('',(0.,-0.681998360062499,-0.731353701619171));
#255=DIRECTION('',(0.,0.,-1.));
#256=DIRECTION('',(-1.,0.,0.));
#257=DIRECTION('',(0.,0.,-1.));
#258=DIRECTION('',(1.,0.,0.));
#259=DIRECTION('',(0.,0.,1.));
#260=DIRECTION('',(-1.,0.,0.));
#261=DIRECTION('',(0.,0.,1.));
#262=DIRECTION('',(1.,0.,0.));
#263=DIRECTION('',(0.,0.,1.));
#264=DIRECTION('',(1.,0.,-1.97759712259557E-16));
#265=DIRECTION('',(0.,0.,-1.));
#266=DIRECTION('',(-1.,0.,0.));
#267=DIRECTION('',(0.,0.,1.));
#268=DIRECTION('',(1.,0.,0.));
#269=DIRECTION('',(0.,0.,-1.));
#270=DIRECTION('',(-1.,0.,1.09287365534653E-16));
#271=DIRECTION('',(1.,0.,0.));
#272=DIRECTION('',(0.,-0.681998360062499,-0.73135370161917));
#273=DIRECTION('',(0.,-0.73135370161917,0.681998360062499));
#274=DIRECTION('',(1.,0.,0.));
#275=DIRECTION('',(0.,-1.,1.22475698447907E-16));
#276=DIRECTION('',(0.,1.23165366794353E-16,1.));
#277=DIRECTION('',(0.,-0.73135370161917,0.681998360062498));
#278=DIRECTION('',(0.,0.681998360062499,0.731353701619171));
#279=DIRECTION('',(0.,0.,-1.));
#280=DIRECTION('',(-1.,0.,0.));
#281=DIRECTION('',(0.,0.,1.));
#282=DIRECTION('',(1.,0.,0.));
#283=DIRECTION('',(0.,0.,-1.));
#284=DIRECTION('',(1.,0.,0.));
#285=DIRECTION('',(0.,0.,-1.));
#286=DIRECTION('',(-1.,0.,0.));
#287=DIRECTION('',(0.,0.,-1.));
#288=DIRECTION('',(-1.,0.,0.));
#289=DIRECTION('',(0.,0.,1.));
#290=DIRECTION('',(1.,0.,0.));
#291=CARTESIAN_POINT('',(0.,0.,0.));
#292=CARTESIAN_POINT('',(0.,0.,-60.));
#293=CARTESIAN_POINT('CRP',(-13.2955,0.,-225.160833750314));
#294=CARTESIAN_POINT('CIP_DCSYS',(0.,0.,-230.));
#295=CARTESIAN_POINT('',(0.,0.,-230.));
#296=CARTESIAN_POINT('',(0.,0.,-224.3));
#297=CARTESIAN_POINT('',(0.,0.,-218.6));
#298=CARTESIAN_POINT('',(0.,0.,-212.9));
#299=CARTESIAN_POINT('',(-4.43109768330831,0.,-212.9));
#300=CARTESIAN_POINT('',(-8.86219536661663,0.,-212.9));
#301=CARTESIAN_POINT('',(-13.2932930499249,0.,-212.900000000005));
#302=CARTESIAN_POINT('',(-13.29402869995,0.,-216.986944583444));
#303=CARTESIAN_POINT('',(-13.294764349975,0.,-221.073889166879));
#304=CARTESIAN_POINT('',(-13.2955,0.,-225.160833750314));
#305=CARTESIAN_POINT('',(-8.86366666666667,0.,-226.773889166876));
#306=CARTESIAN_POINT('',(-4.43183333333333,0.,-228.386944583438));
#307=CARTESIAN_POINT('',(0.,0.,-230.));
#308=CARTESIAN_POINT('',(0.,0.,0.));
#309=CARTESIAN_POINT('',(0.,0.,-60.));
#310=CARTESIAN_POINT('',(0.,0.,-230.));
#311=CARTESIAN_POINT('',(0.,0.,-1.));
#312=CARTESIAN_POINT('',(-15.875,0.,-1.));
#313=CARTESIAN_POINT('',(0.,0.,-60.));
#314=CARTESIAN_POINT('',(-15.875,0.,-60.));
#315=CARTESIAN_POINT('',(-7.24568837309473,-14.125,20.9080749503476));
#316=CARTESIAN_POINT('',(-7.24568837309471,-14.125,-51.1233547574568));
#317=CARTESIAN_POINT('',(-7.24568837309473,-14.125,-8.63190140074091));
#318=CARTESIAN_POINT('',(0.,0.,-21.8036769924354));
#319=CARTESIAN_POINT('',(7.24568837309473,-14.125,-8.63190140074091));
#320=CARTESIAN_POINT('',(7.24568837309473,-14.125,20.9080749503476));
#321=CARTESIAN_POINT('',(7.2456883730947,-14.125,-51.1233547574568));
#322=CARTESIAN_POINT('',(0.,0.,-35.9761467283582));
#323=CARTESIAN_POINT('',(0.,0.,20.9080749503476));
#324=CARTESIAN_POINT('',(0.,0.,-212.9));
#325=CARTESIAN_POINT('',(13.2,0.,-212.9));
#326=CARTESIAN_POINT('',(0.,0.,-70.));
#327=CARTESIAN_POINT('',(-13.2,0.,-70.));
#328=CARTESIAN_POINT('',(0.,0.,20.9080749503476));
#329=CARTESIAN_POINT('',(0.,0.,-70.));
#330=CARTESIAN_POINT('',(0.,0.,0.));
#331=CARTESIAN_POINT('',(-14.875,0.,0.));
#332=CARTESIAN_POINT('',(-14.875,0.,7.7715611723761E-16));
#333=CARTESIAN_POINT('',(0.,0.,-1.));
#334=CARTESIAN_POINT('',(-20.,-14.125,-8.63190140074091));
#335=CARTESIAN_POINT('',(-20.,-16.075,-6.81349698277247));
#336=CARTESIAN_POINT('',(-20.,-14.125,-51.1233547574568));
#337=CARTESIAN_POINT('',(-20.,-14.125,-8.63190140074092));
#338=CARTESIAN_POINT('',(-20.,-14.125,-51.1233547574568));
#339=CARTESIAN_POINT('',(0.,0.,-212.9));
#340=CARTESIAN_POINT('',(0.,0.,-225.160833750309));
#341=CARTESIAN_POINT('',(13.2955,0.,-225.160833750309));
#342=CARTESIAN_POINT('',(0.,0.,-212.9));
#343=CARTESIAN_POINT('',(13.2932930499249,0.,-212.9));
#344=CARTESIAN_POINT('',(0.,0.,-235.160833750314));
#345=CARTESIAN_POINT('',(-13.2932930499249,0.,-212.9));
#346=CARTESIAN_POINT('',(-2.78607146806023E-14,0.,-230.));
#347=CARTESIAN_POINT('',(0.,0.,-230.));
#348=MECHANICAL_DESIGN_GEOMETRIC_PRESENTATION_REPRESENTATION('',(#184,#185,
#186,#187,#188,#189,#190,#191,#192),#349);
#349=(
GEOMETRIC_REPRESENTATION_CONTEXT(3)
GLOBAL_UNCERTAINTY_ASSIGNED_CONTEXT((#350))
GLOBAL_UNIT_ASSIGNED_CONTEXT((#356,#352,#351))
REPRESENTATION_CONTEXT('h8551.3_64-r9501','TOP_LEVEL_ASSEMBLY_PART')
);
#350=UNCERTAINTY_MEASURE_WITH_UNIT(LENGTH_MEASURE(2.E-5),#356,
'DISTANCE_ACCURACY_VALUE','Maximum Tolerance applied to model');
#351=(
NAMED_UNIT(*)
SI_UNIT($,.STERADIAN.)
SOLID_ANGLE_UNIT()
);
#352=(
CONVERSION_BASED_UNIT('DEGREE',#354)
NAMED_UNIT(#353)
PLANE_ANGLE_UNIT()
);
#353=DIMENSIONAL_EXPONENTS(0.,0.,0.,0.,0.,0.,0.);
#354=PLANE_ANGLE_MEASURE_WITH_UNIT(PLANE_ANGLE_MEASURE(0.0174532925),#355);
#355=(
NAMED_UNIT(*)
PLANE_ANGLE_UNIT()
SI_UNIT($,.RADIAN.)
);
#356=(
LENGTH_UNIT()
NAMED_UNIT(*)
SI_UNIT(.MILLI.,.METRE.)
);
ENDSEC;
END-ISO-10303-21;
