ISO-10303-21;
HEADER;
/* Generated by software containing ST-Developer
 * from STEP Tools, Inc. (www.steptools.com) 
 */
/* OPTION: using custom schema-name function */

FILE_DESCRIPTION(
/* description */ (''),
/* implementation_level */ '2;1');

FILE_NAME(
/* name */ 'h85517.0-r95017.0_3d_light.stp',
/* time_stamp */ '2021-09-03T16:21:14+02:00',
/* author */ (''),
/* organization */ ('SMS'),
/* preprocessor_version */ 'ST-DEVELOPER v16.7',
/* originating_system */ 'SIEMENS PLM Software NX 12.0',
/* authorisation */ '');

FILE_SCHEMA (('AUTOMOTIVE_DESIGN { 1 0 10303 214 3 1 1 1 }'));
ENDSEC;

DATA;
#10=CONSTRUCTIVE_GEOMETRY_REPRESENTATION_RELATIONSHIP(
'supplemental geometry','',#26,#11);
#11=CONSTRUCTIVE_GEOMETRY_REPRESENTATION('supplemental geometry',(#249,
#250,#251),#457);
#12=GEOMETRICALLY_BOUNDED_WIREFRAME_SHAPE_REPRESENTATION(
'H85517.0-R95017.0_3D_light-None',(#27),#457);
#13=SHAPE_REPRESENTATION_RELATIONSHIP('None',
'relationship between H85517.0-R95017.0_3D_light-None and H85517.0-R95
017.0_3D_light-None',#26,#15);
#14=SHAPE_REPRESENTATION_RELATIONSHIP('None',
'relationship between H85517.0-R95017.0_3D_light-None and H85517.0-R95
017.0_3D_light-None',#26,#12);
#15=ADVANCED_BREP_SHAPE_REPRESENTATION(
'H85517.0-R95017.0_3D_light-None',(#39,#40),#457);
#16=SHAPE_DEFINITION_REPRESENTATION(#17,#26);
#17=PRODUCT_DEFINITION_SHAPE('','',#18);
#18=PRODUCT_DEFINITION(' ','',#20,#19);
#19=PRODUCT_DEFINITION_CONTEXT('part definition',#25,'design');
#20=PRODUCT_DEFINITION_FORMATION_WITH_SPECIFIED_SOURCE(' ',' ',#22,
 .NOT_KNOWN.);
#21=PRODUCT_RELATED_PRODUCT_CATEGORY('part','',(#22));
#22=PRODUCT('H85517.0-R95017.0_3D_light','H85517.0-R95017.0_3D_light',
' ',(#23));
#23=PRODUCT_CONTEXT(' ',#25,'mechanical');
#24=APPLICATION_PROTOCOL_DEFINITION('international standard',
'automotive_design',2010,#25);
#25=APPLICATION_CONTEXT(
'core data for automotive mechanical design processes');
#26=SHAPE_REPRESENTATION('H85517.0-R95017.0_3D_light-None',(#248),#457);
#27=GEOMETRIC_CURVE_SET('None',(#340,#341,#342,#212));
#28=VERTEX_LOOP('',#177);
#29=SURFACE_STYLE_USAGE(.BOTH.,#31);
#30=SURFACE_STYLE_USAGE(.BOTH.,#32);
#31=SURFACE_SIDE_STYLE('',(#33));
#32=SURFACE_SIDE_STYLE('',(#34));
#33=SURFACE_STYLE_FILL_AREA(#35);
#34=SURFACE_STYLE_FILL_AREA(#36);
#35=FILL_AREA_STYLE('',(#37));
#36=FILL_AREA_STYLE('',(#38));
#37=FILL_AREA_STYLE_COLOUR('',#246);
#38=FILL_AREA_STYLE_COLOUR('',#247);
#39=MANIFOLD_SOLID_BREP('NOCUT',#41);
#40=MANIFOLD_SOLID_BREP('CUT',#42);
#41=CLOSED_SHELL('',(#73,#74,#75,#76,#77,#78,#79,#80,#81,#82,#83));
#42=CLOSED_SHELL('',(#84,#85,#86));
#43=LINE('',#438,#47);
#44=LINE('',#440,#48);
#45=LINE('',#441,#49);
#46=LINE('',#443,#50);
#47=VECTOR('',#313,1.);
#48=VECTOR('',#316,1.);
#49=VECTOR('',#317,1.);
#50=VECTOR('',#320,1.);
#51=ELLIPSE('',#261,13.673274610986,10.);
#52=ELLIPSE('',#262,286.537083478439,10.);
#53=ELLIPSE('',#263,14.6627918563962,10.);
#54=ELLIPSE('',#264,286.537083478439,10.);
#55=PLANE('',#258);
#56=PLANE('',#266);
#57=PLANE('',#267);
#58=PLANE('',#268);
#59=PLANE('',#271);
#60=PLANE('',#275);
#61=FACE_OUTER_BOUND('',#108,.T.);
#62=FACE_OUTER_BOUND('',#114,.T.);
#63=FACE_OUTER_BOUND('',#115,.T.);
#64=FACE_OUTER_BOUND('',#116,.T.);
#65=FACE_OUTER_BOUND('',#117,.T.);
#66=FACE_OUTER_BOUND('',#118,.T.);
#67=FACE_OUTER_BOUND('',#119,.T.);
#68=FACE_OUTER_BOUND('',#122,.T.);
#69=CONICAL_SURFACE('',#256,8.1,10.75796708839);
#70=CONICAL_SURFACE('',#260,10.,45.);
#71=CONICAL_SURFACE('',#274,8.5018,0.0103132402009826);
#72=CONICAL_SURFACE('',#276,2.06965309055903E-14,69.9999999999999);
#73=ADVANCED_FACE('',(#91,#92),#87,.T.);
#74=ADVANCED_FACE('',(#93,#94),#69,.T.);
#75=ADVANCED_FACE('',(#61),#55,.T.);
#76=ADVANCED_FACE('',(#95,#96),#70,.T.);
#77=ADVANCED_FACE('CYL_FACE',(#97,#98,#99),#88,.T.);
#78=ADVANCED_FACE('',(#62),#56,.T.);
#79=ADVANCED_FACE('',(#63),#57,.T.);
#80=ADVANCED_FACE('',(#64),#58,.T.);
#81=ADVANCED_FACE('',(#65),#89,.F.);
#82=ADVANCED_FACE('',(#66),#90,.F.);
#83=ADVANCED_FACE('',(#67),#59,.T.);
#84=ADVANCED_FACE('',(#100,#101),#71,.T.);
#85=ADVANCED_FACE('',(#68),#60,.F.);
#86=ADVANCED_FACE('',(#102,#103),#72,.T.);
#87=CYLINDRICAL_SURFACE('',#254,8.10000000000001);
#88=CYLINDRICAL_SURFACE('',#265,10.);
#89=CYLINDRICAL_SURFACE('',#269,1.6);
#90=CYLINDRICAL_SURFACE('',#270,1.6);
#91=FACE_BOUND('',#104,.T.);
#92=FACE_BOUND('',#105,.T.);
#93=FACE_BOUND('',#106,.T.);
#94=FACE_BOUND('',#107,.T.);
#95=FACE_BOUND('',#109,.T.);
#96=FACE_BOUND('',#110,.T.);
#97=FACE_BOUND('',#111,.T.);
#98=FACE_BOUND('',#112,.T.);
#99=FACE_BOUND('',#113,.T.);
#100=FACE_BOUND('',#120,.T.);
#101=FACE_BOUND('',#121,.T.);
#102=FACE_BOUND('',#28,.T.);
#103=FACE_BOUND('',#123,.T.);
#104=EDGE_LOOP('',(#124));
#105=EDGE_LOOP('',(#125));
#106=EDGE_LOOP('',(#126));
#107=EDGE_LOOP('',(#127));
#108=EDGE_LOOP('',(#128));
#109=EDGE_LOOP('',(#129));
#110=EDGE_LOOP('',(#130));
#111=EDGE_LOOP('',(#131,#132,#133,#134,#135,#136,#137,#138));
#112=EDGE_LOOP('',(#139));
#113=EDGE_LOOP('',(#140));
#114=EDGE_LOOP('',(#141,#142));
#115=EDGE_LOOP('',(#143,#144,#145,#146));
#116=EDGE_LOOP('',(#147,#148));
#117=EDGE_LOOP('',(#149,#150,#151,#152));
#118=EDGE_LOOP('',(#153,#154,#155,#156));
#119=EDGE_LOOP('',(#157));
#120=EDGE_LOOP('',(#158));
#121=EDGE_LOOP('',(#159));
#122=EDGE_LOOP('',(#160));
#123=EDGE_LOOP('',(#161));
#124=ORIENTED_EDGE('',*,*,#178,.F.);
#125=ORIENTED_EDGE('',*,*,#179,.F.);
#126=ORIENTED_EDGE('',*,*,#180,.T.);
#127=ORIENTED_EDGE('',*,*,#179,.T.);
#128=ORIENTED_EDGE('',*,*,#181,.F.);
#129=ORIENTED_EDGE('',*,*,#181,.T.);
#130=ORIENTED_EDGE('',*,*,#182,.F.);
#131=ORIENTED_EDGE('',*,*,#183,.F.);
#132=ORIENTED_EDGE('',*,*,#184,.T.);
#133=ORIENTED_EDGE('',*,*,#185,.F.);
#134=ORIENTED_EDGE('',*,*,#186,.T.);
#135=ORIENTED_EDGE('',*,*,#187,.F.);
#136=ORIENTED_EDGE('',*,*,#188,.T.);
#137=ORIENTED_EDGE('',*,*,#189,.F.);
#138=ORIENTED_EDGE('',*,*,#190,.T.);
#139=ORIENTED_EDGE('',*,*,#182,.T.);
#140=ORIENTED_EDGE('',*,*,#180,.F.);
#141=ORIENTED_EDGE('',*,*,#191,.T.);
#142=ORIENTED_EDGE('',*,*,#184,.F.);
#143=ORIENTED_EDGE('',*,*,#192,.T.);
#144=ORIENTED_EDGE('',*,*,#186,.F.);
#145=ORIENTED_EDGE('',*,*,#193,.T.);
#146=ORIENTED_EDGE('',*,*,#190,.F.);
#147=ORIENTED_EDGE('',*,*,#194,.T.);
#148=ORIENTED_EDGE('',*,*,#188,.F.);
#149=ORIENTED_EDGE('',*,*,#183,.T.);
#150=ORIENTED_EDGE('',*,*,#193,.F.);
#151=ORIENTED_EDGE('',*,*,#185,.T.);
#152=ORIENTED_EDGE('',*,*,#191,.F.);
#153=ORIENTED_EDGE('',*,*,#189,.T.);
#154=ORIENTED_EDGE('',*,*,#194,.F.);
#155=ORIENTED_EDGE('',*,*,#187,.T.);
#156=ORIENTED_EDGE('',*,*,#192,.F.);
#157=ORIENTED_EDGE('',*,*,#178,.T.);
#158=ORIENTED_EDGE('',*,*,#195,.T.);
#159=ORIENTED_EDGE('',*,*,#196,.T.);
#160=ORIENTED_EDGE('',*,*,#196,.F.);
#161=ORIENTED_EDGE('',*,*,#195,.F.);
#162=VERTEX_POINT('',#360);
#163=VERTEX_POINT('',#362);
#164=VERTEX_POINT('',#365);
#165=VERTEX_POINT('',#368);
#166=VERTEX_POINT('',#371);
#167=VERTEX_POINT('',#386);
#168=VERTEX_POINT('',#387);
#169=VERTEX_POINT('',#389);
#170=VERTEX_POINT('',#403);
#171=VERTEX_POINT('',#405);
#172=VERTEX_POINT('',#419);
#173=VERTEX_POINT('',#421);
#174=VERTEX_POINT('',#435);
#175=VERTEX_POINT('',#449);
#176=VERTEX_POINT('',#451);
#177=VERTEX_POINT('',#454);
#178=EDGE_CURVE('',#162,#162,#197,.T.);
#179=EDGE_CURVE('',#163,#163,#198,.T.);
#180=EDGE_CURVE('',#164,#164,#199,.T.);
#181=EDGE_CURVE('',#165,#165,#200,.T.);
#182=EDGE_CURVE('',#166,#166,#201,.T.);
#183=EDGE_CURVE('',#167,#168,#213,.T.);
#184=EDGE_CURVE('',#167,#169,#51,.T.);
#185=EDGE_CURVE('',#170,#169,#214,.T.);
#186=EDGE_CURVE('',#170,#171,#52,.T.);
#187=EDGE_CURVE('',#172,#171,#215,.T.);
#188=EDGE_CURVE('',#172,#173,#53,.T.);
#189=EDGE_CURVE('',#174,#173,#216,.T.);
#190=EDGE_CURVE('',#174,#168,#54,.T.);
#191=EDGE_CURVE('',#167,#169,#43,.T.);
#192=EDGE_CURVE('',#174,#171,#44,.T.);
#193=EDGE_CURVE('',#170,#168,#45,.T.);
#194=EDGE_CURVE('',#172,#173,#46,.T.);
#195=EDGE_CURVE('',#175,#175,#202,.T.);
#196=EDGE_CURVE('',#176,#176,#203,.T.);
#197=CIRCLE('',#252,8.10000000000002);
#198=CIRCLE('',#253,8.10000000000001);
#199=CIRCLE('',#255,10.);
#200=CIRCLE('',#257,9.);
#201=CIRCLE('',#259,10.);
#202=CIRCLE('',#272,8.5);
#203=CIRCLE('',#273,8.49836087445843);
#204=CURVE_STYLE('',#208,POSITIVE_LENGTH_MEASURE(0.18),#218);
#205=CURVE_STYLE('',#209,POSITIVE_LENGTH_MEASURE(0.13),#245);
#206=CURVE_STYLE('',#210,POSITIVE_LENGTH_MEASURE(0.18),#244);
#207=CURVE_STYLE('',#211,POSITIVE_LENGTH_MEASURE(0.18),#244);
#208=DRAUGHTING_PRE_DEFINED_CURVE_FONT('continuous');
#209=DRAUGHTING_PRE_DEFINED_CURVE_FONT('continuous');
#210=DRAUGHTING_PRE_DEFINED_CURVE_FONT('continuous');
#211=DRAUGHTING_PRE_DEFINED_CURVE_FONT('continuous');
#212=B_SPLINE_CURVE_WITH_KNOTS('CUTTING PART LINE',3,(#343,#344,#345,#346,
#347,#348,#349,#350,#351,#352,#353,#354,#355),.UNSPECIFIED.,.T.,.F.,(4,
3,3,3,4),(0.,0.314027302861866,0.532774626153384,0.767169062042096,1.),
 .UNSPECIFIED.);
#213=B_SPLINE_CURVE_WITH_KNOTS('',3,(#373,#374,#375,#376,#377,#378,#379,
#380,#381,#382,#383,#384,#385),.UNSPECIFIED.,.F.,.F.,(4,3,3,3,4),(0.,0.468567915306647,
0.679577448438242,0.893996416085665,1.),.UNSPECIFIED.);
#214=B_SPLINE_CURVE_WITH_KNOTS('',3,(#390,#391,#392,#393,#394,#395,#396,
#397,#398,#399,#400,#401,#402),.UNSPECIFIED.,.F.,.F.,(4,3,3,3,4),(0.,0.161930832438249,
0.3621305400234,0.669333450980627,1.),.UNSPECIFIED.);
#215=B_SPLINE_CURVE_WITH_KNOTS('',3,(#406,#407,#408,#409,#410,#411,#412,
#413,#414,#415,#416,#417,#418),.UNSPECIFIED.,.F.,.F.,(4,3,3,3,4),(0.,0.378981530677497,
0.667040703593214,0.911039376110413,1.),.UNSPECIFIED.);
#216=B_SPLINE_CURVE_WITH_KNOTS('',3,(#422,#423,#424,#425,#426,#427,#428,
#429,#430,#431,#432,#433,#434),.UNSPECIFIED.,.F.,.F.,(4,3,3,3,4),(0.,0.265685717474542,
0.529303602028099,0.894736544369598,1.),.UNSPECIFIED.);
#217=DRAUGHTING_PRE_DEFINED_COLOUR('white');
#218=DRAUGHTING_PRE_DEFINED_COLOUR('blue');
#219=PRESENTATION_LAYER_ASSIGNMENT('1','Layer 1',(#340,#341,#342,#212,#249,
#250,#251,#39,#40));
#220=STYLED_ITEM('',(#229),#340);
#221=STYLED_ITEM('',(#230),#341);
#222=STYLED_ITEM('',(#231),#342);
#223=STYLED_ITEM('',(#232),#212);
#224=STYLED_ITEM('',(#233),#249);
#225=STYLED_ITEM('',(#234),#250);
#226=STYLED_ITEM('',(#235),#251);
#227=STYLED_ITEM('',(#236),#39);
#228=STYLED_ITEM('',(#237),#40);
#229=PRESENTATION_STYLE_ASSIGNMENT((#238));
#230=PRESENTATION_STYLE_ASSIGNMENT((#239));
#231=PRESENTATION_STYLE_ASSIGNMENT((#240));
#232=PRESENTATION_STYLE_ASSIGNMENT((#204));
#233=PRESENTATION_STYLE_ASSIGNMENT((#205));
#234=PRESENTATION_STYLE_ASSIGNMENT((#206));
#235=PRESENTATION_STYLE_ASSIGNMENT((#207));
#236=PRESENTATION_STYLE_ASSIGNMENT((#29));
#237=PRESENTATION_STYLE_ASSIGNMENT((#30));
#238=POINT_STYLE('',#241,POSITIVE_LENGTH_MEASURE(3.),#244);
#239=POINT_STYLE('',#242,POSITIVE_LENGTH_MEASURE(3.),#217);
#240=POINT_STYLE('',#243,POSITIVE_LENGTH_MEASURE(3.),#244);
#241=PRE_DEFINED_POINT_MARKER_SYMBOL('plus');
#242=PRE_DEFINED_POINT_MARKER_SYMBOL('plus');
#243=PRE_DEFINED_POINT_MARKER_SYMBOL('plus');
#244=COLOUR_RGB('Medium Maroon',0.6,0.4,0.4);
#245=COLOUR_RGB('Silver Gray',0.6,0.6,0.6);
#246=COLOUR_RGB('TLS_NOCUT',0.498023956664378,0.498023956664378,0.498023956664378);
#247=COLOUR_RGB('TLS_CUT',0.8,0.8,0.8);
#248=AXIS2_PLACEMENT_3D('',#339,#277,#278);
#249=AXIS2_PLACEMENT_3D('PCS',#356,#279,#280);
#250=AXIS2_PLACEMENT_3D('MCS',#357,#281,#282);
#251=AXIS2_PLACEMENT_3D('CIP',#358,#283,#284);
#252=AXIS2_PLACEMENT_3D('',#359,#285,#286);
#253=AXIS2_PLACEMENT_3D('',#361,#287,#288);
#254=AXIS2_PLACEMENT_3D('',#363,#289,#290);
#255=AXIS2_PLACEMENT_3D('',#364,#291,#292);
#256=AXIS2_PLACEMENT_3D('',#366,#293,#294);
#257=AXIS2_PLACEMENT_3D('',#367,#295,#296);
#258=AXIS2_PLACEMENT_3D('',#369,#297,#298);
#259=AXIS2_PLACEMENT_3D('',#370,#299,#300);
#260=AXIS2_PLACEMENT_3D('',#372,#301,#302);
#261=AXIS2_PLACEMENT_3D('',#388,#303,#304);
#262=AXIS2_PLACEMENT_3D('',#404,#305,#306);
#263=AXIS2_PLACEMENT_3D('',#420,#307,#308);
#264=AXIS2_PLACEMENT_3D('',#436,#309,#310);
#265=AXIS2_PLACEMENT_3D('',#437,#311,#312);
#266=AXIS2_PLACEMENT_3D('',#439,#314,#315);
#267=AXIS2_PLACEMENT_3D('',#442,#318,#319);
#268=AXIS2_PLACEMENT_3D('',#444,#321,#322);
#269=AXIS2_PLACEMENT_3D('',#445,#323,#324);
#270=AXIS2_PLACEMENT_3D('',#446,#325,#326);
#271=AXIS2_PLACEMENT_3D('',#447,#327,#328);
#272=AXIS2_PLACEMENT_3D('',#448,#329,#330);
#273=AXIS2_PLACEMENT_3D('',#450,#331,#332);
#274=AXIS2_PLACEMENT_3D('',#452,#333,#334);
#275=AXIS2_PLACEMENT_3D('',#453,#335,#336);
#276=AXIS2_PLACEMENT_3D('',#455,#337,#338);
#277=DIRECTION('',(0.,0.,1.));
#278=DIRECTION('',(1.,0.,0.));
#279=DIRECTION('',(0.,0.,1.));
#280=DIRECTION('',(1.,0.,0.));
#281=DIRECTION('',(0.,0.,1.));
#282=DIRECTION('',(1.,0.,0.));
#283=DIRECTION('',(0.,0.,1.));
#284=DIRECTION('',(1.,0.,0.));
#285=DIRECTION('',(0.,0.,-1.));
#286=DIRECTION('',(1.,0.,0.));
#287=DIRECTION('',(0.,0.,1.));
#288=DIRECTION('',(-1.,0.,0.));
#289=DIRECTION('',(0.,0.,1.));
#290=DIRECTION('',(1.,0.,0.));
#291=DIRECTION('',(0.,0.,-1.));
#292=DIRECTION('',(-1.,0.,0.));
#293=DIRECTION('',(0.,0.,1.));
#294=DIRECTION('',(1.,0.,-2.45190597311209E-16));
#295=DIRECTION('',(0.,0.,-1.));
#296=DIRECTION('',(-1.,0.,0.));
#297=DIRECTION('',(0.,0.,1.));
#298=DIRECTION('',(1.,0.,0.));
#299=DIRECTION('',(0.,0.,-1.));
#300=DIRECTION('',(-1.,0.,0.));
#301=DIRECTION('',(0.,0.,-1.));
#302=DIRECTION('',(-1.,0.,1.09923071745065E-16));
#303=DIRECTION('',(0.,0.681998360062499,0.73135370161917));
#304=DIRECTION('',(0.,0.73135370161917,-0.681998360062499));
#305=DIRECTION('',(0.,0.999390827019096,0.0348994967025009));
#306=DIRECTION('',(0.,0.0348994967025009,-0.999390827019096));
#307=DIRECTION('',(0.,0.731353701619169,-0.6819983600625));
#308=DIRECTION('',(0.,-0.6819983600625,-0.731353701619169));
#309=DIRECTION('',(0.,0.999390827019096,0.0348994967025009));
#310=DIRECTION('',(0.,0.0348994967025009,-0.999390827019096));
#311=DIRECTION('',(0.,0.,-1.));
#312=DIRECTION('',(-1.,0.,0.));
#313=DIRECTION('',(1.,0.,0.));
#314=DIRECTION('',(0.,-0.681998360062499,-0.73135370161917));
#315=DIRECTION('',(0.,-0.73135370161917,0.681998360062499));
#316=DIRECTION('',(1.,0.,0.));
#317=DIRECTION('',(-1.,0.,0.));
#318=DIRECTION('',(0.,-0.999390827019096,-0.0348994967025009));
#319=DIRECTION('',(0.,-0.0348994967025009,0.999390827019096));
#320=DIRECTION('',(-1.,0.,0.));
#321=DIRECTION('',(0.,-0.731353701619169,0.6819983600625));
#322=DIRECTION('',(0.,0.6819983600625,0.731353701619169));
#323=DIRECTION('',(1.,0.,0.));
#324=DIRECTION('',(0.,0.,-1.));
#325=DIRECTION('',(1.,0.,0.));
#326=DIRECTION('',(0.,0.,-0.999999999999998));
#327=DIRECTION('',(0.,0.,-1.));
#328=DIRECTION('',(-1.,0.,0.));
#329=DIRECTION('',(0.,0.,1.));
#330=DIRECTION('',(1.,0.,0.));
#331=DIRECTION('',(0.,0.,-1.));
#332=DIRECTION('',(1.,0.,0.));
#333=DIRECTION('',(0.,0.,-1.));
#334=DIRECTION('',(-1.,0.,-9.59095197388616E-15));
#335=DIRECTION('',(0.,0.,-1.));
#336=DIRECTION('',(-1.,0.,0.));
#337=DIRECTION('',(0.,0.,1.));
#338=DIRECTION('',(1.,0.,1.01022033590138E-17));
#339=CARTESIAN_POINT('',(0.,0.,0.));
#340=CARTESIAN_POINT('',(0.,0.,-50.));
#341=CARTESIAN_POINT('CRP',(-8.5,0.,-168.406253008737));
#342=CARTESIAN_POINT('CIP_DCSYS',(0.,0.,-171.5));
#343=CARTESIAN_POINT('',(0.,0.,-171.5));
#344=CARTESIAN_POINT('',(0.,0.,-167.433333333333));
#345=CARTESIAN_POINT('',(0.,0.,-163.366666666667));
#346=CARTESIAN_POINT('',(0.,0.,-159.3));
#347=CARTESIAN_POINT('',(-2.83278695815281,0.,-159.3));
#348=CARTESIAN_POINT('',(-5.66557391630562,0.,-159.3));
#349=CARTESIAN_POINT('',(-8.49836087445843,0.,-159.3));
#350=CARTESIAN_POINT('',(-8.49890724963896,0.,-162.335417669579));
#351=CARTESIAN_POINT('',(-8.49945362481948,0.,-165.370835339158));
#352=CARTESIAN_POINT('',(-8.50000000000001,0.,-168.406253008737));
#353=CARTESIAN_POINT('',(-5.66666666666667,0.,-169.437502005825));
#354=CARTESIAN_POINT('',(-2.83333333333334,0.,-170.468751002912));
#355=CARTESIAN_POINT('',(0.,0.,-171.5));
#356=CARTESIAN_POINT('',(0.,0.,0.));
#357=CARTESIAN_POINT('',(0.,0.,-50.));
#358=CARTESIAN_POINT('',(0.,0.,-171.5));
#359=CARTESIAN_POINT('',(0.,0.,-159.3));
#360=CARTESIAN_POINT('',(8.10000000000002,0.,-159.3));
#361=CARTESIAN_POINT('',(0.,0.,-60.));
#362=CARTESIAN_POINT('',(-8.10000000000001,0.,-60.));
#363=CARTESIAN_POINT('',(0.,0.,20.9080749503476));
#364=CARTESIAN_POINT('',(0.,0.,-50.));
#365=CARTESIAN_POINT('',(-10.,0.,-50.));
#366=CARTESIAN_POINT('',(0.,0.,-60.));
#367=CARTESIAN_POINT('',(0.,0.,0.));
#368=CARTESIAN_POINT('',(-9.,0.,0.));
#369=CARTESIAN_POINT('',(-9.,0.,4.44089209850063E-16));
#370=CARTESIAN_POINT('',(0.,0.,-1.));
#371=CARTESIAN_POINT('',(-10.,0.,-1.));
#372=CARTESIAN_POINT('',(0.,0.,-1.));
#373=CARTESIAN_POINT('',(-3.65034953143106,-9.30993814686119,-6.64349308842006));
#374=CARTESIAN_POINT('',(-3.88760159556277,-9.21691358026659,-6.73023990015094));
#375=CARTESIAN_POINT('',(-4.11787443235169,-9.11538313051843,-6.84362159299471));
#376=CARTESIAN_POINT('',(-4.31366849315763,-9.02176613148109,-7.00289388975315));
#377=CARTESIAN_POINT('',(-4.4025934053921,-8.97924756177176,-7.07523150281621));
#378=CARTESIAN_POINT('',(-4.48524964367385,-8.9380401985969,-7.15827863386241));
#379=CARTESIAN_POINT('',(-4.55436427397744,-8.90268308207801,-7.25273095643399));
#380=CARTESIAN_POINT('',(-4.62411022766658,-8.86700299812941,-7.34804604799957));
#381=CARTESIAN_POINT('',(-4.68144794239438,-8.83659723474444,-7.45820247042538));
#382=CARTESIAN_POINT('',(-4.71451039217822,-8.8189223696574,-7.57574823464164));
#383=CARTESIAN_POINT('',(-4.73108081571778,-8.81006398189691,-7.6346604783223));
#384=CARTESIAN_POINT('',(-4.74183092909192,-8.80426374157311,-7.69615044663014));
#385=CARTESIAN_POINT('',(-4.74582511601492,-8.80211019973063,-7.75781981628673));
#386=CARTESIAN_POINT('',(-3.65034953143106,-9.30993814686119,-6.64349308842006));
#387=CARTESIAN_POINT('',(-4.74582511601492,-8.80211019973063,-7.75781981628673));
#388=CARTESIAN_POINT('',(0.,0.,-15.3251508613766));
#389=CARTESIAN_POINT('',(3.65034953143106,-9.30993814686119,-6.64349308842006));
#390=CARTESIAN_POINT('',(4.74582511601492,-8.80211019973063,-7.75781981628673));
#391=CARTESIAN_POINT('',(4.73978442862273,-8.80536715122219,-7.66455292844432));
#392=CARTESIAN_POINT('',(4.71794890574512,-8.81716575811446,-7.57147989087015));
#393=CARTESIAN_POINT('',(4.68426110640565,-8.83502676209955,-7.48608711180011));
#394=CARTESIAN_POINT('',(4.64264340517157,-8.85709213716611,-7.38059339488876));
#395=CARTESIAN_POINT('',(4.58223724956665,-8.88871422557579,-7.28352621411308));
#396=CARTESIAN_POINT('',(4.51231675894227,-8.92406843692767,-7.19862013146207));
#397=CARTESIAN_POINT('',(4.40531300215839,-8.97817322651083,-7.06868297375149));
#398=CARTESIAN_POINT('',(4.2734778909051,-9.04217761204219,-6.96222750769309));
#399=CARTESIAN_POINT('',(4.13362586666324,-9.10566511543515,-6.8746401489934));
#400=CARTESIAN_POINT('',(3.98245936759366,-9.17428896034986,-6.77996669360968));
#401=CARTESIAN_POINT('',(3.81878219537111,-9.24389709629862,-6.70507736437403));
#402=CARTESIAN_POINT('',(3.65034953143106,-9.30993814686119,-6.64349308842006));
#403=CARTESIAN_POINT('',(4.74582511601492,-8.80211019973063,-7.75781981628673));
#404=CARTESIAN_POINT('',(0.,0.,-259.817276919908));
#405=CARTESIAN_POINT('',(6.1942997536881,-7.85051912687687,-35.0078228002884));
#406=CARTESIAN_POINT('',(5.60819856978107,-8.27937852751676,-36.1548593711124));
#407=CARTESIAN_POINT('',(5.73548970073651,-8.19315539661418,-36.0623963834521));
#408=CARTESIAN_POINT('',(5.85335375446695,-8.10879646450695,-35.949847060665));
#409=CARTESIAN_POINT('',(5.94957086797646,-8.03757466446974,-35.8162185207606));
#410=CARTESIAN_POINT('',(6.02277824515413,-7.9833851238733,-35.7145464318186));
#411=CARTESIAN_POINT('',(6.08473873420173,-7.93592354860724,-35.5982236294925));
#412=CARTESIAN_POINT('',(6.1275016332713,-7.90276684043365,-35.4729040092434));
#413=CARTESIAN_POINT('',(6.16375416105611,-7.87465802390181,-35.3666634803291));
#414=CARTESIAN_POINT('',(6.18684142383835,-7.85640275849914,-35.2514041597004));
#415=CARTESIAN_POINT('',(6.19346195095861,-7.85118010632974,-35.1359905823077));
#416=CARTESIAN_POINT('',(6.19590623810284,-7.84925191219588,-35.0933800894624));
#417=CARTESIAN_POINT('',(6.19618763020548,-7.84902953455086,-35.0504791434244));
#418=CARTESIAN_POINT('',(6.1942997536881,-7.85051912687687,-35.0078228002884));
#419=CARTESIAN_POINT('',(5.60819856978107,-8.27937852751676,-36.1548593711124));
#420=CARTESIAN_POINT('',(0.,0.,-27.2763128997532));
#421=CARTESIAN_POINT('',(-5.60819856978108,-8.27937852751675,-36.1548593711124));
#422=CARTESIAN_POINT('',(-6.1942997536881,-7.85051912687687,-35.0078228002884));
#423=CARTESIAN_POINT('',(-6.19985391217198,-7.84613672592062,-35.1333183440588));
#424=CARTESIAN_POINT('',(-6.18589550730156,-7.85724144411401,-35.2621809641192));
#425=CARTESIAN_POINT('',(-6.1549029012489,-7.88144468204896,-35.3815662532647));
#426=CARTESIAN_POINT('',(-6.12404445607828,-7.90554314893807,-35.500434747028));
#427=CARTESIAN_POINT('',(-6.07584111834942,-7.94290192246206,-35.6133516448125));
#428=CARTESIAN_POINT('',(-6.01640811954107,-7.98766757815574,-35.7139819249336));
#429=CARTESIAN_POINT('',(-5.93427006993291,-8.04953495355043,-35.8530557577605));
#430=CARTESIAN_POINT('',(-5.82873748131893,-8.12685896658938,-35.973021119307));
#431=CARTESIAN_POINT('',(-5.71261316404866,-8.20768242794139,-36.0725121909789));
#432=CARTESIAN_POINT('',(-5.67880311327456,-8.23121449595511,-36.1014794070097));
#433=CARTESIAN_POINT('',(-5.64392844472447,-8.25517619966223,-36.1289055520123));
#434=CARTESIAN_POINT('',(-5.60819856978154,-8.2793785275166,-36.154859371113));
#435=CARTESIAN_POINT('',(-6.1942997536881,-7.85051912687687,-35.0078228002884));
#436=CARTESIAN_POINT('',(0.,0.,-259.817276919908));
#437=CARTESIAN_POINT('',(0.,0.,20.9080749503476));
#438=CARTESIAN_POINT('',(-20.,-9.30993814686119,-6.64349308842006));
#439=CARTESIAN_POINT('',(-20.,-11.,-5.06748491386234));
#440=CARTESIAN_POINT('',(-20.,-7.85051912687687,-35.0078228002884));
#441=CARTESIAN_POINT('',(-20.,-8.80211019973063,-7.75781981628673));
#442=CARTESIAN_POINT('',(-20.,-8.8252395514973,-7.09548184082661));
#443=CARTESIAN_POINT('',(-20.,-8.27937852751675,-36.1548593711124));
#444=CARTESIAN_POINT('',(-20.,-7.8273897751102,-35.6701607757485));
#445=CARTESIAN_POINT('',(-20.,-10.4011355229612,-7.81365901101073));
#446=CARTESIAN_POINT('',(-20.,-9.44954445010743,-35.0636619950124));
#447=CARTESIAN_POINT('',(0.,0.,-159.3));
#448=CARTESIAN_POINT('',(0.,0.,-168.406253008747));
#449=CARTESIAN_POINT('',(8.5,0.,-168.406253008747));
#450=CARTESIAN_POINT('',(0.,0.,-159.3));
#451=CARTESIAN_POINT('',(8.49836087445843,0.,-159.3));
#452=CARTESIAN_POINT('',(0.,0.,-178.406253008737));
#453=CARTESIAN_POINT('',(-8.49836087445843,0.,-159.3));
#454=CARTESIAN_POINT('',(-2.06965309055903E-14,0.,-171.5));
#455=CARTESIAN_POINT('',(0.,0.,-171.5));
#456=MECHANICAL_DESIGN_GEOMETRIC_PRESENTATION_REPRESENTATION('',(#220,#221,
#222,#223,#224,#225,#226,#227,#228),#457);
#457=(
GEOMETRIC_REPRESENTATION_CONTEXT(3)
GLOBAL_UNCERTAINTY_ASSIGNED_CONTEXT((#458))
GLOBAL_UNIT_ASSIGNED_CONTEXT((#464,#460,#459))
REPRESENTATION_CONTEXT('h85517.0-r95017','TOP_LEVEL_ASSEMBLY_PART')
);
#458=UNCERTAINTY_MEASURE_WITH_UNIT(LENGTH_MEASURE(0.0508),#464,
'DISTANCE_ACCURACY_VALUE','Maximum Tolerance applied to model');
#459=(
NAMED_UNIT(*)
SI_UNIT($,.STERADIAN.)
SOLID_ANGLE_UNIT()
);
#460=(
CONVERSION_BASED_UNIT('DEGREE',#462)
NAMED_UNIT(#461)
PLANE_ANGLE_UNIT()
);
#461=DIMENSIONAL_EXPONENTS(0.,0.,0.,0.,0.,0.,0.);
#462=PLANE_ANGLE_MEASURE_WITH_UNIT(PLANE_ANGLE_MEASURE(0.0174532925),#463);
#463=(
NAMED_UNIT(*)
PLANE_ANGLE_UNIT()
SI_UNIT($,.RADIAN.)
);
#464=(
LENGTH_UNIT()
NAMED_UNIT(*)
SI_UNIT(.MILLI.,.METRE.)
);
ENDSEC;
END-ISO-10303-21;
