ISO-10303-21;
HEADER;
/* Generated by software containing ST-Developer
 * from STEP Tools, Inc. (www.steptools.com) 
 */
/* OPTION: using custom schema-name function */

FILE_DESCRIPTION(
/* description */ (''),
/* implementation_level */ '2;1');

FILE_NAME(
/* name */ 'SMDH350M-SMDT3500_stp.stp',
/* time_stamp */ '2014-08-25T11:11:11+09:00',
/* author */ (''),
/* organization */ (''),
/* preprocessor_version */ 'ST-DEVELOPER v14',
/* originating_system */ 'SIEMENS PLM Software NX 8.0',
/* authorisation */ '');

FILE_SCHEMA (('AUTOMOTIVE_DESIGN { 1 0 10303 214 3 1 1 1 }'));
ENDSEC;

DATA;
#10=SHAPE_REPRESENTATION_RELATIONSHIP('None',
'relationship between SMDH350M-SMDT3500_stp-None and SMDH350M-SMDT3500_
stp-None',#22,#11);
#11=ADVANCED_BREP_SHAPE_REPRESENTATION('SMDH350M-SMDT3500_stp-None',(#40,
#41),#530);
#12=SHAPE_DEFINITION_REPRESENTATION(#13,#22);
#13=PRODUCT_DEFINITION_SHAPE('','',#14);
#14=PRODUCT_DEFINITION(' ','',#16,#15);
#15=PRODUCT_DEFINITION_CONTEXT('part definition',#21,'design');
#16=PRODUCT_DEFINITION_FORMATION_WITH_SPECIFIED_SOURCE(' ',' ',#18,
 .NOT_KNOWN.);
#17=PRODUCT_RELATED_PRODUCT_CATEGORY('part','',(#18));
#18=PRODUCT('SMDH350M-SMDT3500_stp','SMDH350M-SMDT3500_stp',' ',(#19));
#19=PRODUCT_CONTEXT(' ',#21,'mechanical');
#20=APPLICATION_PROTOCOL_DEFINITION('international standard',
'automotive_design',2010,#21);
#21=APPLICATION_CONTEXT(
'core data for automotive mechanical design processes');
#22=SHAPE_REPRESENTATION('SMDH350M-SMDT3500_stp-None',(#308),#530);
#23=PRESENTATION_LAYER_ASSIGNMENT('1','Layer 1',(#40,#41));
#24=STYLED_ITEM('',(#26),#40);
#25=STYLED_ITEM('',(#27),#41);
#26=PRESENTATION_STYLE_ASSIGNMENT((#28));
#27=PRESENTATION_STYLE_ASSIGNMENT((#29));
#28=SURFACE_STYLE_USAGE(.BOTH.,#30);
#29=SURFACE_STYLE_USAGE(.BOTH.,#31);
#30=SURFACE_SIDE_STYLE('',(#32));
#31=SURFACE_SIDE_STYLE('',(#33));
#32=SURFACE_STYLE_FILL_AREA(#34);
#33=SURFACE_STYLE_FILL_AREA(#35);
#34=FILL_AREA_STYLE('',(#36));
#35=FILL_AREA_STYLE('',(#37));
#36=FILL_AREA_STYLE_COLOUR('',#38);
#37=FILL_AREA_STYLE_COLOUR('',#39);
#38=COLOUR_RGB('medium_gray',0.50196,0.50196,0.50196);
#39=COLOUR_RGB('light_gray',0.8,0.8,0.8);
#40=MANIFOLD_SOLID_BREP('1',#42);
#41=MANIFOLD_SOLID_BREP('2',#43);
#42=CLOSED_SHELL('',(#61,#62,#63,#64,#65,#66,#67,#68,#69,#70,#71,#72,#73,
#74));
#43=CLOSED_SHELL('',(#75,#76,#77,#78,#79));
#44=FACE_BOUND('',#113,.T.);
#45=FACE_BOUND('',#114,.T.);
#46=PLANE('',#323);
#47=PLANE('',#326);
#48=PLANE('',#331);
#49=PLANE('',#336);
#50=PLANE('',#342);
#51=B_SPLINE_CURVE_WITH_KNOTS('',3,(#464,#465,#466,#467),.UNSPECIFIED.,.F.,
 .F.,(4,4),(0.,1.),.UNSPECIFIED.);
#52=B_SPLINE_CURVE_WITH_KNOTS('',3,(#471,#472,#473,#474),.UNSPECIFIED.,.F.,
 .F.,(4,4),(0.,1.),.UNSPECIFIED.);
#53=B_SPLINE_CURVE_WITH_KNOTS('',3,(#482,#483,#484,#485),.UNSPECIFIED.,.F.,
 .F.,(4,4),(0.,1.),.UNSPECIFIED.);
#54=B_SPLINE_CURVE_WITH_KNOTS('',3,(#491,#492,#493,#494),.UNSPECIFIED.,.F.,
 .F.,(4,4),(0.,1.),.UNSPECIFIED.);
#55=CONICAL_SURFACE('',#313,18.0210334733451,5.);
#56=CONICAL_SURFACE('',#318,19.25,45.);
#57=CONICAL_SURFACE('',#329,19.25,45.);
#58=CONICAL_SURFACE('',#333,18.0210334733451,5.);
#59=CONICAL_SURFACE('',#338,8.75,70.);
#60=CONICAL_SURFACE('',#345,8.75,70.);
#61=ADVANCED_FACE('',(#88),#80,.T.);
#62=ADVANCED_FACE('',(#89),#55,.T.);
#63=ADVANCED_FACE('',(#90),#81,.T.);
#64=ADVANCED_FACE('',(#91),#56,.T.);
#65=ADVANCED_FACE('',(#92),#82,.F.);
#66=ADVANCED_FACE('',(#93),#83,.F.);
#67=ADVANCED_FACE('',(#94),#46,.T.);
#68=ADVANCED_FACE('',(#44,#45),#47,.T.);
#69=ADVANCED_FACE('',(#95),#57,.T.);
#70=ADVANCED_FACE('',(#96),#84,.T.);
#71=ADVANCED_FACE('',(#97),#48,.T.);
#72=ADVANCED_FACE('',(#98),#58,.T.);
#73=ADVANCED_FACE('',(#99),#85,.T.);
#74=ADVANCED_FACE('',(#100),#49,.T.);
#75=ADVANCED_FACE('',(#101),#59,.T.);
#76=ADVANCED_FACE('',(#102),#86,.T.);
#77=ADVANCED_FACE('',(#103),#50,.T.);
#78=ADVANCED_FACE('',(#104),#87,.T.);
#79=ADVANCED_FACE('',(#105),#60,.T.);
#80=CYLINDRICAL_SURFACE('',#311,16.35);
#81=CYLINDRICAL_SURFACE('',#316,20.);
#82=CYLINDRICAL_SURFACE('',#320,10.);
#83=CYLINDRICAL_SURFACE('',#322,10.);
#84=CYLINDRICAL_SURFACE('',#330,20.);
#85=CYLINDRICAL_SURFACE('',#335,16.35);
#86=CYLINDRICAL_SURFACE('',#340,17.5);
#87=CYLINDRICAL_SURFACE('',#344,17.5);
#88=FACE_OUTER_BOUND('',#106,.T.);
#89=FACE_OUTER_BOUND('',#107,.T.);
#90=FACE_OUTER_BOUND('',#108,.T.);
#91=FACE_OUTER_BOUND('',#109,.T.);
#92=FACE_OUTER_BOUND('',#110,.T.);
#93=FACE_OUTER_BOUND('',#111,.T.);
#94=FACE_OUTER_BOUND('',#112,.T.);
#95=FACE_OUTER_BOUND('',#115,.T.);
#96=FACE_OUTER_BOUND('',#116,.T.);
#97=FACE_OUTER_BOUND('',#117,.T.);
#98=FACE_OUTER_BOUND('',#118,.T.);
#99=FACE_OUTER_BOUND('',#119,.T.);
#100=FACE_OUTER_BOUND('',#120,.T.);
#101=FACE_OUTER_BOUND('',#121,.T.);
#102=FACE_OUTER_BOUND('',#122,.T.);
#103=FACE_OUTER_BOUND('',#123,.T.);
#104=FACE_OUTER_BOUND('',#124,.T.);
#105=FACE_OUTER_BOUND('',#125,.T.);
#106=EDGE_LOOP('',(#144,#145,#146,#147));
#107=EDGE_LOOP('',(#148,#149,#150,#151));
#108=EDGE_LOOP('',(#152,#153,#154,#155,#156,#157,#158,#159));
#109=EDGE_LOOP('',(#160,#161,#162,#163));
#110=EDGE_LOOP('',(#164,#165,#166));
#111=EDGE_LOOP('',(#167,#168,#169));
#112=EDGE_LOOP('',(#170,#171,#172,#173));
#113=EDGE_LOOP('',(#174,#175));
#114=EDGE_LOOP('',(#176,#177));
#115=EDGE_LOOP('',(#178,#179,#180,#181));
#116=EDGE_LOOP('',(#182,#183,#184,#185,#186,#187,#188,#189));
#117=EDGE_LOOP('',(#190,#191));
#118=EDGE_LOOP('',(#192,#193,#194,#195));
#119=EDGE_LOOP('',(#196,#197,#198,#199));
#120=EDGE_LOOP('',(#200,#201));
#121=EDGE_LOOP('',(#202,#203,#204));
#122=EDGE_LOOP('',(#205,#206,#207,#208));
#123=EDGE_LOOP('',(#209,#210));
#124=EDGE_LOOP('',(#211,#212,#213,#214));
#125=EDGE_LOOP('',(#215,#216,#217));
#126=CIRCLE('',#309,16.35);
#127=CIRCLE('',#310,16.35);
#128=CIRCLE('',#312,19.6920669466903);
#129=CIRCLE('',#314,20.);
#130=CIRCLE('',#315,20.);
#131=CIRCLE('',#317,18.5);
#132=CIRCLE('',#319,10.);
#133=CIRCLE('',#321,10.);
#134=CIRCLE('',#324,20.);
#135=CIRCLE('',#325,19.6920669466903);
#136=CIRCLE('',#327,20.);
#137=CIRCLE('',#328,18.5);
#138=CIRCLE('',#332,16.35);
#139=CIRCLE('',#334,16.35);
#140=CIRCLE('',#337,17.5);
#141=CIRCLE('',#339,17.5);
#142=CIRCLE('',#341,17.5);
#143=CIRCLE('',#343,17.5);
#144=ORIENTED_EDGE('',*,*,#241,.F.);
#145=ORIENTED_EDGE('',*,*,#242,.T.);
#146=ORIENTED_EDGE('',*,*,#243,.F.);
#147=ORIENTED_EDGE('',*,*,#244,.F.);
#148=ORIENTED_EDGE('',*,*,#245,.F.);
#149=ORIENTED_EDGE('',*,*,#246,.T.);
#150=ORIENTED_EDGE('',*,*,#247,.F.);
#151=ORIENTED_EDGE('',*,*,#242,.F.);
#152=ORIENTED_EDGE('',*,*,#248,.F.);
#153=ORIENTED_EDGE('',*,*,#249,.T.);
#154=ORIENTED_EDGE('',*,*,#250,.F.);
#155=ORIENTED_EDGE('',*,*,#251,.F.);
#156=ORIENTED_EDGE('',*,*,#252,.F.);
#157=ORIENTED_EDGE('',*,*,#253,.T.);
#158=ORIENTED_EDGE('',*,*,#254,.T.);
#159=ORIENTED_EDGE('',*,*,#255,.T.);
#160=ORIENTED_EDGE('',*,*,#256,.F.);
#161=ORIENTED_EDGE('',*,*,#257,.T.);
#162=ORIENTED_EDGE('',*,*,#258,.F.);
#163=ORIENTED_EDGE('',*,*,#249,.F.);
#164=ORIENTED_EDGE('',*,*,#259,.F.);
#165=ORIENTED_EDGE('',*,*,#260,.F.);
#166=ORIENTED_EDGE('',*,*,#253,.F.);
#167=ORIENTED_EDGE('',*,*,#255,.F.);
#168=ORIENTED_EDGE('',*,*,#261,.F.);
#169=ORIENTED_EDGE('',*,*,#262,.F.);
#170=ORIENTED_EDGE('',*,*,#263,.F.);
#171=ORIENTED_EDGE('',*,*,#261,.T.);
#172=ORIENTED_EDGE('',*,*,#254,.F.);
#173=ORIENTED_EDGE('',*,*,#260,.T.);
#174=ORIENTED_EDGE('',*,*,#251,.T.);
#175=ORIENTED_EDGE('',*,*,#264,.T.);
#176=ORIENTED_EDGE('',*,*,#246,.F.);
#177=ORIENTED_EDGE('',*,*,#265,.F.);
#178=ORIENTED_EDGE('',*,*,#256,.T.);
#179=ORIENTED_EDGE('',*,*,#266,.F.);
#180=ORIENTED_EDGE('',*,*,#258,.T.);
#181=ORIENTED_EDGE('',*,*,#267,.T.);
#182=ORIENTED_EDGE('',*,*,#248,.T.);
#183=ORIENTED_EDGE('',*,*,#262,.T.);
#184=ORIENTED_EDGE('',*,*,#263,.T.);
#185=ORIENTED_EDGE('',*,*,#259,.T.);
#186=ORIENTED_EDGE('',*,*,#252,.T.);
#187=ORIENTED_EDGE('',*,*,#264,.F.);
#188=ORIENTED_EDGE('',*,*,#250,.T.);
#189=ORIENTED_EDGE('',*,*,#266,.T.);
#190=ORIENTED_EDGE('',*,*,#257,.F.);
#191=ORIENTED_EDGE('',*,*,#267,.F.);
#192=ORIENTED_EDGE('',*,*,#245,.T.);
#193=ORIENTED_EDGE('',*,*,#268,.F.);
#194=ORIENTED_EDGE('',*,*,#247,.T.);
#195=ORIENTED_EDGE('',*,*,#265,.T.);
#196=ORIENTED_EDGE('',*,*,#241,.T.);
#197=ORIENTED_EDGE('',*,*,#269,.F.);
#198=ORIENTED_EDGE('',*,*,#243,.T.);
#199=ORIENTED_EDGE('',*,*,#268,.T.);
#200=ORIENTED_EDGE('',*,*,#244,.T.);
#201=ORIENTED_EDGE('',*,*,#269,.T.);
#202=ORIENTED_EDGE('',*,*,#270,.F.);
#203=ORIENTED_EDGE('',*,*,#271,.F.);
#204=ORIENTED_EDGE('',*,*,#272,.T.);
#205=ORIENTED_EDGE('',*,*,#273,.F.);
#206=ORIENTED_EDGE('',*,*,#274,.T.);
#207=ORIENTED_EDGE('',*,*,#275,.F.);
#208=ORIENTED_EDGE('',*,*,#272,.F.);
#209=ORIENTED_EDGE('',*,*,#274,.F.);
#210=ORIENTED_EDGE('',*,*,#276,.F.);
#211=ORIENTED_EDGE('',*,*,#273,.T.);
#212=ORIENTED_EDGE('',*,*,#277,.F.);
#213=ORIENTED_EDGE('',*,*,#275,.T.);
#214=ORIENTED_EDGE('',*,*,#276,.T.);
#215=ORIENTED_EDGE('',*,*,#270,.T.);
#216=ORIENTED_EDGE('',*,*,#277,.T.);
#217=ORIENTED_EDGE('',*,*,#271,.T.);
#218=VERTEX_POINT('',#439);
#219=VERTEX_POINT('',#440);
#220=VERTEX_POINT('',#442);
#221=VERTEX_POINT('',#444);
#222=VERTEX_POINT('',#448);
#223=VERTEX_POINT('',#450);
#224=VERTEX_POINT('',#454);
#225=VERTEX_POINT('',#455);
#226=VERTEX_POINT('',#457);
#227=VERTEX_POINT('',#459);
#228=VERTEX_POINT('',#461);
#229=VERTEX_POINT('',#463);
#230=VERTEX_POINT('',#468);
#231=VERTEX_POINT('',#470);
#232=VERTEX_POINT('',#477);
#233=VERTEX_POINT('',#479);
#234=VERTEX_POINT('',#486);
#235=VERTEX_POINT('',#490);
#236=VERTEX_POINT('',#512);
#237=VERTEX_POINT('',#513);
#238=VERTEX_POINT('',#515);
#239=VERTEX_POINT('',#519);
#240=VERTEX_POINT('',#521);
#241=EDGE_CURVE('',#218,#219,#278,.T.);
#242=EDGE_CURVE('',#218,#220,#126,.T.);
#243=EDGE_CURVE('',#221,#220,#279,.T.);
#244=EDGE_CURVE('',#219,#221,#127,.T.);
#245=EDGE_CURVE('',#222,#218,#280,.T.);
#246=EDGE_CURVE('',#222,#223,#128,.T.);
#247=EDGE_CURVE('',#220,#223,#281,.T.);
#248=EDGE_CURVE('',#224,#225,#282,.T.);
#249=EDGE_CURVE('',#224,#226,#129,.T.);
#250=EDGE_CURVE('',#227,#226,#283,.T.);
#251=EDGE_CURVE('',#228,#227,#130,.T.);
#252=EDGE_CURVE('',#229,#228,#284,.T.);
#253=EDGE_CURVE('',#229,#230,#51,.T.);
#254=EDGE_CURVE('',#230,#231,#285,.T.);
#255=EDGE_CURVE('',#231,#225,#52,.T.);
#256=EDGE_CURVE('',#232,#224,#286,.T.);
#257=EDGE_CURVE('',#232,#233,#131,.T.);
#258=EDGE_CURVE('',#226,#233,#287,.T.);
#259=EDGE_CURVE('',#234,#229,#53,.T.);
#260=EDGE_CURVE('',#230,#234,#132,.T.);
#261=EDGE_CURVE('',#235,#231,#133,.T.);
#262=EDGE_CURVE('',#225,#235,#54,.T.);
#263=EDGE_CURVE('',#235,#234,#288,.T.);
#264=EDGE_CURVE('',#227,#228,#134,.T.);
#265=EDGE_CURVE('',#223,#222,#135,.T.);
#266=EDGE_CURVE('',#226,#224,#136,.T.);
#267=EDGE_CURVE('',#233,#232,#137,.T.);
#268=EDGE_CURVE('',#220,#218,#138,.T.);
#269=EDGE_CURVE('',#221,#219,#139,.T.);
#270=EDGE_CURVE('',#236,#237,#289,.T.);
#271=EDGE_CURVE('',#238,#236,#290,.T.);
#272=EDGE_CURVE('',#238,#237,#140,.T.);
#273=EDGE_CURVE('',#239,#238,#291,.T.);
#274=EDGE_CURVE('',#239,#240,#141,.T.);
#275=EDGE_CURVE('',#237,#240,#292,.T.);
#276=EDGE_CURVE('',#240,#239,#142,.T.);
#277=EDGE_CURVE('',#237,#238,#143,.T.);
#278=LINE('',#438,#293);
#279=LINE('',#443,#294);
#280=LINE('',#447,#295);
#281=LINE('',#451,#296);
#282=LINE('',#453,#297);
#283=LINE('',#458,#298);
#284=LINE('',#462,#299);
#285=LINE('',#469,#300);
#286=LINE('',#476,#301);
#287=LINE('',#480,#302);
#288=LINE('',#496,#303);
#289=LINE('',#511,#304);
#290=LINE('',#514,#305);
#291=LINE('',#518,#306);
#292=LINE('',#522,#307);
#293=VECTOR('',#348,1.);
#294=VECTOR('',#351,1.);
#295=VECTOR('',#356,1.);
#296=VECTOR('',#359,1.);
#297=VECTOR('',#362,1.);
#298=VECTOR('',#365,1.);
#299=VECTOR('',#368,1.);
#300=VECTOR('',#369,1.);
#301=VECTOR('',#372,1.);
#302=VECTOR('',#375,1.);
#303=VECTOR('',#386,1.);
#304=VECTOR('',#415,1.);
#305=VECTOR('',#416,1.);
#306=VECTOR('',#421,1.);
#307=VECTOR('',#424,1.);
#308=AXIS2_PLACEMENT_3D('',#437,#346,#347);
#309=AXIS2_PLACEMENT_3D('',#441,#349,#350);
#310=AXIS2_PLACEMENT_3D('',#445,#352,#353);
#311=AXIS2_PLACEMENT_3D('',#446,#354,#355);
#312=AXIS2_PLACEMENT_3D('',#449,#357,#358);
#313=AXIS2_PLACEMENT_3D('',#452,#360,#361);
#314=AXIS2_PLACEMENT_3D('',#456,#363,#364);
#315=AXIS2_PLACEMENT_3D('',#460,#366,#367);
#316=AXIS2_PLACEMENT_3D('',#475,#370,#371);
#317=AXIS2_PLACEMENT_3D('',#478,#373,#374);
#318=AXIS2_PLACEMENT_3D('',#481,#376,#377);
#319=AXIS2_PLACEMENT_3D('',#487,#378,#379);
#320=AXIS2_PLACEMENT_3D('',#488,#380,#381);
#321=AXIS2_PLACEMENT_3D('',#489,#382,#383);
#322=AXIS2_PLACEMENT_3D('',#495,#384,#385);
#323=AXIS2_PLACEMENT_3D('',#497,#387,#388);
#324=AXIS2_PLACEMENT_3D('',#498,#389,#390);
#325=AXIS2_PLACEMENT_3D('',#499,#391,#392);
#326=AXIS2_PLACEMENT_3D('',#500,#393,#394);
#327=AXIS2_PLACEMENT_3D('',#501,#395,#396);
#328=AXIS2_PLACEMENT_3D('',#502,#397,#398);
#329=AXIS2_PLACEMENT_3D('',#503,#399,#400);
#330=AXIS2_PLACEMENT_3D('',#504,#401,#402);
#331=AXIS2_PLACEMENT_3D('',#505,#403,#404);
#332=AXIS2_PLACEMENT_3D('',#506,#405,#406);
#333=AXIS2_PLACEMENT_3D('',#507,#407,#408);
#334=AXIS2_PLACEMENT_3D('',#508,#409,#410);
#335=AXIS2_PLACEMENT_3D('',#509,#411,#412);
#336=AXIS2_PLACEMENT_3D('',#510,#413,#414);
#337=AXIS2_PLACEMENT_3D('',#516,#417,#418);
#338=AXIS2_PLACEMENT_3D('',#517,#419,#420);
#339=AXIS2_PLACEMENT_3D('',#520,#422,#423);
#340=AXIS2_PLACEMENT_3D('',#523,#425,#426);
#341=AXIS2_PLACEMENT_3D('',#524,#427,#428);
#342=AXIS2_PLACEMENT_3D('',#525,#429,#430);
#343=AXIS2_PLACEMENT_3D('',#526,#431,#432);
#344=AXIS2_PLACEMENT_3D('',#527,#433,#434);
#345=AXIS2_PLACEMENT_3D('',#528,#435,#436);
#346=DIRECTION('',(0.,0.,1.));
#347=DIRECTION('',(1.,0.,0.));
#348=DIRECTION('',(0.,0.,-1.));
#349=DIRECTION('',(0.,0.,-1.));
#350=DIRECTION('',(0.,1.,0.));
#351=DIRECTION('',(0.,0.,1.));
#352=DIRECTION('',(0.,0.,-1.));
#353=DIRECTION('',(0.,1.,0.));
#354=DIRECTION('',(0.,0.,1.));
#355=DIRECTION('',(0.,1.,0.));
#356=DIRECTION('',(1.06731476340891E-017,-0.0871557427476581,-0.996194698091746));
#357=DIRECTION('',(0.,0.,-1.));
#358=DIRECTION('',(0.,1.,0.));
#359=DIRECTION('',(1.06731476340891E-017,-0.0871557427476581,0.996194698091746));
#360=DIRECTION('',(0.,0.,1.));
#361=DIRECTION('',(0.,1.,3.94592768319027E-016));
#362=DIRECTION('',(0.,0.,-1.));
#363=DIRECTION('',(0.,0.,-1.));
#364=DIRECTION('',(0.,1.,0.));
#365=DIRECTION('',(0.,0.,1.));
#366=DIRECTION('',(0.,0.,-1.));
#367=DIRECTION('',(0.,1.,0.));
#368=DIRECTION('',(0.,0.,-1.));
#369=DIRECTION('',(0.,0.,1.));
#370=DIRECTION('',(0.,0.,1.));
#371=DIRECTION('',(0.,1.,0.));
#372=DIRECTION('',(-8.65927457071935E-017,0.707106781186547,-0.707106781186547));
#373=DIRECTION('',(0.,0.,-1.));
#374=DIRECTION('',(0.,1.,0.));
#375=DIRECTION('',(-8.65927457071935E-017,0.707106781186547,0.707106781186547));
#376=DIRECTION('',(0.,0.,-1.));
#377=DIRECTION('',(0.,1.,-2.78696069846654E-017));
#378=DIRECTION('',(0.,1.,0.));
#379=DIRECTION('',(0.99999999999,0.,-4.47214408422214E-006));
#380=DIRECTION('',(0.,-1.,0.));
#381=DIRECTION('',(0.99999999999,0.,-4.47214408422214E-006));
#382=DIRECTION('',(0.,1.,0.));
#383=DIRECTION('',(-0.99999999999,0.,4.4721440838752E-006));
#384=DIRECTION('',(0.,-1.,0.));
#385=DIRECTION('',(-0.99999999999,0.,4.4721440838752E-006));
#386=DIRECTION('',(0.,0.,-1.));
#387=DIRECTION('',(0.,1.,0.));
#388=DIRECTION('',(0.,0.,-1.));
#389=DIRECTION('',(0.,0.,-1.));
#390=DIRECTION('',(0.,1.,0.));
#391=DIRECTION('',(0.,0.,-1.));
#392=DIRECTION('',(0.,1.,0.));
#393=DIRECTION('',(0.,0.,-1.));
#394=DIRECTION('',(0.,1.,0.));
#395=DIRECTION('',(0.,0.,-1.));
#396=DIRECTION('',(0.,1.,0.));
#397=DIRECTION('',(0.,0.,-1.));
#398=DIRECTION('',(0.,1.,0.));
#399=DIRECTION('',(0.,0.,-1.));
#400=DIRECTION('',(0.,1.,-2.78696069846654E-017));
#401=DIRECTION('',(0.,0.,1.));
#402=DIRECTION('',(0.,1.,0.));
#403=DIRECTION('',(0.,0.,1.));
#404=DIRECTION('',(0.,-1.,0.));
#405=DIRECTION('',(0.,0.,-1.));
#406=DIRECTION('',(0.,1.,0.));
#407=DIRECTION('',(0.,0.,1.));
#408=DIRECTION('',(0.,1.,3.94592768319027E-016));
#409=DIRECTION('',(0.,0.,-1.));
#410=DIRECTION('',(0.,1.,0.));
#411=DIRECTION('',(0.,0.,1.));
#412=DIRECTION('',(0.,1.,0.));
#413=DIRECTION('',(0.,0.,-1.));
#414=DIRECTION('',(0.,1.,0.));
#415=DIRECTION('',(1.15075355405442E-016,-0.939692620785907,0.342020143325671));
#416=DIRECTION('',(1.15075355405442E-016,-0.939692620785907,-0.342020143325671));
#417=DIRECTION('',(0.,0.,-1.));
#418=DIRECTION('',(0.,1.,0.));
#419=DIRECTION('',(0.,0.,1.));
#420=DIRECTION('',(0.,1.,1.00701326094205E-017));
#421=DIRECTION('',(0.,0.,-1.));
#422=DIRECTION('',(0.,0.,-1.));
#423=DIRECTION('',(0.,1.,0.));
#424=DIRECTION('',(0.,0.,1.));
#425=DIRECTION('',(0.,0.,1.));
#426=DIRECTION('',(0.,1.,0.));
#427=DIRECTION('',(0.,0.,-1.));
#428=DIRECTION('',(0.,1.,0.));
#429=DIRECTION('',(0.,0.,1.));
#430=DIRECTION('',(0.,-1.,0.));
#431=DIRECTION('',(0.,0.,-1.));
#432=DIRECTION('',(0.,1.,0.));
#433=DIRECTION('',(0.,0.,1.));
#434=DIRECTION('',(0.,1.,0.));
#435=DIRECTION('',(0.,0.,1.));
#436=DIRECTION('',(0.,1.,1.00701326094205E-017));
#437=CARTESIAN_POINT('',(0.,0.,0.));
#438=CARTESIAN_POINT('',(-2.00223138849959E-015,16.35,-153.284739549829));
#439=CARTESIAN_POINT('',(0.,16.35,-108.2));
#440=CARTESIAN_POINT('',(0.,16.35,-198.369479099659));
#441=CARTESIAN_POINT('',(0.,0.,-108.2));
#442=CARTESIAN_POINT('',(2.00223138849959E-015,-16.35,-108.2));
#443=CARTESIAN_POINT('',(2.00223138849959E-015,-16.35,-153.284739549829));
#444=CARTESIAN_POINT('',(2.00223138849959E-015,-16.35,-198.369479099659));
#445=CARTESIAN_POINT('',(0.,0.,-198.369479099659));
#446=CARTESIAN_POINT('',(0.,0.,-153.284739549829));
#447=CARTESIAN_POINT('',(-2.20686720939042E-015,18.0210334733451,-89.1));
#448=CARTESIAN_POINT('',(0.,19.6920669466903,-70.));
#449=CARTESIAN_POINT('',(0.,0.,-70.));
#450=CARTESIAN_POINT('',(2.41150303028126E-015,-19.6920669466903,-70.));
#451=CARTESIAN_POINT('',(2.20686720939042E-015,-18.0210334733451,-89.1));
#452=CARTESIAN_POINT('',(0.,0.,-89.1));
#453=CARTESIAN_POINT('',(-2.44921270764475E-015,20.,-35.75));
#454=CARTESIAN_POINT('',(0.,20.,-1.5));
#455=CARTESIAN_POINT('',(-2.69123373759783E-015,20.,-6.0000447214408));
#456=CARTESIAN_POINT('',(0.,0.,-1.5));
#457=CARTESIAN_POINT('',(2.44921270764475E-015,-20.,-1.5));
#458=CARTESIAN_POINT('',(2.44921270764475E-015,-20.,-35.75));
#459=CARTESIAN_POINT('',(2.44921270764475E-015,-20.,-70.));
#460=CARTESIAN_POINT('',(0.,0.,-70.));
#461=CARTESIAN_POINT('',(0.,20.,-70.));
#462=CARTESIAN_POINT('',(-2.44921270764475E-015,20.,-35.75));
#463=CARTESIAN_POINT('',(-2.60796701075094E-015,20.,-65.9999552785592));
#464=CARTESIAN_POINT('',(-2.76672131385713E-015,20.,-65.9999552785592));
#465=CARTESIAN_POINT('',(2.9559829714624,20.,-65.9999552785592));
#466=CARTESIAN_POINT('',(5.74585257162094,19.2613676100257,-64.6669246301709));
#467=CARTESIAN_POINT('',(7.59934207678534,18.5,-62.4999552785592));
#468=CARTESIAN_POINT('',(7.59934207678534,18.5,-62.4999552785592));
#469=CARTESIAN_POINT('',(7.59934207678533,18.5,-36.));
#470=CARTESIAN_POINT('',(7.59934207678534,18.5,-9.5000447214408));
#471=CARTESIAN_POINT('',(7.59934207678534,18.5,-9.50004472144081));
#472=CARTESIAN_POINT('',(5.74475459437026,19.2618186319025,-7.33179169217983));
#473=CARTESIAN_POINT('',(2.9585558941637,20.,-6.0000447214408));
#474=CARTESIAN_POINT('',(-2.9479690842411E-015,20.,-6.0000447214408));
#475=CARTESIAN_POINT('',(0.,0.,-35.75));
#476=CARTESIAN_POINT('',(-2.35736723110808E-015,19.25,-0.75));
#477=CARTESIAN_POINT('',(0.,18.5,0.));
#478=CARTESIAN_POINT('',(0.,0.,0.));
#479=CARTESIAN_POINT('',(2.2655217545714E-015,-18.5,0.));
#480=CARTESIAN_POINT('',(2.35736723110808E-015,-19.25,-0.75));
#481=CARTESIAN_POINT('',(0.,0.,-0.75));
#482=CARTESIAN_POINT('',(-7.59934207678534,18.5,-62.4999552785592));
#483=CARTESIAN_POINT('',(-5.74475459437026,19.2618186319025,-64.6682083078202));
#484=CARTESIAN_POINT('',(-2.95855589416371,20.,-65.9999552785592));
#485=CARTESIAN_POINT('',(-8.54907780265228E-016,20.,-65.9999552785592));
#486=CARTESIAN_POINT('',(-7.59934207678534,18.5,-62.4999552785592));
#487=CARTESIAN_POINT('',(-1.77635683940025E-015,18.5,-55.9999552785592));
#488=CARTESIAN_POINT('',(-1.77635683940025E-015,18.5,-55.9999552785592));
#489=CARTESIAN_POINT('',(1.77635683940025E-015,18.5,-16.0000447214408));
#490=CARTESIAN_POINT('',(-7.59934207678533,18.5,-9.5000447214408));
#491=CARTESIAN_POINT('',(-2.93325476755092E-015,20.,-6.0000447214408));
#492=CARTESIAN_POINT('',(-2.9559829714624,20.,-6.0000447214408));
#493=CARTESIAN_POINT('',(-5.74585257162095,19.2613676100257,-7.33307536982914));
#494=CARTESIAN_POINT('',(-7.59934207678534,18.5,-9.50004472144081));
#495=CARTESIAN_POINT('',(1.77635683940025E-015,18.5,-16.0000447214408));
#496=CARTESIAN_POINT('',(-7.59934207678533,18.5,-36.));
#497=CARTESIAN_POINT('',(8.88178419700125E-016,18.5,-36.));
#498=CARTESIAN_POINT('',(0.,0.,-70.));
#499=CARTESIAN_POINT('',(0.,0.,-70.));
#500=CARTESIAN_POINT('',(0.,10.,-70.));
#501=CARTESIAN_POINT('',(0.,0.,-1.5));
#502=CARTESIAN_POINT('',(0.,0.,0.));
#503=CARTESIAN_POINT('',(0.,0.,-0.75));
#504=CARTESIAN_POINT('',(0.,0.,-35.75));
#505=CARTESIAN_POINT('',(0.,9.25,0.));
#506=CARTESIAN_POINT('',(0.,0.,-108.2));
#507=CARTESIAN_POINT('',(0.,0.,-89.1));
#508=CARTESIAN_POINT('',(0.,0.,-198.369479099659));
#509=CARTESIAN_POINT('',(0.,0.,-153.284739549829));
#510=CARTESIAN_POINT('',(0.,8.175,-198.369479099659));
#511=CARTESIAN_POINT('',(1.07153055959458E-015,-8.75,-218.184739549829));
#512=CARTESIAN_POINT('',(0.,0.,-221.369479099659));
#513=CARTESIAN_POINT('',(2.14306111918916E-015,-17.5,-215.));
#514=CARTESIAN_POINT('',(-1.07153055959458E-015,8.75,-218.184739549829));
#515=CARTESIAN_POINT('',(0.,17.5,-215.));
#516=CARTESIAN_POINT('',(0.,0.,-215.));
#517=CARTESIAN_POINT('',(0.,0.,-218.184739549829));
#518=CARTESIAN_POINT('',(-2.14306111918916E-015,17.5,-206.684739549829));
#519=CARTESIAN_POINT('',(0.,17.5,-198.369479099659));
#520=CARTESIAN_POINT('',(0.,0.,-198.369479099659));
#521=CARTESIAN_POINT('',(2.14306111918916E-015,-17.5,-198.369479099659));
#522=CARTESIAN_POINT('',(2.14306111918916E-015,-17.5,-206.684739549829));
#523=CARTESIAN_POINT('',(0.,0.,-206.684739549829));
#524=CARTESIAN_POINT('',(0.,0.,-198.369479099659));
#525=CARTESIAN_POINT('',(0.,8.75,-198.369479099659));
#526=CARTESIAN_POINT('',(0.,0.,-215.));
#527=CARTESIAN_POINT('',(0.,0.,-206.684739549829));
#528=CARTESIAN_POINT('',(0.,0.,-218.184739549829));
#529=MECHANICAL_DESIGN_GEOMETRIC_PRESENTATION_REPRESENTATION('',(#24,#25),
#530);
#530=(
GEOMETRIC_REPRESENTATION_CONTEXT(3)
GLOBAL_UNCERTAINTY_ASSIGNED_CONTEXT((#531))
GLOBAL_UNIT_ASSIGNED_CONTEXT((#537,#533,#532))
REPRESENTATION_CONTEXT('SMDH350M-SMDT3500_stp','TOP_LEVEL_ASSEMBLY_PART')
);
#531=UNCERTAINTY_MEASURE_WITH_UNIT(LENGTH_MEASURE(0.0508),#537,
'DISTANCE_ACCURACY_VALUE','Maximum Tolerance applied to model');
#532=(
NAMED_UNIT(*)
SI_UNIT($,.STERADIAN.)
SOLID_ANGLE_UNIT()
);
#533=(
CONVERSION_BASED_UNIT('DEGREE',#535)
NAMED_UNIT(#534)
PLANE_ANGLE_UNIT()
);
#534=DIMENSIONAL_EXPONENTS(0.,0.,0.,0.,0.,0.,0.);
#535=PLANE_ANGLE_MEASURE_WITH_UNIT(PLANE_ANGLE_MEASURE(0.0174532925),#536);
#536=(
NAMED_UNIT(*)
PLANE_ANGLE_UNIT()
SI_UNIT($,.RADIAN.)
);
#537=(
LENGTH_UNIT()
NAMED_UNIT(*)
SI_UNIT(.MILLI.,.METRE.)
);
ENDSEC;
END-ISO-10303-21;
