ISO-10303-21;
HEADER;
/* Generated by software containing ST-Developer
 * from STEP Tools, Inc. (www.steptools.com) 
 */
/* OPTION: using custom schema-name function */

FILE_DESCRIPTION(
/* description */ ('C1101'),
/* implementation_level */ '2;1');

FILE_NAME(
/* name */ 'CAPP~~240521111259~C1101~MOD~TM01_00~ISO~FR.STP',
/* time_stamp */ '2024-05-21T11:18:43+02:00',
/* author */ ('System'),
/* organization */ ('Dormer Pramet'),
/* preprocessor_version */ 'ST-DEVELOPER v16.7',
/* originating_system */ 'SIEMENS PLM Software NX 12.0',
/* authorisation */ '');

FILE_SCHEMA (('AUTOMOTIVE_DESIGN { 1 0 10303 214 3 1 1 1 }'));
ENDSEC;

DATA;
#10=CONSTRUCTIVE_GEOMETRY_REPRESENTATION_RELATIONSHIP(
'supplemental geometry','',#26,#11);
#11=CONSTRUCTIVE_GEOMETRY_REPRESENTATION('supplemental geometry',(#264,
#265,#266),#441);
#12=GEOMETRICALLY_BOUNDED_WIREFRAME_SHAPE_REPRESENTATION(
'CAPP~~240521111259~C1101~MOD~TM01_00~ISO~FR-None',(#27),#441);
#13=SHAPE_REPRESENTATION_RELATIONSHIP('None',
'relationship between CAPP~~240521111259~C1101~MOD~TM01_00~ISO~FR-None
 and CAPP~~240521111259~C1101~MOD~TM01_00~ISO~FR-None',#26,#15);
#14=SHAPE_REPRESENTATION_RELATIONSHIP('None',
'relationship between CAPP~~240521111259~C1101~MOD~TM01_00~ISO~FR-None
 and CAPP~~240521111259~C1101~MOD~TM01_00~ISO~FR-None',#26,#12);
#15=ADVANCED_BREP_SHAPE_REPRESENTATION(
'CAPP~~240521111259~C1101~MOD~TM01_00~ISO~FR-None',(#61,#62),#441);
#16=SHAPE_DEFINITION_REPRESENTATION(#17,#26);
#17=PRODUCT_DEFINITION_SHAPE('','',#18);
#18=PRODUCT_DEFINITION(' ','',#20,#19);
#19=PRODUCT_DEFINITION_CONTEXT('part definition',#25,'design');
#20=PRODUCT_DEFINITION_FORMATION_WITH_SPECIFIED_SOURCE(' ',' ',#22,
 .NOT_KNOWN.);
#21=PRODUCT_RELATED_PRODUCT_CATEGORY('part','',(#22));
#22=PRODUCT('CAPP~~240521111259~C1101~MOD~TM01_00~ISO~FR',
'CAPP~~240521111259~C1101~MOD~TM01_00~ISO~FR',' ',(#23));
#23=PRODUCT_CONTEXT(' ',#25,'mechanical');
#24=APPLICATION_PROTOCOL_DEFINITION('international standard',
'automotive_design',2010,#25);
#25=APPLICATION_CONTEXT(
'core data for automotive mechanical design processes');
#26=SHAPE_REPRESENTATION(
'CAPP~~240521111259~C1101~MOD~TM01_00~ISO~FR-None',(#263),#441);
#27=GEOMETRIC_CURVE_SET('None',(#368,#239));
#28=TOROIDAL_SURFACE('',#286,13.85,1.6);
#29=TOROIDAL_SURFACE('',#288,13.25,1.);
#30=CONICAL_SURFACE('',#279,12.5,45.);
#31=CONICAL_SURFACE('',#285,12.5,30.0000000000003);
#32=ELLIPSE('',#272,17.6776695296636,12.5);
#33=ELLIPSE('',#274,17.6776695296635,12.5);
#34=ELLIPSE('',#275,17.6776695296636,12.5);
#35=LINE('',#386,#43);
#36=LINE('',#391,#44);
#37=LINE('',#397,#45);
#38=LINE('',#401,#46);
#39=LINE('',#417,#47);
#40=LINE('',#432,#48);
#41=LINE('',#435,#49);
#42=LINE('',#437,#50);
#43=VECTOR('',#313,1.);
#44=VECTOR('',#316,1.);
#45=VECTOR('',#321,1.);
#46=VECTOR('',#324,1.);
#47=VECTOR('',#333,1.);
#48=VECTOR('',#354,1.);
#49=VECTOR('',#359,1.);
#50=VECTOR('',#362,1.);
#51=SURFACE_STYLE_USAGE(.BOTH.,#53);
#52=SURFACE_STYLE_USAGE(.BOTH.,#54);
#53=SURFACE_SIDE_STYLE('',(#55));
#54=SURFACE_SIDE_STYLE('',(#56));
#55=SURFACE_STYLE_FILL_AREA(#57);
#56=SURFACE_STYLE_FILL_AREA(#58);
#57=FILL_AREA_STYLE('',(#59));
#58=FILL_AREA_STYLE('',(#60));
#59=FILL_AREA_STYLE_COLOUR('',#261);
#60=FILL_AREA_STYLE_COLOUR('',#262);
#61=MANIFOLD_SOLID_BREP('CUT',#63);
#62=MANIFOLD_SOLID_BREP('NOCUT',#64);
#63=CLOSED_SHELL('',(#81,#82,#83));
#64=CLOSED_SHELL('',(#84,#85,#86,#87,#88,#89,#90,#91,#92,#93,#94,#95,#96));
#65=CYLINDRICAL_SURFACE('',#271,12.7);
#66=CYLINDRICAL_SURFACE('',#277,12.5);
#67=CYLINDRICAL_SURFACE('',#283,12.25);
#68=FACE_BOUND('',#118,.T.);
#69=FACE_BOUND('',#119,.T.);
#70=FACE_BOUND('',#120,.T.);
#71=FACE_BOUND('',#121,.T.);
#72=FACE_BOUND('',#122,.T.);
#73=FACE_BOUND('',#125,.T.);
#74=FACE_BOUND('',#126,.T.);
#75=FACE_BOUND('',#127,.T.);
#76=FACE_BOUND('',#128,.T.);
#77=FACE_BOUND('',#129,.T.);
#78=FACE_BOUND('',#130,.T.);
#79=FACE_BOUND('',#131,.T.);
#80=FACE_BOUND('',#132,.T.);
#81=ADVANCED_FACE('',(#106),#97,.F.);
#82=ADVANCED_FACE('',(#107),#98,.T.);
#83=ADVANCED_FACE('',(#68,#69),#65,.T.);
#84=ADVANCED_FACE('',(#70,#71,#72),#66,.T.);
#85=ADVANCED_FACE('',(#108),#30,.T.);
#86=ADVANCED_FACE('',(#109),#99,.T.);
#87=ADVANCED_FACE('',(#73,#74),#67,.T.);
#88=ADVANCED_FACE('',(#75,#76),#31,.T.);
#89=ADVANCED_FACE('',(#77,#78),#28,.F.);
#90=ADVANCED_FACE('',(#79,#80),#29,.F.);
#91=ADVANCED_FACE('',(#110),#100,.T.);
#92=ADVANCED_FACE('',(#111),#101,.F.);
#93=ADVANCED_FACE('',(#112),#102,.F.);
#94=ADVANCED_FACE('',(#113),#103,.F.);
#95=ADVANCED_FACE('',(#114),#104,.F.);
#96=ADVANCED_FACE('',(#115),#105,.F.);
#97=PLANE('',#268);
#98=PLANE('',#270);
#99=PLANE('',#280);
#100=PLANE('',#289);
#101=PLANE('',#290);
#102=PLANE('',#291);
#103=PLANE('',#292);
#104=PLANE('',#293);
#105=PLANE('',#294);
#106=FACE_OUTER_BOUND('',#116,.T.);
#107=FACE_OUTER_BOUND('',#117,.T.);
#108=FACE_OUTER_BOUND('',#123,.T.);
#109=FACE_OUTER_BOUND('',#124,.T.);
#110=FACE_OUTER_BOUND('',#133,.T.);
#111=FACE_OUTER_BOUND('',#134,.T.);
#112=FACE_OUTER_BOUND('',#135,.T.);
#113=FACE_OUTER_BOUND('',#136,.T.);
#114=FACE_OUTER_BOUND('',#137,.T.);
#115=FACE_OUTER_BOUND('',#138,.T.);
#116=EDGE_LOOP('',(#139));
#117=EDGE_LOOP('',(#140));
#118=EDGE_LOOP('',(#141));
#119=EDGE_LOOP('',(#142));
#120=EDGE_LOOP('',(#143,#144,#145,#146));
#121=EDGE_LOOP('',(#147,#148,#149,#150));
#122=EDGE_LOOP('',(#151));
#123=EDGE_LOOP('',(#152,#153,#154,#155));
#124=EDGE_LOOP('',(#156,#157));
#125=EDGE_LOOP('',(#158));
#126=EDGE_LOOP('',(#159));
#127=EDGE_LOOP('',(#160));
#128=EDGE_LOOP('',(#161));
#129=EDGE_LOOP('',(#162));
#130=EDGE_LOOP('',(#163));
#131=EDGE_LOOP('',(#164));
#132=EDGE_LOOP('',(#165));
#133=EDGE_LOOP('',(#166));
#134=EDGE_LOOP('',(#167,#168,#169,#170,#171,#172));
#135=EDGE_LOOP('',(#173,#174));
#136=EDGE_LOOP('',(#175,#176));
#137=EDGE_LOOP('',(#177,#178,#179,#180));
#138=EDGE_LOOP('',(#181,#182));
#139=ORIENTED_EDGE('',*,*,#200,.T.);
#140=ORIENTED_EDGE('',*,*,#201,.F.);
#141=ORIENTED_EDGE('',*,*,#201,.T.);
#142=ORIENTED_EDGE('',*,*,#200,.F.);
#143=ORIENTED_EDGE('',*,*,#202,.T.);
#144=ORIENTED_EDGE('',*,*,#203,.T.);
#145=ORIENTED_EDGE('',*,*,#204,.T.);
#146=ORIENTED_EDGE('',*,*,#205,.F.);
#147=ORIENTED_EDGE('',*,*,#206,.T.);
#148=ORIENTED_EDGE('',*,*,#207,.T.);
#149=ORIENTED_EDGE('',*,*,#208,.T.);
#150=ORIENTED_EDGE('',*,*,#209,.T.);
#151=ORIENTED_EDGE('',*,*,#210,.T.);
#152=ORIENTED_EDGE('',*,*,#205,.T.);
#153=ORIENTED_EDGE('',*,*,#211,.T.);
#154=ORIENTED_EDGE('',*,*,#212,.F.);
#155=ORIENTED_EDGE('',*,*,#213,.T.);
#156=ORIENTED_EDGE('',*,*,#214,.F.);
#157=ORIENTED_EDGE('',*,*,#212,.T.);
#158=ORIENTED_EDGE('',*,*,#215,.T.);
#159=ORIENTED_EDGE('',*,*,#216,.T.);
#160=ORIENTED_EDGE('',*,*,#217,.T.);
#161=ORIENTED_EDGE('',*,*,#210,.F.);
#162=ORIENTED_EDGE('',*,*,#217,.F.);
#163=ORIENTED_EDGE('',*,*,#216,.F.);
#164=ORIENTED_EDGE('',*,*,#215,.F.);
#165=ORIENTED_EDGE('',*,*,#218,.F.);
#166=ORIENTED_EDGE('',*,*,#218,.T.);
#167=ORIENTED_EDGE('',*,*,#219,.T.);
#168=ORIENTED_EDGE('',*,*,#202,.F.);
#169=ORIENTED_EDGE('',*,*,#213,.F.);
#170=ORIENTED_EDGE('',*,*,#214,.T.);
#171=ORIENTED_EDGE('',*,*,#211,.F.);
#172=ORIENTED_EDGE('',*,*,#204,.F.);
#173=ORIENTED_EDGE('',*,*,#219,.F.);
#174=ORIENTED_EDGE('',*,*,#203,.F.);
#175=ORIENTED_EDGE('',*,*,#220,.F.);
#176=ORIENTED_EDGE('',*,*,#208,.F.);
#177=ORIENTED_EDGE('',*,*,#220,.T.);
#178=ORIENTED_EDGE('',*,*,#207,.F.);
#179=ORIENTED_EDGE('',*,*,#221,.F.);
#180=ORIENTED_EDGE('',*,*,#209,.F.);
#181=ORIENTED_EDGE('',*,*,#206,.F.);
#182=ORIENTED_EDGE('',*,*,#221,.T.);
#183=VERTEX_POINT('',#380);
#184=VERTEX_POINT('',#383);
#185=VERTEX_POINT('',#387);
#186=VERTEX_POINT('',#388);
#187=VERTEX_POINT('',#390);
#188=VERTEX_POINT('',#392);
#189=VERTEX_POINT('',#395);
#190=VERTEX_POINT('',#396);
#191=VERTEX_POINT('',#398);
#192=VERTEX_POINT('',#400);
#193=VERTEX_POINT('',#403);
#194=VERTEX_POINT('',#409);
#195=VERTEX_POINT('',#411);
#196=VERTEX_POINT('',#420);
#197=VERTEX_POINT('',#422);
#198=VERTEX_POINT('',#425);
#199=VERTEX_POINT('',#429);
#200=EDGE_CURVE('',#183,#183,#222,.T.);
#201=EDGE_CURVE('',#184,#184,#223,.T.);
#202=EDGE_CURVE('',#185,#186,#35,.T.);
#203=EDGE_CURVE('',#186,#187,#32,.T.);
#204=EDGE_CURVE('',#187,#188,#36,.T.);
#205=EDGE_CURVE('',#185,#188,#224,.T.);
#206=EDGE_CURVE('',#189,#190,#33,.T.);
#207=EDGE_CURVE('',#190,#191,#37,.T.);
#208=EDGE_CURVE('',#191,#192,#34,.T.);
#209=EDGE_CURVE('',#192,#189,#38,.T.);
#210=EDGE_CURVE('',#193,#193,#225,.T.);
#211=EDGE_CURVE('',#188,#194,#240,.T.);
#212=EDGE_CURVE('',#195,#194,#226,.T.);
#213=EDGE_CURVE('',#195,#185,#241,.T.);
#214=EDGE_CURVE('',#195,#194,#39,.T.);
#215=EDGE_CURVE('',#196,#196,#227,.T.);
#216=EDGE_CURVE('',#197,#197,#228,.T.);
#217=EDGE_CURVE('',#198,#198,#229,.T.);
#218=EDGE_CURVE('',#199,#199,#230,.T.);
#219=EDGE_CURVE('',#187,#186,#40,.T.);
#220=EDGE_CURVE('',#192,#191,#41,.T.);
#221=EDGE_CURVE('',#189,#190,#42,.T.);
#222=CIRCLE('',#267,12.7);
#223=CIRCLE('',#269,12.7);
#224=CIRCLE('',#273,12.5);
#225=CIRCLE('',#276,12.5);
#226=CIRCLE('',#278,11.5);
#227=CIRCLE('',#281,12.25);
#228=CIRCLE('',#282,12.25);
#229=CIRCLE('',#284,12.4643593539449);
#230=CIRCLE('',#287,12.7);
#231=CURVE_STYLE('',#235,POSITIVE_LENGTH_MEASURE(0.18),#259);
#232=CURVE_STYLE('',#236,POSITIVE_LENGTH_MEASURE(0.13),#260);
#233=CURVE_STYLE('',#237,POSITIVE_LENGTH_MEASURE(0.13),#260);
#234=CURVE_STYLE('',#238,POSITIVE_LENGTH_MEASURE(0.13),#260);
#235=DRAUGHTING_PRE_DEFINED_CURVE_FONT('continuous');
#236=DRAUGHTING_PRE_DEFINED_CURVE_FONT('continuous');
#237=DRAUGHTING_PRE_DEFINED_CURVE_FONT('continuous');
#238=DRAUGHTING_PRE_DEFINED_CURVE_FONT('continuous');
#239=B_SPLINE_CURVE_WITH_KNOTS('CUTTING PART LINE',3,(#369,#370,#371,#372,
#373,#374,#375),.UNSPECIFIED.,.F.,.F.,(4,3,4),(0.,0.671826145377586,1.),
 .UNSPECIFIED.);
#240=B_SPLINE_CURVE_WITH_KNOTS('',3,(#405,#406,#407,#408),.UNSPECIFIED.,
 .F.,.F.,(4,4),(0.,1.),.UNSPECIFIED.);
#241=B_SPLINE_CURVE_WITH_KNOTS('',3,(#412,#413,#414,#415),.UNSPECIFIED.,
 .F.,.F.,(4,4),(0.,1.),.UNSPECIFIED.);
#242=PRESENTATION_LAYER_ASSIGNMENT('1','Layer 1',(#368,#239,#264,#265,#266,
#61,#62));
#243=STYLED_ITEM('',(#250),#368);
#244=STYLED_ITEM('',(#251),#239);
#245=STYLED_ITEM('',(#252),#264);
#246=STYLED_ITEM('',(#253),#265);
#247=STYLED_ITEM('',(#254),#266);
#248=STYLED_ITEM('',(#255),#61);
#249=STYLED_ITEM('',(#256),#62);
#250=PRESENTATION_STYLE_ASSIGNMENT((#257));
#251=PRESENTATION_STYLE_ASSIGNMENT((#231));
#252=PRESENTATION_STYLE_ASSIGNMENT((#232));
#253=PRESENTATION_STYLE_ASSIGNMENT((#233));
#254=PRESENTATION_STYLE_ASSIGNMENT((#234));
#255=PRESENTATION_STYLE_ASSIGNMENT((#51));
#256=PRESENTATION_STYLE_ASSIGNMENT((#52));
#257=POINT_STYLE('',#258,POSITIVE_LENGTH_MEASURE(3.),#259);
#258=PRE_DEFINED_POINT_MARKER_SYMBOL('plus');
#259=COLOUR_RGB('BLUE',0.,0.,0.998992904554818);
#260=COLOUR_RGB('Deep Lemon',1.,0.909788662546731,0.384298466468299);
#261=COLOUR_RGB('LIGHT GREY',0.8,0.8,0.8);
#262=COLOUR_RGB('GREY',0.499992370489052,0.499992370489052,0.499992370489052);
#263=AXIS2_PLACEMENT_3D('',#367,#295,#296);
#264=AXIS2_PLACEMENT_3D('PCS',#376,#297,#298);
#265=AXIS2_PLACEMENT_3D('CIP',#377,#299,#300);
#266=AXIS2_PLACEMENT_3D('MCS',#378,#301,#302);
#267=AXIS2_PLACEMENT_3D('',#379,#303,#304);
#268=AXIS2_PLACEMENT_3D('',#381,#305,#306);
#269=AXIS2_PLACEMENT_3D('',#382,#307,#308);
#270=AXIS2_PLACEMENT_3D('',#384,#309,#310);
#271=AXIS2_PLACEMENT_3D('',#385,#311,#312);
#272=AXIS2_PLACEMENT_3D('',#389,#314,#315);
#273=AXIS2_PLACEMENT_3D('',#393,#317,#318);
#274=AXIS2_PLACEMENT_3D('',#394,#319,#320);
#275=AXIS2_PLACEMENT_3D('',#399,#322,#323);
#276=AXIS2_PLACEMENT_3D('',#402,#325,#326);
#277=AXIS2_PLACEMENT_3D('',#404,#327,#328);
#278=AXIS2_PLACEMENT_3D('',#410,#329,#330);
#279=AXIS2_PLACEMENT_3D('',#416,#331,#332);
#280=AXIS2_PLACEMENT_3D('',#418,#334,#335);
#281=AXIS2_PLACEMENT_3D('',#419,#336,#337);
#282=AXIS2_PLACEMENT_3D('',#421,#338,#339);
#283=AXIS2_PLACEMENT_3D('',#423,#340,#341);
#284=AXIS2_PLACEMENT_3D('',#424,#342,#343);
#285=AXIS2_PLACEMENT_3D('',#426,#344,#345);
#286=AXIS2_PLACEMENT_3D('',#427,#346,#347);
#287=AXIS2_PLACEMENT_3D('',#428,#348,#349);
#288=AXIS2_PLACEMENT_3D('',#430,#350,#351);
#289=AXIS2_PLACEMENT_3D('',#431,#352,#353);
#290=AXIS2_PLACEMENT_3D('',#433,#355,#356);
#291=AXIS2_PLACEMENT_3D('',#434,#357,#358);
#292=AXIS2_PLACEMENT_3D('',#436,#360,#361);
#293=AXIS2_PLACEMENT_3D('',#438,#363,#364);
#294=AXIS2_PLACEMENT_3D('',#439,#365,#366);
#295=DIRECTION('',(0.,0.,1.));
#296=DIRECTION('',(1.,0.,0.));
#297=DIRECTION('',(0.,0.,1.));
#298=DIRECTION('',(1.,0.,0.));
#299=DIRECTION('',(0.,0.,1.));
#300=DIRECTION('',(1.,0.,0.));
#301=DIRECTION('',(0.,0.,1.));
#302=DIRECTION('',(1.,0.,0.));
#303=DIRECTION('',(0.,0.,1.));
#304=DIRECTION('',(1.,0.,0.));
#305=DIRECTION('',(0.,0.,-1.));
#306=DIRECTION('',(-1.,0.,0.));
#307=DIRECTION('',(0.,0.,1.));
#308=DIRECTION('',(1.,0.,0.));
#309=DIRECTION('',(0.,0.,-1.));
#310=DIRECTION('',(-1.,0.,0.));
#311=DIRECTION('',(0.,0.,1.));
#312=DIRECTION('',(1.,0.,0.));
#313=DIRECTION('',(0.,0.,-1.));
#314=DIRECTION('',(0.,-0.707106781186546,-0.707106781186549));
#315=DIRECTION('',(0.,-0.707106781186549,0.707106781186546));
#316=DIRECTION('',(0.,0.,1.));
#317=DIRECTION('',(0.,0.,1.));
#318=DIRECTION('',(1.,0.,0.));
#319=DIRECTION('',(0.,-0.707106781186542,0.707106781186553));
#320=DIRECTION('',(0.,0.707106781186553,0.707106781186542));
#321=DIRECTION('',(0.,0.,-1.));
#322=DIRECTION('',(0.,-0.707106781186546,-0.707106781186549));
#323=DIRECTION('',(0.,-0.707106781186549,0.707106781186546));
#324=DIRECTION('',(0.,0.,1.));
#325=DIRECTION('',(0.,0.,1.));
#326=DIRECTION('',(1.,0.,0.));
#327=DIRECTION('',(0.,0.,1.));
#328=DIRECTION('',(1.,0.,0.));
#329=DIRECTION('',(0.,0.,1.));
#330=DIRECTION('',(1.,0.,0.));
#331=DIRECTION('',(0.,0.,-1.));
#332=DIRECTION('',(-1.,0.,1.08580839792622E-16));
#333=DIRECTION('',(1.,0.,0.));
#334=DIRECTION('',(0.,0.,1.));
#335=DIRECTION('',(1.,0.,0.));
#336=DIRECTION('',(0.,0.,1.));
#337=DIRECTION('',(-1.,0.,0.));
#338=DIRECTION('',(0.,0.,-1.));
#339=DIRECTION('',(-1.,0.,0.));
#340=DIRECTION('',(0.,0.,1.));
#341=DIRECTION('',(1.,0.,0.));
#342=DIRECTION('',(0.,0.,1.));
#343=DIRECTION('',(1.,0.,0.));
#344=DIRECTION('',(0.,0.,1.));
#345=DIRECTION('',(1.,0.,-4.70552902413031E-17));
#346=DIRECTION('',(0.,0.,-1.));
#347=DIRECTION('',(-1.,0.,0.));
#348=DIRECTION('',(0.,0.,-1.));
#349=DIRECTION('',(1.,0.,0.));
#350=DIRECTION('',(0.,0.,-1.));
#351=DIRECTION('',(-1.,0.,0.));
#352=DIRECTION('',(0.,0.,-1.));
#353=DIRECTION('',(-1.,0.,0.));
#354=DIRECTION('',(-1.,0.,0.));
#355=DIRECTION('',(0.,-1.,3.41842567324841E-15));
#356=DIRECTION('',(0.,3.41913997115029E-15,1.));
#357=DIRECTION('',(0.,-0.707106781186546,-0.707106781186549));
#358=DIRECTION('',(0.,-0.707106781186549,0.707106781186546));
#359=DIRECTION('',(-1.,0.,0.));
#360=DIRECTION('',(0.,-0.707106781186546,-0.707106781186549));
#361=DIRECTION('',(0.,-0.707106781186549,0.707106781186546));
#362=DIRECTION('',(-1.,0.,0.));
#363=DIRECTION('',(0.,-1.,3.46944695195361E-15));
#364=DIRECTION('',(0.,3.46944695195361E-15,1.));
#365=DIRECTION('',(0.,-0.707106781186542,0.707106781186553));
#366=DIRECTION('',(0.,0.707106781186553,0.707106781186542));
#367=CARTESIAN_POINT('',(0.,0.,0.));
#368=CARTESIAN_POINT('CRP',(7.77650717458569E-16,12.7,-102.));
#369=CARTESIAN_POINT('',(0.,12.7,-76.001));
#370=CARTESIAN_POINT('',(0.,12.7,-84.6673333333334));
#371=CARTESIAN_POINT('',(0.,12.7,-93.3336666666667));
#372=CARTESIAN_POINT('',(0.,12.7,-102.));
#373=CARTESIAN_POINT('',(0.,8.46666666666667,-102.));
#374=CARTESIAN_POINT('',(0.,4.23333333333333,-102.));
#375=CARTESIAN_POINT('',(0.,0.,-102.));
#376=CARTESIAN_POINT('',(0.,0.,0.));
#377=CARTESIAN_POINT('',(0.,0.,-102.));
#378=CARTESIAN_POINT('',(0.,0.,-56.));
#379=CARTESIAN_POINT('',(0.,0.,-76.));
#380=CARTESIAN_POINT('',(12.7,0.,-76.));
#381=CARTESIAN_POINT('',(0.,0.,-76.));
#382=CARTESIAN_POINT('',(0.,0.,-102.));
#383=CARTESIAN_POINT('',(12.7,0.,-102.));
#384=CARTESIAN_POINT('',(-12.7,0.,-102.));
#385=CARTESIAN_POINT('',(0.,0.,0.));
#386=CARTESIAN_POINT('',(-6.78232998312559,10.4999999999998,-3.58934695691076E-14));
#387=CARTESIAN_POINT('',(-6.78232998312561,10.4999999999998,-1.));
#388=CARTESIAN_POINT('',(-6.78232998312559,10.4999999999997,-17.));
#389=CARTESIAN_POINT('',(0.,0.,-6.50000000000037));
#390=CARTESIAN_POINT('',(6.78232998312559,10.4999999999997,-17.));
#391=CARTESIAN_POINT('',(6.78232998312559,10.4999999999998,-3.58934695691076E-14));
#392=CARTESIAN_POINT('',(6.78232998312561,10.4999999999998,-0.999999999999999));
#393=CARTESIAN_POINT('',(0.,0.,-1.));
#394=CARTESIAN_POINT('',(0.,0.,-36.4999999999996));
#395=CARTESIAN_POINT('',(6.78232998312574,10.4999999999997,-26.));
#396=CARTESIAN_POINT('',(-6.78232998312573,10.4999999999997,-26.));
#397=CARTESIAN_POINT('',(-6.78232998312559,10.4999999999998,-3.64291929955122E-14));
#398=CARTESIAN_POINT('',(-6.78232998312559,10.4999999999997,-38.));
#399=CARTESIAN_POINT('',(0.,0.,-27.5000000000004));
#400=CARTESIAN_POINT('',(6.78232998312559,10.4999999999997,-38.));
#401=CARTESIAN_POINT('',(6.78232998312559,10.4999999999998,-3.64291929955122E-14));
#402=CARTESIAN_POINT('',(0.,0.,-58.5669872981078));
#403=CARTESIAN_POINT('',(12.5,0.,-58.5669872981078));
#404=CARTESIAN_POINT('',(0.,0.,0.));
#405=CARTESIAN_POINT('',(6.78232998312561,10.4999999999998,-0.999999999999999));
#406=CARTESIAN_POINT('',(6.10216474732027,10.4999999999998,-0.630951594217421));
#407=CARTESIAN_POINT('',(5.40735772177319,10.4999999999998,-0.29241355453965));
#408=CARTESIAN_POINT('',(4.69041575982391,10.4999999999998,1.09718350477142E-15));
#409=CARTESIAN_POINT('',(4.69041575982391,10.4999999999998,6.19052335434949E-17));
#410=CARTESIAN_POINT('',(0.,0.,6.19052335434949E-17));
#411=CARTESIAN_POINT('',(-4.69041575982391,10.4999999999998,6.19052335434949E-17));
#412=CARTESIAN_POINT('',(-4.69041575982391,10.4999999999998,1.26907671718324E-15));
#413=CARTESIAN_POINT('',(-5.41057031337033,10.4999999999998,-0.293723849344613));
#414=CARTESIAN_POINT('',(-6.10480274751962,10.4999999999998,-0.632382937245226));
#415=CARTESIAN_POINT('',(-6.7823299831256,10.4999999999998,-0.999999999999999));
#416=CARTESIAN_POINT('',(0.,0.,-1.));
#417=CARTESIAN_POINT('',(-3.5527136788005E-15,10.4999999999998,8.03647919695936E-16));
#418=CARTESIAN_POINT('',(-3.5527136788005E-15,0.,8.03647919695936E-16));
#419=CARTESIAN_POINT('',(0.,0.,-75.1648353455755));
#420=CARTESIAN_POINT('',(-12.25,0.,-75.1648353455755));
#421=CARTESIAN_POINT('',(0.,0.,-59.4287187078898));
#422=CARTESIAN_POINT('',(-12.25,0.,-59.4287187078898));
#423=CARTESIAN_POINT('',(0.,0.,0.));
#424=CARTESIAN_POINT('',(0.,0.,-58.6287187078898));
#425=CARTESIAN_POINT('',(12.4643593539449,0.,-58.6287187078898));
#426=CARTESIAN_POINT('',(0.,0.,-58.5669872981078));
#427=CARTESIAN_POINT('',(0.,0.,-59.4287187078898));
#428=CARTESIAN_POINT('',(0.,0.,-76.));
#429=CARTESIAN_POINT('',(12.7,0.,-76.));
#430=CARTESIAN_POINT('',(0.,0.,-75.1648353455755));
#431=CARTESIAN_POINT('',(0.,0.,-76.));
#432=CARTESIAN_POINT('',(12.5000000000001,10.4999999999997,-17.));
#433=CARTESIAN_POINT('',(12.5000000000001,10.4999999999997,-17.));
#434=CARTESIAN_POINT('',(12.5000000000002,12.4999999999998,-19.0000000000001));
#435=CARTESIAN_POINT('',(12.5000000000002,10.4999999999997,-38.));
#436=CARTESIAN_POINT('',(12.5000000000002,12.4999999999997,-40.0000000000001));
#437=CARTESIAN_POINT('',(12.5000000000001,10.4999999999997,-26.));
#438=CARTESIAN_POINT('',(12.5000000000002,10.4999999999997,-38.));
#439=CARTESIAN_POINT('',(12.5000000000001,10.4999999999997,-26.));
#440=MECHANICAL_DESIGN_GEOMETRIC_PRESENTATION_REPRESENTATION('',(#243,#244,
#245,#246,#247,#248,#249),#441);
#441=(
GEOMETRIC_REPRESENTATION_CONTEXT(3)
GLOBAL_UNCERTAINTY_ASSIGNED_CONTEXT((#442))
GLOBAL_UNIT_ASSIGNED_CONTEXT((#448,#444,#443))
REPRESENTATION_CONTEXT('CAPP~~240521111259~C1101~MOD~TM01_00~ISO~FR',
'TOP_LEVEL_ASSEMBLY_PART')
);
#442=UNCERTAINTY_MEASURE_WITH_UNIT(LENGTH_MEASURE(0.0508),#448,
'DISTANCE_ACCURACY_VALUE','Maximum Tolerance applied to model');
#443=(
NAMED_UNIT(*)
SI_UNIT($,.STERADIAN.)
SOLID_ANGLE_UNIT()
);
#444=(
CONVERSION_BASED_UNIT('DEGREE',#446)
NAMED_UNIT(#445)
PLANE_ANGLE_UNIT()
);
#445=DIMENSIONAL_EXPONENTS(0.,0.,0.,0.,0.,0.,0.);
#446=PLANE_ANGLE_MEASURE_WITH_UNIT(PLANE_ANGLE_MEASURE(0.0174532925),#447);
#447=(
NAMED_UNIT(*)
PLANE_ANGLE_UNIT()
SI_UNIT($,.RADIAN.)
);
#448=(
LENGTH_UNIT()
NAMED_UNIT(*)
SI_UNIT(.MILLI.,.METRE.)
);
ENDSEC;
END-ISO-10303-21;
