ISO-10303-21;
HEADER;
/* Generated by software containing ST-Developer
 * from STEP Tools, Inc. (www.steptools.com) 
 */
/* OPTION: using custom schema-name function */

FILE_DESCRIPTION(
/* description */ (''),
/* implementation_level */ '2;1');

FILE_NAME(
/* name */ 'BT.50ADB-W.06.063.stp',
/* time_stamp */ '2024-08-11T09:47:31+02:00',
/* author */ (''),
/* organization */ (''),
/* preprocessor_version */ 'ST-DEVELOPER v16.7',
/* originating_system */ 'SIEMENS PLM Software NX 12.0',
/* authorisation */ '');

FILE_SCHEMA (('AUTOMOTIVE_DESIGN { 1 0 10303 214 3 1 1 1 }'));
ENDSEC;

DATA;
#10=CONSTRUCTIVE_GEOMETRY_REPRESENTATION_RELATIONSHIP(
'supplemental geometry','',#32,#11);
#11=CONSTRUCTIVE_GEOMETRY_REPRESENTATION('supplemental geometry',(#333,
#334,#335),#574);
#12=PROPERTY_DEFINITION_REPRESENTATION(#16,#14);
#13=PROPERTY_DEFINITION_REPRESENTATION(#17,#15);
#14=REPRESENTATION('',(#18),#574);
#15=REPRESENTATION('',(#19),#574);
#16=PROPERTY_DEFINITION('pmi validation property','',#23);
#17=PROPERTY_DEFINITION('pmi validation property','',#23);
#18=VALUE_REPRESENTATION_ITEM('number of annotations',COUNT_MEASURE(0.));
#19=VALUE_REPRESENTATION_ITEM('number of views',COUNT_MEASURE(0.));
#20=SHAPE_REPRESENTATION_RELATIONSHIP('None',
'relationship between pf6622D4983F1mex-None and pf6622D4983F1mex-None',
#32,#21);
#21=ADVANCED_BREP_SHAPE_REPRESENTATION('pf6622D4983F1mex-None',(#38),#574);
#22=SHAPE_DEFINITION_REPRESENTATION(#23,#32);
#23=PRODUCT_DEFINITION_SHAPE('','',#24);
#24=PRODUCT_DEFINITION(' ','',#26,#25);
#25=PRODUCT_DEFINITION_CONTEXT('part definition',#31,'design');
#26=PRODUCT_DEFINITION_FORMATION_WITH_SPECIFIED_SOURCE(' ',' ',#28,
 .NOT_KNOWN.);
#27=PRODUCT_RELATED_PRODUCT_CATEGORY('part','',(#28));
#28=PRODUCT('pf6622D4983F1mex','pf6622D4983F1mex',' ',(#29));
#29=PRODUCT_CONTEXT(' ',#31,'mechanical');
#30=APPLICATION_PROTOCOL_DEFINITION('international standard',
'automotive_design',2010,#31);
#31=APPLICATION_CONTEXT(
'core data for automotive mechanical design processes');
#32=SHAPE_REPRESENTATION('pf6622D4983F1mex-None',(#332),#574);
#33=SURFACE_STYLE_USAGE(.BOTH.,#34);
#34=SURFACE_SIDE_STYLE('',(#35));
#35=SURFACE_STYLE_FILL_AREA(#36);
#36=FILL_AREA_STYLE('',(#37));
#37=FILL_AREA_STYLE_COLOUR('',#328);
#38=MANIFOLD_SOLID_BREP('\X2\0102010C00AE\X0\G1',#39);
#39=CLOSED_SHELL('',(#95,#96,#97,#98,#99,#100,#101,#102,#103,#104,#105,
#106,#107,#108,#109,#110,#111,#112,#113,#114,#115));
#40=PLANE('',#356);
#41=PLANE('',#362);
#42=PLANE('',#367);
#43=PLANE('',#374);
#44=PLANE('',#375);
#45=PLANE('',#379);
#46=FACE_BOUND('',#133,.T.);
#47=FACE_BOUND('',#134,.T.);
#48=FACE_BOUND('',#137,.T.);
#49=FACE_BOUND('',#138,.T.);
#50=FACE_BOUND('',#139,.T.);
#51=FACE_BOUND('',#140,.T.);
#52=FACE_BOUND('',#141,.T.);
#53=FACE_BOUND('',#142,.T.);
#54=FACE_BOUND('',#143,.T.);
#55=FACE_BOUND('',#144,.T.);
#56=FACE_BOUND('',#145,.T.);
#57=FACE_BOUND('',#146,.T.);
#58=FACE_BOUND('',#147,.T.);
#59=FACE_BOUND('',#148,.T.);
#60=FACE_BOUND('',#149,.T.);
#61=FACE_BOUND('',#150,.T.);
#62=FACE_BOUND('',#151,.T.);
#63=FACE_BOUND('',#152,.T.);
#64=FACE_BOUND('',#153,.T.);
#65=FACE_BOUND('',#154,.T.);
#66=FACE_BOUND('',#155,.T.);
#67=FACE_BOUND('',#156,.T.);
#68=CYLINDRICAL_SURFACE('',#345,12.5);
#69=CYLINDRICAL_SURFACE('',#348,42.5);
#70=CYLINDRICAL_SURFACE('',#350,12.5);
#71=CYLINDRICAL_SURFACE('',#358,50.);
#72=CYLINDRICAL_SURFACE('',#372,50.);
#73=CONICAL_SURFACE('',#343,7.5,24.9999999999999);
#74=CONICAL_SURFACE('',#352,7.5,24.9999999999999);
#75=CONICAL_SURFACE('',#360,43.071677826491,60.0000000000001);
#76=CONICAL_SURFACE('',#369,50.,60.0000000000001);
#77=CONICAL_SURFACE('',#380,34.9979162658848,8.29710000000004);
#78=CONICAL_SURFACE('',#381,34.9979162658848,8.29710000000004);
#79=LINE('',#506,#87);
#80=LINE('',#510,#88);
#81=LINE('',#512,#89);
#82=LINE('',#513,#90);
#83=LINE('',#551,#91);
#84=LINE('',#556,#92);
#85=LINE('',#569,#93);
#86=LINE('',#570,#94);
#87=VECTOR('',#402,1.);
#88=VECTOR('',#405,1.);
#89=VECTOR('',#408,1.);
#90=VECTOR('',#409,1.);
#91=VECTOR('',#462,1.);
#92=VECTOR('',#465,1.);
#93=VECTOR('',#484,1.);
#94=VECTOR('',#485,1.);
#95=ADVANCED_FACE('',(#120),#116,.F.);
#96=ADVANCED_FACE('',(#121),#73,.T.);
#97=ADVANCED_FACE('',(#122),#68,.T.);
#98=ADVANCED_FACE('',(#46,#47),#69,.T.);
#99=ADVANCED_FACE('',(#123),#70,.T.);
#100=ADVANCED_FACE('',(#124),#74,.T.);
#101=ADVANCED_FACE('',(#48,#49),#40,.T.);
#102=ADVANCED_FACE('',(#50,#51),#71,.T.);
#103=ADVANCED_FACE('',(#52,#53),#75,.T.);
#104=ADVANCED_FACE('',(#54,#55),#41,.T.);
#105=ADVANCED_FACE('',(#56,#57),#117,.F.);
#106=ADVANCED_FACE('',(#58,#59),#118,.F.);
#107=ADVANCED_FACE('',(#60,#61),#42,.T.);
#108=ADVANCED_FACE('',(#62,#63),#76,.T.);
#109=ADVANCED_FACE('',(#64,#65),#72,.T.);
#110=ADVANCED_FACE('',(#66,#67),#43,.T.);
#111=ADVANCED_FACE('',(#125),#44,.T.);
#112=ADVANCED_FACE('',(#126),#119,.F.);
#113=ADVANCED_FACE('',(#127),#45,.T.);
#114=ADVANCED_FACE('',(#128),#77,.T.);
#115=ADVANCED_FACE('',(#129),#78,.T.);
#116=TOROIDAL_SURFACE('',#340,15.5,3.);
#117=TOROIDAL_SURFACE('',#363,43.,0.499999999999999);
#118=TOROIDAL_SURFACE('',#365,43.,0.499999999999999);
#119=TOROIDAL_SURFACE('',#376,15.5,3.);
#120=FACE_OUTER_BOUND('',#130,.T.);
#121=FACE_OUTER_BOUND('',#131,.T.);
#122=FACE_OUTER_BOUND('',#132,.T.);
#123=FACE_OUTER_BOUND('',#135,.T.);
#124=FACE_OUTER_BOUND('',#136,.T.);
#125=FACE_OUTER_BOUND('',#157,.T.);
#126=FACE_OUTER_BOUND('',#158,.T.);
#127=FACE_OUTER_BOUND('',#159,.T.);
#128=FACE_OUTER_BOUND('',#160,.T.);
#129=FACE_OUTER_BOUND('',#161,.T.);
#130=EDGE_LOOP('',(#162,#163,#164,#165));
#131=EDGE_LOOP('',(#166,#167,#168,#169));
#132=EDGE_LOOP('',(#170,#171,#172,#173));
#133=EDGE_LOOP('',(#174));
#134=EDGE_LOOP('',(#175));
#135=EDGE_LOOP('',(#176,#177,#178,#179));
#136=EDGE_LOOP('',(#180,#181,#182,#183));
#137=EDGE_LOOP('',(#184,#185));
#138=EDGE_LOOP('',(#186));
#139=EDGE_LOOP('',(#187));
#140=EDGE_LOOP('',(#188));
#141=EDGE_LOOP('',(#189));
#142=EDGE_LOOP('',(#190));
#143=EDGE_LOOP('',(#191));
#144=EDGE_LOOP('',(#192));
#145=EDGE_LOOP('',(#193));
#146=EDGE_LOOP('',(#194));
#147=EDGE_LOOP('',(#195));
#148=EDGE_LOOP('',(#196));
#149=EDGE_LOOP('',(#197));
#150=EDGE_LOOP('',(#198));
#151=EDGE_LOOP('',(#199));
#152=EDGE_LOOP('',(#200));
#153=EDGE_LOOP('',(#201));
#154=EDGE_LOOP('',(#202,#203,#204,#205,#206,#207));
#155=EDGE_LOOP('',(#208,#209));
#156=EDGE_LOOP('',(#210,#211));
#157=EDGE_LOOP('',(#212,#213));
#158=EDGE_LOOP('',(#214,#215,#216,#217));
#159=EDGE_LOOP('',(#218,#219));
#160=EDGE_LOOP('',(#220,#221,#222,#223));
#161=EDGE_LOOP('',(#224,#225,#226,#227));
#162=ORIENTED_EDGE('',*,*,#253,.F.);
#163=ORIENTED_EDGE('',*,*,#254,.T.);
#164=ORIENTED_EDGE('',*,*,#255,.F.);
#165=ORIENTED_EDGE('',*,*,#256,.F.);
#166=ORIENTED_EDGE('',*,*,#257,.F.);
#167=ORIENTED_EDGE('',*,*,#258,.T.);
#168=ORIENTED_EDGE('',*,*,#259,.F.);
#169=ORIENTED_EDGE('',*,*,#260,.F.);
#170=ORIENTED_EDGE('',*,*,#261,.T.);
#171=ORIENTED_EDGE('',*,*,#257,.T.);
#172=ORIENTED_EDGE('',*,*,#262,.F.);
#173=ORIENTED_EDGE('',*,*,#263,.T.);
#174=ORIENTED_EDGE('',*,*,#264,.F.);
#175=ORIENTED_EDGE('',*,*,#265,.T.);
#176=ORIENTED_EDGE('',*,*,#261,.F.);
#177=ORIENTED_EDGE('',*,*,#253,.T.);
#178=ORIENTED_EDGE('',*,*,#262,.T.);
#179=ORIENTED_EDGE('',*,*,#266,.T.);
#180=ORIENTED_EDGE('',*,*,#260,.T.);
#181=ORIENTED_EDGE('',*,*,#267,.F.);
#182=ORIENTED_EDGE('',*,*,#258,.F.);
#183=ORIENTED_EDGE('',*,*,#266,.F.);
#184=ORIENTED_EDGE('',*,*,#268,.F.);
#185=ORIENTED_EDGE('',*,*,#269,.F.);
#186=ORIENTED_EDGE('',*,*,#270,.F.);
#187=ORIENTED_EDGE('',*,*,#271,.T.);
#188=ORIENTED_EDGE('',*,*,#270,.T.);
#189=ORIENTED_EDGE('',*,*,#272,.F.);
#190=ORIENTED_EDGE('',*,*,#271,.F.);
#191=ORIENTED_EDGE('',*,*,#273,.F.);
#192=ORIENTED_EDGE('',*,*,#272,.T.);
#193=ORIENTED_EDGE('',*,*,#265,.F.);
#194=ORIENTED_EDGE('',*,*,#273,.T.);
#195=ORIENTED_EDGE('',*,*,#274,.F.);
#196=ORIENTED_EDGE('',*,*,#264,.T.);
#197=ORIENTED_EDGE('',*,*,#275,.F.);
#198=ORIENTED_EDGE('',*,*,#274,.T.);
#199=ORIENTED_EDGE('',*,*,#276,.T.);
#200=ORIENTED_EDGE('',*,*,#275,.T.);
#201=ORIENTED_EDGE('',*,*,#276,.F.);
#202=ORIENTED_EDGE('',*,*,#277,.F.);
#203=ORIENTED_EDGE('',*,*,#277,.T.);
#204=ORIENTED_EDGE('',*,*,#278,.F.);
#205=ORIENTED_EDGE('',*,*,#279,.F.);
#206=ORIENTED_EDGE('',*,*,#279,.T.);
#207=ORIENTED_EDGE('',*,*,#280,.F.);
#208=ORIENTED_EDGE('',*,*,#255,.T.);
#209=ORIENTED_EDGE('',*,*,#281,.T.);
#210=ORIENTED_EDGE('',*,*,#278,.T.);
#211=ORIENTED_EDGE('',*,*,#280,.T.);
#212=ORIENTED_EDGE('',*,*,#259,.T.);
#213=ORIENTED_EDGE('',*,*,#267,.T.);
#214=ORIENTED_EDGE('',*,*,#254,.F.);
#215=ORIENTED_EDGE('',*,*,#263,.F.);
#216=ORIENTED_EDGE('',*,*,#256,.T.);
#217=ORIENTED_EDGE('',*,*,#281,.F.);
#218=ORIENTED_EDGE('',*,*,#282,.F.);
#219=ORIENTED_EDGE('',*,*,#283,.F.);
#220=ORIENTED_EDGE('',*,*,#282,.T.);
#221=ORIENTED_EDGE('',*,*,#284,.T.);
#222=ORIENTED_EDGE('',*,*,#269,.T.);
#223=ORIENTED_EDGE('',*,*,#285,.F.);
#224=ORIENTED_EDGE('',*,*,#284,.F.);
#225=ORIENTED_EDGE('',*,*,#283,.T.);
#226=ORIENTED_EDGE('',*,*,#285,.T.);
#227=ORIENTED_EDGE('',*,*,#268,.T.);
#228=VERTEX_POINT('',#495);
#229=VERTEX_POINT('',#496);
#230=VERTEX_POINT('',#498);
#231=VERTEX_POINT('',#500);
#232=VERTEX_POINT('',#504);
#233=VERTEX_POINT('',#505);
#234=VERTEX_POINT('',#507);
#235=VERTEX_POINT('',#509);
#236=VERTEX_POINT('',#517);
#237=VERTEX_POINT('',#519);
#238=VERTEX_POINT('',#526);
#239=VERTEX_POINT('',#527);
#240=VERTEX_POINT('',#530);
#241=VERTEX_POINT('',#533);
#242=VERTEX_POINT('',#536);
#243=VERTEX_POINT('',#539);
#244=VERTEX_POINT('',#543);
#245=VERTEX_POINT('',#546);
#246=VERTEX_POINT('',#549);
#247=VERTEX_POINT('',#552);
#248=VERTEX_POINT('',#553);
#249=VERTEX_POINT('',#555);
#250=VERTEX_POINT('',#557);
#251=VERTEX_POINT('',#565);
#252=VERTEX_POINT('',#566);
#253=EDGE_CURVE('',#228,#229,#286,.T.);
#254=EDGE_CURVE('',#228,#230,#287,.T.);
#255=EDGE_CURVE('',#231,#230,#288,.T.);
#256=EDGE_CURVE('',#229,#231,#289,.T.);
#257=EDGE_CURVE('',#232,#233,#290,.T.);
#258=EDGE_CURVE('',#232,#234,#79,.T.);
#259=EDGE_CURVE('',#235,#234,#291,.T.);
#260=EDGE_CURVE('',#233,#235,#80,.T.);
#261=EDGE_CURVE('',#228,#232,#81,.T.);
#262=EDGE_CURVE('',#229,#233,#82,.T.);
#263=EDGE_CURVE('',#229,#228,#292,.T.);
#264=EDGE_CURVE('',#236,#236,#293,.T.);
#265=EDGE_CURVE('',#237,#237,#294,.T.);
#266=EDGE_CURVE('',#233,#232,#295,.T.);
#267=EDGE_CURVE('',#234,#235,#296,.T.);
#268=EDGE_CURVE('',#238,#239,#297,.T.);
#269=EDGE_CURVE('',#239,#238,#298,.T.);
#270=EDGE_CURVE('',#240,#240,#299,.T.);
#271=EDGE_CURVE('',#241,#241,#300,.T.);
#272=EDGE_CURVE('',#242,#242,#301,.T.);
#273=EDGE_CURVE('',#243,#243,#302,.T.);
#274=EDGE_CURVE('',#244,#244,#303,.T.);
#275=EDGE_CURVE('',#245,#245,#304,.T.);
#276=EDGE_CURVE('',#246,#246,#305,.T.);
#277=EDGE_CURVE('',#247,#248,#83,.T.);
#278=EDGE_CURVE('',#249,#248,#306,.T.);
#279=EDGE_CURVE('',#250,#249,#84,.T.);
#280=EDGE_CURVE('',#248,#249,#307,.T.);
#281=EDGE_CURVE('',#230,#231,#308,.T.);
#282=EDGE_CURVE('',#251,#252,#309,.T.);
#283=EDGE_CURVE('',#252,#251,#310,.T.);
#284=EDGE_CURVE('',#252,#239,#85,.T.);
#285=EDGE_CURVE('',#251,#238,#86,.T.);
#286=CIRCLE('',#336,12.5);
#287=CIRCLE('',#337,3.);
#288=CIRCLE('',#338,15.5);
#289=CIRCLE('',#339,3.);
#290=CIRCLE('',#341,12.5);
#291=CIRCLE('',#342,7.5);
#292=CIRCLE('',#344,12.5);
#293=CIRCLE('',#346,42.5);
#294=CIRCLE('',#347,42.5);
#295=CIRCLE('',#349,12.5);
#296=CIRCLE('',#351,7.5);
#297=CIRCLE('',#353,35.3624975953087);
#298=CIRCLE('',#354,35.3624975953087);
#299=CIRCLE('',#355,50.);
#300=CIRCLE('',#357,50.);
#301=CIRCLE('',#359,43.071677826491);
#302=CIRCLE('',#361,43.);
#303=CIRCLE('',#364,43.);
#304=CIRCLE('',#366,43.071677826491);
#305=CIRCLE('',#368,50.);
#306=CIRCLE('',#370,50.);
#307=CIRCLE('',#371,50.);
#308=CIRCLE('',#373,15.5);
#309=CIRCLE('',#377,20.079248265859);
#310=CIRCLE('',#378,20.079248265859);
#311=INVISIBILITY((#312,#313,#314,#315));
#312=PRESENTATION_LAYER_ASSIGNMENT('100','Layer 100',(#333));
#313=PRESENTATION_LAYER_ASSIGNMENT('101','Layer 101',(#334));
#314=PRESENTATION_LAYER_ASSIGNMENT('102','Layer 102',(#335));
#315=PRESENTATION_LAYER_ASSIGNMENT('98','Layer 98',(#38));
#316=STYLED_ITEM('',(#320),#333);
#317=STYLED_ITEM('',(#321),#334);
#318=STYLED_ITEM('',(#322),#335);
#319=STYLED_ITEM('',(#323),#38);
#320=PRESENTATION_STYLE_ASSIGNMENT((#324));
#321=PRESENTATION_STYLE_ASSIGNMENT((#325));
#322=PRESENTATION_STYLE_ASSIGNMENT((#326));
#323=PRESENTATION_STYLE_ASSIGNMENT((#33));
#324=CURVE_STYLE('',#329,POSITIVE_LENGTH_MEASURE(0.7),#327);
#325=CURVE_STYLE('',#330,POSITIVE_LENGTH_MEASURE(0.7),#327);
#326=CURVE_STYLE('',#331,POSITIVE_LENGTH_MEASURE(0.7),#327);
#327=COLOUR_RGB('Medium Maroon',0.6,0.4,0.4);
#328=COLOUR_RGB('Medium Gray',0.490196078431373,0.490196078431373,0.490196078431373);
#329=DRAUGHTING_PRE_DEFINED_CURVE_FONT('continuous');
#330=DRAUGHTING_PRE_DEFINED_CURVE_FONT('continuous');
#331=DRAUGHTING_PRE_DEFINED_CURVE_FONT('continuous');
#332=AXIS2_PLACEMENT_3D('',#490,#382,#383);
#333=AXIS2_PLACEMENT_3D('PCS',#491,#384,#385);
#334=AXIS2_PLACEMENT_3D('CSW',#492,#386,#387);
#335=AXIS2_PLACEMENT_3D('MCS',#493,#388,#389);
#336=AXIS2_PLACEMENT_3D('',#494,#390,#391);
#337=AXIS2_PLACEMENT_3D('',#497,#392,#393);
#338=AXIS2_PLACEMENT_3D('',#499,#394,#395);
#339=AXIS2_PLACEMENT_3D('',#501,#396,#397);
#340=AXIS2_PLACEMENT_3D('',#502,#398,#399);
#341=AXIS2_PLACEMENT_3D('',#503,#400,#401);
#342=AXIS2_PLACEMENT_3D('',#508,#403,#404);
#343=AXIS2_PLACEMENT_3D('',#511,#406,#407);
#344=AXIS2_PLACEMENT_3D('',#514,#410,#411);
#345=AXIS2_PLACEMENT_3D('',#515,#412,#413);
#346=AXIS2_PLACEMENT_3D('',#516,#414,#415);
#347=AXIS2_PLACEMENT_3D('',#518,#416,#417);
#348=AXIS2_PLACEMENT_3D('',#520,#418,#419);
#349=AXIS2_PLACEMENT_3D('',#521,#420,#421);
#350=AXIS2_PLACEMENT_3D('',#522,#422,#423);
#351=AXIS2_PLACEMENT_3D('',#523,#424,#425);
#352=AXIS2_PLACEMENT_3D('',#524,#426,#427);
#353=AXIS2_PLACEMENT_3D('',#525,#428,#429);
#354=AXIS2_PLACEMENT_3D('',#528,#430,#431);
#355=AXIS2_PLACEMENT_3D('',#529,#432,#433);
#356=AXIS2_PLACEMENT_3D('',#531,#434,#435);
#357=AXIS2_PLACEMENT_3D('',#532,#436,#437);
#358=AXIS2_PLACEMENT_3D('',#534,#438,#439);
#359=AXIS2_PLACEMENT_3D('',#535,#440,#441);
#360=AXIS2_PLACEMENT_3D('',#537,#442,#443);
#361=AXIS2_PLACEMENT_3D('',#538,#444,#445);
#362=AXIS2_PLACEMENT_3D('',#540,#446,#447);
#363=AXIS2_PLACEMENT_3D('',#541,#448,#449);
#364=AXIS2_PLACEMENT_3D('',#542,#450,#451);
#365=AXIS2_PLACEMENT_3D('',#544,#452,#453);
#366=AXIS2_PLACEMENT_3D('',#545,#454,#455);
#367=AXIS2_PLACEMENT_3D('',#547,#456,#457);
#368=AXIS2_PLACEMENT_3D('',#548,#458,#459);
#369=AXIS2_PLACEMENT_3D('',#550,#460,#461);
#370=AXIS2_PLACEMENT_3D('',#554,#463,#464);
#371=AXIS2_PLACEMENT_3D('',#558,#466,#467);
#372=AXIS2_PLACEMENT_3D('',#559,#468,#469);
#373=AXIS2_PLACEMENT_3D('',#560,#470,#471);
#374=AXIS2_PLACEMENT_3D('',#561,#472,#473);
#375=AXIS2_PLACEMENT_3D('',#562,#474,#475);
#376=AXIS2_PLACEMENT_3D('',#563,#476,#477);
#377=AXIS2_PLACEMENT_3D('',#564,#478,#479);
#378=AXIS2_PLACEMENT_3D('',#567,#480,#481);
#379=AXIS2_PLACEMENT_3D('',#568,#482,#483);
#380=AXIS2_PLACEMENT_3D('',#571,#486,#487);
#381=AXIS2_PLACEMENT_3D('',#572,#488,#489);
#382=DIRECTION('',(0.,0.,1.));
#383=DIRECTION('',(1.,0.,0.));
#384=DIRECTION('',(0.,0.,1.));
#385=DIRECTION('',(1.,0.,0.));
#386=DIRECTION('',(0.,0.,1.));
#387=DIRECTION('',(1.,0.,0.));
#388=DIRECTION('',(0.,0.,1.));
#389=DIRECTION('',(1.,0.,0.));
#390=DIRECTION('',(0.,0.,-1.));
#391=DIRECTION('',(1.,0.,0.));
#392=DIRECTION('',(1.22464679914735E-16,-1.,0.));
#393=DIRECTION('',(-0.999999999999999,-1.22464679914735E-16,0.));
#394=DIRECTION('',(0.,0.,1.));
#395=DIRECTION('',(1.,0.,0.));
#396=DIRECTION('',(0.,1.,0.));
#397=DIRECTION('',(1.,0.,0.));
#398=DIRECTION('',(0.,0.,-1.));
#399=DIRECTION('',(-1.,0.,0.));
#400=DIRECTION('',(0.,0.,1.));
#401=DIRECTION('',(1.,0.,0.));
#402=DIRECTION('',(0.422618261740697,0.,-0.906307787036651));
#403=DIRECTION('',(0.,0.,-1.));
#404=DIRECTION('',(-1.,0.,0.));
#405=DIRECTION('',(-0.422618261740697,5.17558101501963E-17,-0.906307787036651));
#406=DIRECTION('',(0.,0.,1.));
#407=DIRECTION('',(1.,0.,-5.85798374887164E-17));
#408=DIRECTION('',(0.,0.,-1.));
#409=DIRECTION('',(0.,0.,-1.));
#410=DIRECTION('',(0.,0.,-1.));
#411=DIRECTION('',(1.,0.,0.));
#412=DIRECTION('',(0.,0.,-1.));
#413=DIRECTION('',(-1.,0.,0.));
#414=DIRECTION('',(0.,0.,-1.));
#415=DIRECTION('',(1.,0.,0.));
#416=DIRECTION('',(0.,0.,-1.));
#417=DIRECTION('',(1.,0.,0.));
#418=DIRECTION('',(0.,0.,-1.));
#419=DIRECTION('',(-1.,0.,0.));
#420=DIRECTION('',(0.,0.,1.));
#421=DIRECTION('',(1.,0.,0.));
#422=DIRECTION('',(0.,0.,-1.));
#423=DIRECTION('',(-1.,0.,0.));
#424=DIRECTION('',(0.,0.,-1.));
#425=DIRECTION('',(-1.,0.,0.));
#426=DIRECTION('',(0.,0.,1.));
#427=DIRECTION('',(1.,0.,-5.85798374887164E-17));
#428=DIRECTION('',(0.,0.,1.));
#429=DIRECTION('',(1.,0.,0.));
#430=DIRECTION('',(0.,0.,1.));
#431=DIRECTION('',(1.,0.,0.));
#432=DIRECTION('',(0.,0.,-1.));
#433=DIRECTION('',(1.,0.,0.));
#434=DIRECTION('',(0.,0.,1.));
#435=DIRECTION('',(1.,0.,0.));
#436=DIRECTION('',(0.,0.,1.));
#437=DIRECTION('',(1.,0.,0.));
#438=DIRECTION('',(0.,0.,-1.));
#439=DIRECTION('',(-1.,0.,0.));
#440=DIRECTION('',(0.,0.,-1.));
#441=DIRECTION('',(1.,0.,0.));
#442=DIRECTION('',(0.,0.,1.));
#443=DIRECTION('',(1.,0.,-1.56358650425448E-17));
#444=DIRECTION('',(0.,0.,-1.));
#445=DIRECTION('',(1.,0.,0.));
#446=DIRECTION('',(0.,0.,-1.));
#447=DIRECTION('',(-1.,0.,0.));
#448=DIRECTION('',(0.,0.,-1.));
#449=DIRECTION('',(-1.,0.,0.));
#450=DIRECTION('',(0.,0.,-1.));
#451=DIRECTION('',(1.,0.,0.));
#452=DIRECTION('',(0.,0.,-1.));
#453=DIRECTION('',(-1.,0.,0.));
#454=DIRECTION('',(0.,0.,-1.));
#455=DIRECTION('',(1.,0.,0.));
#456=DIRECTION('',(0.,0.,1.));
#457=DIRECTION('',(1.,0.,0.));
#458=DIRECTION('',(0.,0.,1.));
#459=DIRECTION('',(-1.,0.,0.));
#460=DIRECTION('',(0.,0.,-1.));
#461=DIRECTION('',(-1.,0.,-1.94688441946653E-17));
#462=DIRECTION('',(0.,0.,-1.));
#463=DIRECTION('',(0.,0.,-1.));
#464=DIRECTION('',(-1.,0.,0.));
#465=DIRECTION('',(0.,0.,-1.));
#466=DIRECTION('',(0.,0.,-1.));
#467=DIRECTION('',(-1.,0.,0.));
#468=DIRECTION('',(0.,0.,-1.));
#469=DIRECTION('',(-1.,0.,0.));
#470=DIRECTION('',(0.,0.,1.));
#471=DIRECTION('',(1.,0.,0.));
#472=DIRECTION('',(0.,0.,-1.));
#473=DIRECTION('',(-1.,0.,0.));
#474=DIRECTION('',(0.,0.,-1.));
#475=DIRECTION('',(-1.,0.,0.));
#476=DIRECTION('',(0.,0.,-1.));
#477=DIRECTION('',(-1.,0.,0.));
#478=DIRECTION('',(0.,0.,-1.));
#479=DIRECTION('',(1.,0.,0.));
#480=DIRECTION('',(0.,0.,-1.));
#481=DIRECTION('',(1.,0.,0.));
#482=DIRECTION('',(0.,0.,1.));
#483=DIRECTION('',(1.,0.,0.));
#484=DIRECTION('',(-0.144306116415234,-1.76724023565302E-17,-0.989533094325376));
#485=DIRECTION('',(0.144306116415234,0.,-0.989533094325376));
#486=DIRECTION('',(0.,0.,-1.));
#487=DIRECTION('',(-1.,0.,4.60468509321873E-16));
#488=DIRECTION('',(0.,0.,-1.));
#489=DIRECTION('',(-1.,0.,4.60468509321873E-16));
#490=CARTESIAN_POINT('',(0.,0.,0.));
#491=CARTESIAN_POINT('',(0.,0.,0.));
#492=CARTESIAN_POINT('',(0.,0.,-63.));
#493=CARTESIAN_POINT('',(0.,0.,0.));
#494=CARTESIAN_POINT('',(4.33987978296635E-6,1.08396354082316E-20,-41.));
#495=CARTESIAN_POINT('',(-12.4999956601202,-1.53079765929878E-15,-41.));
#496=CARTESIAN_POINT('',(12.5000043398798,1.08396354082316E-20,-41.));
#497=CARTESIAN_POINT('',(-15.4999956601202,-1.89819169904299E-15,-41.));
#498=CARTESIAN_POINT('',(-15.4999956601202,-1.89819169904299E-15,-38.));
#499=CARTESIAN_POINT('',(4.33987978296635E-6,1.08396354082316E-20,-38.));
#500=CARTESIAN_POINT('',(15.5000043398798,1.08396354082316E-20,-38.));
#501=CARTESIAN_POINT('',(15.5000043398798,1.08396354082316E-20,-41.));
#502=CARTESIAN_POINT('',(4.33987978296635E-6,1.08396354082316E-20,-41.));
#503=CARTESIAN_POINT('',(4.33987978296635E-6,1.08396354082316E-20,-52.2774653974522));
#504=CARTESIAN_POINT('',(-12.4999956601202,-7.65393409831687E-16,-52.2774653974522));
#505=CARTESIAN_POINT('',(12.5000043398798,-7.65393409831687E-16,-52.2774653974522));
#506=CARTESIAN_POINT('',(-7.49999566012021,1.08396354082316E-20,-63.));
#507=CARTESIAN_POINT('',(-7.49999566012021,1.08396354082316E-20,-63.));
#508=CARTESIAN_POINT('',(4.33987978296635E-6,1.08396354082316E-20,-63.));
#509=CARTESIAN_POINT('',(7.50000433987978,-9.18474259725106E-16,-63.));
#510=CARTESIAN_POINT('',(7.50000433987978,-9.18474259725106E-16,-63.));
#511=CARTESIAN_POINT('',(4.33987978296635E-6,1.08396354082316E-20,-63.));
#512=CARTESIAN_POINT('',(-12.4999956601202,-1.53079765929878E-15,-88.7524800062801));
#513=CARTESIAN_POINT('',(12.5000043398798,1.08396354082316E-20,-88.7524800062801));
#514=CARTESIAN_POINT('',(4.33987978296635E-6,1.08396354082316E-20,-41.));
#515=CARTESIAN_POINT('',(4.33987978296635E-6,1.08396354082316E-20,-88.7524800062801));
#516=CARTESIAN_POINT('',(4.33987978296635E-6,1.08396354082316E-20,-26.2));
#517=CARTESIAN_POINT('',(42.5000043398798,1.08396354082316E-20,-26.2));
#518=CARTESIAN_POINT('',(4.33987978296635E-6,1.08396354082316E-20,-20.2));
#519=CARTESIAN_POINT('',(-40.3366066492361,-13.3868522779904,-20.2));
#520=CARTESIAN_POINT('',(4.33987978296635E-6,1.08396354082316E-20,-88.7524800062801));
#521=CARTESIAN_POINT('',(4.33987978296635E-6,1.08396354082316E-20,-52.2774653974522));
#522=CARTESIAN_POINT('',(4.33987978296635E-6,1.08396354082316E-20,-88.7524800062801));
#523=CARTESIAN_POINT('',(4.33987978296635E-6,1.08396354082316E-20,-63.));
#524=CARTESIAN_POINT('',(4.33987978296635E-6,1.08396354082316E-20,-63.));
#525=CARTESIAN_POINT('',(4.33987978296635E-6,1.08396354082316E-20,-3.00000000000004));
#526=CARTESIAN_POINT('',(35.3625019351884,1.08396354082316E-20,-3.00000000000004));
#527=CARTESIAN_POINT('',(-35.3624932554289,1.08396354082316E-20,-3.00000000000004));
#528=CARTESIAN_POINT('',(4.33987978296635E-6,1.08396354082316E-20,-3.00000000000004));
#529=CARTESIAN_POINT('',(4.33987978296635E-6,1.08396354082316E-20,-3.00000000000003));
#530=CARTESIAN_POINT('',(50.0000043398798,1.08396354082316E-20,-3.00000000000003));
#531=CARTESIAN_POINT('',(4.33987978296635E-6,-35.3979162658848,-3.00000000000004));
#532=CARTESIAN_POINT('',(4.33987978296635E-6,1.08396354082316E-20,-15.6999313280922));
#533=CARTESIAN_POINT('',(50.0000043398798,1.08396354082316E-20,-15.6999313280922));
#534=CARTESIAN_POINT('',(4.33987978296635E-6,1.08396354082316E-20,-88.7524800062801));
#535=CARTESIAN_POINT('',(4.33987978296635E-6,1.08396354082316E-20,-19.7));
#536=CARTESIAN_POINT('',(43.0716821663708,1.08396354082316E-20,-19.7));
#537=CARTESIAN_POINT('',(4.33987978296635E-6,1.08396354082316E-20,-19.7));
#538=CARTESIAN_POINT('',(4.33987978296635E-6,1.08396354082316E-20,-19.7));
#539=CARTESIAN_POINT('',(43.0000043398798,1.08396354082316E-20,-19.7));
#540=CARTESIAN_POINT('',(4.33987978296635E-6,-43.071677826491,-19.7));
#541=CARTESIAN_POINT('',(4.33987978296635E-6,1.08396354082316E-20,-20.2));
#542=CARTESIAN_POINT('',(4.33987978296635E-6,1.08396354082316E-20,-26.7));
#543=CARTESIAN_POINT('',(43.0000043398798,1.08396354082316E-20,-26.7));
#544=CARTESIAN_POINT('',(4.33987978296635E-6,1.08396354082316E-20,-26.2));
#545=CARTESIAN_POINT('',(4.33987978296635E-6,1.08396354082316E-20,-26.7));
#546=CARTESIAN_POINT('',(43.0716821663708,1.08396354082316E-20,-26.7));
#547=CARTESIAN_POINT('',(4.33987978296635E-6,-43.,-26.7));
#548=CARTESIAN_POINT('',(4.33987978296635E-6,1.08396354082316E-20,-30.7000686719079));
#549=CARTESIAN_POINT('',(-49.9999956601202,1.08396354082316E-20,-30.7000686719079));
#550=CARTESIAN_POINT('',(4.33987978296635E-6,1.08396354082316E-20,-30.7000686719079));
#551=CARTESIAN_POINT('',(-49.9999956601202,-6.12322315610136E-15,-88.7524800062801));
#552=CARTESIAN_POINT('',(-49.9999956601202,-3.31283111632674E-14,-34.4999999875721));
#553=CARTESIAN_POINT('',(-49.9999956601202,-6.12322315610136E-15,-38.));
#554=CARTESIAN_POINT('',(4.33987978296635E-6,1.08396354082316E-20,-38.));
#555=CARTESIAN_POINT('',(50.0000043398798,1.08396354082316E-20,-38.));
#556=CARTESIAN_POINT('',(50.0000043398798,1.08396354082316E-20,-88.7524800062801));
#557=CARTESIAN_POINT('',(50.0000043398798,3.81589427873541E-15,-34.4999999867885));
#558=CARTESIAN_POINT('',(4.33987978296635E-6,1.08396354082316E-20,-38.));
#559=CARTESIAN_POINT('',(4.33987978296635E-6,1.08396354082316E-20,-88.7524800062801));
#560=CARTESIAN_POINT('',(4.33987978296635E-6,1.08396354082316E-20,-38.));
#561=CARTESIAN_POINT('',(4.33987978296635E-6,-49.,-38.));
#562=CARTESIAN_POINT('',(4.33987978296635E-6,-7.5,-63.));
#563=CARTESIAN_POINT('',(4.33987978296635E-6,1.08396354082316E-20,-41.));
#564=CARTESIAN_POINT('',(4.33987978296635E-6,1.08396354082316E-20,101.8));
#565=CARTESIAN_POINT('',(20.0792526057387,1.08396354082316E-20,101.8));
#566=CARTESIAN_POINT('',(-20.0792439259792,-2.45898787217151E-15,101.8));
#567=CARTESIAN_POINT('',(4.33987978296635E-6,1.08396354082316E-20,101.8));
#568=CARTESIAN_POINT('',(4.33987978296635E-6,2.33359593105635E-14,101.8));
#569=CARTESIAN_POINT('',(-34.997911926005,-4.28599777354888E-15,-0.500000000000028));
#570=CARTESIAN_POINT('',(34.9979206057645,1.08396354082316E-20,-0.500000000000028));
#571=CARTESIAN_POINT('',(4.33987978296635E-6,1.08396354082316E-20,-0.500000000000028));
#572=CARTESIAN_POINT('',(4.33987978296635E-6,1.08396354082316E-20,-0.500000000000028));
#573=MECHANICAL_DESIGN_GEOMETRIC_PRESENTATION_REPRESENTATION('',(#316,#317,
#318,#319),#574);
#574=(
GEOMETRIC_REPRESENTATION_CONTEXT(3)
GLOBAL_UNCERTAINTY_ASSIGNED_CONTEXT((#575))
GLOBAL_UNIT_ASSIGNED_CONTEXT((#581,#577,#576))
REPRESENTATION_CONTEXT('BT.50ADB-W.06','TOP_LEVEL_ASSEMBLY_PART')
);
#575=UNCERTAINTY_MEASURE_WITH_UNIT(LENGTH_MEASURE(2.E-5),#581,
'DISTANCE_ACCURACY_VALUE','Maximum Tolerance applied to model');
#576=(
NAMED_UNIT(*)
SI_UNIT($,.STERADIAN.)
SOLID_ANGLE_UNIT()
);
#577=(
CONVERSION_BASED_UNIT('DEGREE',#579)
NAMED_UNIT(#578)
PLANE_ANGLE_UNIT()
);
#578=DIMENSIONAL_EXPONENTS(0.,0.,0.,0.,0.,0.,0.);
#579=PLANE_ANGLE_MEASURE_WITH_UNIT(PLANE_ANGLE_MEASURE(0.0174532925),#580);
#580=(
NAMED_UNIT(*)
PLANE_ANGLE_UNIT()
SI_UNIT($,.RADIAN.)
);
#581=(
LENGTH_UNIT()
NAMED_UNIT(*)
SI_UNIT(.MILLI.,.METRE.)
);
ENDSEC;
END-ISO-10303-21;
