ISO-10303-21;
HEADER;
/* Generated by software containing ST-Developer
 * from STEP Tools, Inc. (www.steptools.com) 
 */
/* OPTION: using custom schema-name function */

FILE_DESCRIPTION(
/* description */ (''),
/* implementation_level */ '2;1');

FILE_NAME(
/* name */ 'BT.50ADB-CC.ER40.160.stp',
/* time_stamp */ '2024-08-04T20:51:18+02:00',
/* author */ (''),
/* organization */ (''),
/* preprocessor_version */ 'ST-DEVELOPER v16.7',
/* originating_system */ 'SIEMENS PLM Software NX 12.0',
/* authorisation */ '');

FILE_SCHEMA (('AUTOMOTIVE_DESIGN { 1 0 10303 214 3 1 1 1 }'));
ENDSEC;

DATA;
#10=CONSTRUCTIVE_GEOMETRY_REPRESENTATION_RELATIONSHIP(
'supplemental geometry','',#32,#11);
#11=CONSTRUCTIVE_GEOMETRY_REPRESENTATION('supplemental geometry',(#372,
#373,#374),#642);
#12=PROPERTY_DEFINITION_REPRESENTATION(#16,#14);
#13=PROPERTY_DEFINITION_REPRESENTATION(#17,#15);
#14=REPRESENTATION('',(#18),#642);
#15=REPRESENTATION('',(#19),#642);
#16=PROPERTY_DEFINITION('pmi validation property','',#23);
#17=PROPERTY_DEFINITION('pmi validation property','',#23);
#18=VALUE_REPRESENTATION_ITEM('number of annotations',COUNT_MEASURE(0.));
#19=VALUE_REPRESENTATION_ITEM('number of views',COUNT_MEASURE(0.));
#20=SHAPE_REPRESENTATION_RELATIONSHIP('None',
'relationship between pf662DBC816Cooc8-None and pf662DBC816Cooc8-None',
#32,#21);
#21=ADVANCED_BREP_SHAPE_REPRESENTATION('pf662DBC816Cooc8-None',(#38),#642);
#22=SHAPE_DEFINITION_REPRESENTATION(#23,#32);
#23=PRODUCT_DEFINITION_SHAPE('','',#24);
#24=PRODUCT_DEFINITION(' ','',#26,#25);
#25=PRODUCT_DEFINITION_CONTEXT('part definition',#31,'design');
#26=PRODUCT_DEFINITION_FORMATION_WITH_SPECIFIED_SOURCE(' ',' ',#28,
 .NOT_KNOWN.);
#27=PRODUCT_RELATED_PRODUCT_CATEGORY('part','',(#28));
#28=PRODUCT('pf662DBC816Cooc8','pf662DBC816Cooc8',' ',(#29));
#29=PRODUCT_CONTEXT(' ',#31,'mechanical');
#30=APPLICATION_PROTOCOL_DEFINITION('international standard',
'automotive_design',2010,#31);
#31=APPLICATION_CONTEXT(
'core data for automotive mechanical design processes');
#32=SHAPE_REPRESENTATION('pf662DBC816Cooc8-None',(#371),#642);
#33=SURFACE_STYLE_USAGE(.BOTH.,#34);
#34=SURFACE_SIDE_STYLE('',(#35));
#35=SURFACE_STYLE_FILL_AREA(#36);
#36=FILL_AREA_STYLE('',(#37));
#37=FILL_AREA_STYLE_COLOUR('',#367);
#38=MANIFOLD_SOLID_BREP('\X\B0\X2\014100AE0106\X0\-\X\B1\X2\02DD0104\X0\X
5',#39);
#39=CLOSED_SHELL('',(#83,#84,#85,#86,#87,#88,#89,#90,#91,#92,#93,#94,#95,
#96,#97,#98,#99,#100,#101,#102,#103,#104,#105));
#40=TOROIDAL_SURFACE('',#393,30.,5.);
#41=TOROIDAL_SURFACE('',#403,43.,0.499999999999999);
#42=TOROIDAL_SURFACE('',#407,43.,0.499999999999999);
#43=TOROIDAL_SURFACE('',#420,30.,5.);
#44=CYLINDRICAL_SURFACE('',#385,25.);
#45=CYLINDRICAL_SURFACE('',#397,50.);
#46=CYLINDRICAL_SURFACE('',#405,42.5);
#47=CYLINDRICAL_SURFACE('',#414,50.);
#48=CYLINDRICAL_SURFACE('',#422,31.5);
#49=CYLINDRICAL_SURFACE('',#424,31.5);
#50=FACE_BOUND('',#125,.T.);
#51=FACE_BOUND('',#126,.T.);
#52=FACE_BOUND('',#127,.T.);
#53=FACE_BOUND('',#128,.T.);
#54=FACE_BOUND('',#131,.T.);
#55=FACE_BOUND('',#132,.T.);
#56=FACE_BOUND('',#133,.T.);
#57=FACE_BOUND('',#134,.T.);
#58=FACE_BOUND('',#135,.T.);
#59=FACE_BOUND('',#136,.T.);
#60=FACE_BOUND('',#137,.T.);
#61=FACE_BOUND('',#138,.T.);
#62=FACE_BOUND('',#139,.T.);
#63=FACE_BOUND('',#140,.T.);
#64=FACE_BOUND('',#141,.T.);
#65=FACE_BOUND('',#142,.T.);
#66=FACE_BOUND('',#143,.T.);
#67=FACE_BOUND('',#144,.T.);
#68=FACE_BOUND('',#145,.T.);
#69=FACE_BOUND('',#146,.T.);
#70=FACE_BOUND('',#147,.T.);
#71=FACE_BOUND('',#148,.T.);
#72=FACE_BOUND('',#151,.T.);
#73=FACE_BOUND('',#152,.T.);
#74=FACE_BOUND('',#156,.T.);
#75=FACE_BOUND('',#157,.T.);
#76=PLANE('',#381);
#77=PLANE('',#389);
#78=PLANE('',#401);
#79=PLANE('',#409);
#80=PLANE('',#416);
#81=PLANE('',#419);
#82=PLANE('',#425);
#83=ADVANCED_FACE('',(#112),#106,.T.);
#84=ADVANCED_FACE('',(#113),#107,.T.);
#85=ADVANCED_FACE('',(#114),#76,.F.);
#86=ADVANCED_FACE('',(#50,#51),#44,.T.);
#87=ADVANCED_FACE('',(#52,#53),#77,.F.);
#88=ADVANCED_FACE('',(#115),#40,.F.);
#89=ADVANCED_FACE('',(#116),#108,.T.);
#90=ADVANCED_FACE('',(#54,#55),#45,.T.);
#91=ADVANCED_FACE('',(#56,#57),#109,.T.);
#92=ADVANCED_FACE('',(#58,#59),#78,.F.);
#93=ADVANCED_FACE('',(#60,#61),#41,.F.);
#94=ADVANCED_FACE('',(#62,#63),#46,.T.);
#95=ADVANCED_FACE('',(#64,#65),#42,.F.);
#96=ADVANCED_FACE('',(#66,#67),#79,.F.);
#97=ADVANCED_FACE('',(#68,#69),#110,.T.);
#98=ADVANCED_FACE('',(#70,#71),#47,.T.);
#99=ADVANCED_FACE('',(#117),#80,.F.);
#100=ADVANCED_FACE('',(#118),#111,.T.);
#101=ADVANCED_FACE('',(#72,#73),#81,.F.);
#102=ADVANCED_FACE('',(#119),#43,.F.);
#103=ADVANCED_FACE('',(#120),#48,.T.);
#104=ADVANCED_FACE('',(#121),#49,.T.);
#105=ADVANCED_FACE('',(#74,#75),#82,.F.);
#106=CONICAL_SURFACE('',#377,30.5,60.0000000000004);
#107=CONICAL_SURFACE('',#380,30.5,60.0000000000004);
#108=CONICAL_SURFACE('',#395,34.9979162658848,8.29710000000004);
#109=CONICAL_SURFACE('',#399,43.071677826491,60.0000000000001);
#110=CONICAL_SURFACE('',#411,50.,60.0000000000001);
#111=CONICAL_SURFACE('',#417,34.9979162658848,8.29710000000004);
#112=FACE_OUTER_BOUND('',#122,.T.);
#113=FACE_OUTER_BOUND('',#123,.T.);
#114=FACE_OUTER_BOUND('',#124,.T.);
#115=FACE_OUTER_BOUND('',#129,.T.);
#116=FACE_OUTER_BOUND('',#130,.T.);
#117=FACE_OUTER_BOUND('',#149,.T.);
#118=FACE_OUTER_BOUND('',#150,.T.);
#119=FACE_OUTER_BOUND('',#153,.T.);
#120=FACE_OUTER_BOUND('',#154,.T.);
#121=FACE_OUTER_BOUND('',#155,.T.);
#122=EDGE_LOOP('',(#186,#187,#188,#189));
#123=EDGE_LOOP('',(#190,#191,#192,#193));
#124=EDGE_LOOP('',(#194,#195));
#125=EDGE_LOOP('',(#196,#197,#198,#199,#200,#201));
#126=EDGE_LOOP('',(#202));
#127=EDGE_LOOP('',(#203));
#128=EDGE_LOOP('',(#204,#205));
#129=EDGE_LOOP('',(#206,#207,#208,#209));
#130=EDGE_LOOP('',(#210,#211,#212,#213));
#131=EDGE_LOOP('',(#214));
#132=EDGE_LOOP('',(#215));
#133=EDGE_LOOP('',(#216));
#134=EDGE_LOOP('',(#217));
#135=EDGE_LOOP('',(#218));
#136=EDGE_LOOP('',(#219));
#137=EDGE_LOOP('',(#220));
#138=EDGE_LOOP('',(#221));
#139=EDGE_LOOP('',(#222));
#140=EDGE_LOOP('',(#223));
#141=EDGE_LOOP('',(#224));
#142=EDGE_LOOP('',(#225));
#143=EDGE_LOOP('',(#226));
#144=EDGE_LOOP('',(#227));
#145=EDGE_LOOP('',(#228));
#146=EDGE_LOOP('',(#229));
#147=EDGE_LOOP('',(#230));
#148=EDGE_LOOP('',(#231,#232,#233,#234,#235,#236));
#149=EDGE_LOOP('',(#237,#238));
#150=EDGE_LOOP('',(#239,#240,#241,#242));
#151=EDGE_LOOP('',(#243,#244));
#152=EDGE_LOOP('',(#245,#246));
#153=EDGE_LOOP('',(#247,#248,#249,#250));
#154=EDGE_LOOP('',(#251,#252,#253,#254));
#155=EDGE_LOOP('',(#255,#256,#257,#258));
#156=EDGE_LOOP('',(#259));
#157=EDGE_LOOP('',(#260,#261));
#158=CIRCLE('',#375,31.5);
#159=CIRCLE('',#376,24.75);
#160=CIRCLE('',#378,31.5);
#161=CIRCLE('',#379,24.75);
#162=CIRCLE('',#382,25.);
#163=CIRCLE('',#383,25.);
#164=CIRCLE('',#384,25.);
#165=CIRCLE('',#386,50.);
#166=CIRCLE('',#387,35.3624975953087);
#167=CIRCLE('',#388,35.3624975953087);
#168=CIRCLE('',#390,30.);
#169=CIRCLE('',#391,5.);
#170=CIRCLE('',#392,5.);
#171=CIRCLE('',#394,20.079248265859);
#172=CIRCLE('',#396,50.);
#173=CIRCLE('',#398,43.071677826491);
#174=CIRCLE('',#400,43.);
#175=CIRCLE('',#402,42.5);
#176=CIRCLE('',#404,42.5);
#177=CIRCLE('',#406,43.);
#178=CIRCLE('',#408,43.071677826491);
#179=CIRCLE('',#410,50.);
#180=CIRCLE('',#412,50.);
#181=CIRCLE('',#413,50.);
#182=CIRCLE('',#415,20.079248265859);
#183=CIRCLE('',#418,30.);
#184=CIRCLE('',#421,31.5);
#185=CIRCLE('',#423,31.5);
#186=ORIENTED_EDGE('',*,*,#292,.T.);
#187=ORIENTED_EDGE('',*,*,#293,.T.);
#188=ORIENTED_EDGE('',*,*,#294,.F.);
#189=ORIENTED_EDGE('',*,*,#295,.F.);
#190=ORIENTED_EDGE('',*,*,#294,.T.);
#191=ORIENTED_EDGE('',*,*,#296,.T.);
#192=ORIENTED_EDGE('',*,*,#292,.F.);
#193=ORIENTED_EDGE('',*,*,#297,.F.);
#194=ORIENTED_EDGE('',*,*,#295,.T.);
#195=ORIENTED_EDGE('',*,*,#297,.T.);
#196=ORIENTED_EDGE('',*,*,#298,.F.);
#197=ORIENTED_EDGE('',*,*,#298,.T.);
#198=ORIENTED_EDGE('',*,*,#299,.T.);
#199=ORIENTED_EDGE('',*,*,#300,.F.);
#200=ORIENTED_EDGE('',*,*,#300,.T.);
#201=ORIENTED_EDGE('',*,*,#301,.T.);
#202=ORIENTED_EDGE('',*,*,#302,.T.);
#203=ORIENTED_EDGE('',*,*,#303,.T.);
#204=ORIENTED_EDGE('',*,*,#304,.T.);
#205=ORIENTED_EDGE('',*,*,#305,.T.);
#206=ORIENTED_EDGE('',*,*,#306,.F.);
#207=ORIENTED_EDGE('',*,*,#307,.T.);
#208=ORIENTED_EDGE('',*,*,#299,.F.);
#209=ORIENTED_EDGE('',*,*,#308,.F.);
#210=ORIENTED_EDGE('',*,*,#309,.F.);
#211=ORIENTED_EDGE('',*,*,#310,.F.);
#212=ORIENTED_EDGE('',*,*,#305,.F.);
#213=ORIENTED_EDGE('',*,*,#311,.T.);
#214=ORIENTED_EDGE('',*,*,#303,.F.);
#215=ORIENTED_EDGE('',*,*,#312,.T.);
#216=ORIENTED_EDGE('',*,*,#312,.F.);
#217=ORIENTED_EDGE('',*,*,#313,.T.);
#218=ORIENTED_EDGE('',*,*,#313,.F.);
#219=ORIENTED_EDGE('',*,*,#314,.T.);
#220=ORIENTED_EDGE('',*,*,#314,.F.);
#221=ORIENTED_EDGE('',*,*,#315,.T.);
#222=ORIENTED_EDGE('',*,*,#315,.F.);
#223=ORIENTED_EDGE('',*,*,#316,.T.);
#224=ORIENTED_EDGE('',*,*,#316,.F.);
#225=ORIENTED_EDGE('',*,*,#317,.T.);
#226=ORIENTED_EDGE('',*,*,#317,.F.);
#227=ORIENTED_EDGE('',*,*,#318,.T.);
#228=ORIENTED_EDGE('',*,*,#318,.F.);
#229=ORIENTED_EDGE('',*,*,#319,.T.);
#230=ORIENTED_EDGE('',*,*,#319,.F.);
#231=ORIENTED_EDGE('',*,*,#320,.F.);
#232=ORIENTED_EDGE('',*,*,#321,.T.);
#233=ORIENTED_EDGE('',*,*,#322,.T.);
#234=ORIENTED_EDGE('',*,*,#322,.F.);
#235=ORIENTED_EDGE('',*,*,#323,.T.);
#236=ORIENTED_EDGE('',*,*,#320,.T.);
#237=ORIENTED_EDGE('',*,*,#309,.T.);
#238=ORIENTED_EDGE('',*,*,#324,.T.);
#239=ORIENTED_EDGE('',*,*,#310,.T.);
#240=ORIENTED_EDGE('',*,*,#324,.F.);
#241=ORIENTED_EDGE('',*,*,#311,.F.);
#242=ORIENTED_EDGE('',*,*,#304,.F.);
#243=ORIENTED_EDGE('',*,*,#325,.T.);
#244=ORIENTED_EDGE('',*,*,#306,.T.);
#245=ORIENTED_EDGE('',*,*,#323,.F.);
#246=ORIENTED_EDGE('',*,*,#321,.F.);
#247=ORIENTED_EDGE('',*,*,#307,.F.);
#248=ORIENTED_EDGE('',*,*,#325,.F.);
#249=ORIENTED_EDGE('',*,*,#308,.T.);
#250=ORIENTED_EDGE('',*,*,#301,.F.);
#251=ORIENTED_EDGE('',*,*,#293,.F.);
#252=ORIENTED_EDGE('',*,*,#326,.T.);
#253=ORIENTED_EDGE('',*,*,#327,.T.);
#254=ORIENTED_EDGE('',*,*,#328,.F.);
#255=ORIENTED_EDGE('',*,*,#296,.F.);
#256=ORIENTED_EDGE('',*,*,#328,.T.);
#257=ORIENTED_EDGE('',*,*,#329,.T.);
#258=ORIENTED_EDGE('',*,*,#326,.F.);
#259=ORIENTED_EDGE('',*,*,#302,.F.);
#260=ORIENTED_EDGE('',*,*,#327,.F.);
#261=ORIENTED_EDGE('',*,*,#329,.F.);
#262=VERTEX_POINT('',#551);
#263=VERTEX_POINT('',#552);
#264=VERTEX_POINT('',#554);
#265=VERTEX_POINT('',#556);
#266=VERTEX_POINT('',#564);
#267=VERTEX_POINT('',#565);
#268=VERTEX_POINT('',#567);
#269=VERTEX_POINT('',#569);
#270=VERTEX_POINT('',#572);
#271=VERTEX_POINT('',#575);
#272=VERTEX_POINT('',#577);
#273=VERTEX_POINT('',#578);
#274=VERTEX_POINT('',#582);
#275=VERTEX_POINT('',#583);
#276=VERTEX_POINT('',#588);
#277=VERTEX_POINT('',#589);
#278=VERTEX_POINT('',#594);
#279=VERTEX_POINT('',#597);
#280=VERTEX_POINT('',#600);
#281=VERTEX_POINT('',#603);
#282=VERTEX_POINT('',#606);
#283=VERTEX_POINT('',#609);
#284=VERTEX_POINT('',#612);
#285=VERTEX_POINT('',#615);
#286=VERTEX_POINT('',#618);
#287=VERTEX_POINT('',#619);
#288=VERTEX_POINT('',#621);
#289=VERTEX_POINT('',#623);
#290=VERTEX_POINT('',#633);
#291=VERTEX_POINT('',#635);
#292=EDGE_CURVE('',#262,#263,#330,.T.);
#293=EDGE_CURVE('',#263,#264,#158,.T.);
#294=EDGE_CURVE('',#265,#264,#331,.T.);
#295=EDGE_CURVE('',#262,#265,#159,.T.);
#296=EDGE_CURVE('',#264,#263,#160,.T.);
#297=EDGE_CURVE('',#265,#262,#161,.T.);
#298=EDGE_CURVE('',#266,#267,#332,.T.);
#299=EDGE_CURVE('',#267,#268,#162,.T.);
#300=EDGE_CURVE('',#269,#268,#333,.T.);
#301=EDGE_CURVE('',#268,#267,#163,.T.);
#302=EDGE_CURVE('',#270,#270,#164,.T.);
#303=EDGE_CURVE('',#271,#271,#165,.T.);
#304=EDGE_CURVE('',#272,#273,#166,.T.);
#305=EDGE_CURVE('',#273,#272,#167,.T.);
#306=EDGE_CURVE('',#274,#275,#168,.T.);
#307=EDGE_CURVE('',#274,#268,#169,.T.);
#308=EDGE_CURVE('',#275,#267,#170,.T.);
#309=EDGE_CURVE('',#276,#277,#171,.T.);
#310=EDGE_CURVE('',#272,#276,#334,.T.);
#311=EDGE_CURVE('',#273,#277,#335,.T.);
#312=EDGE_CURVE('',#278,#278,#172,.T.);
#313=EDGE_CURVE('',#279,#279,#173,.T.);
#314=EDGE_CURVE('',#280,#280,#174,.T.);
#315=EDGE_CURVE('',#281,#281,#175,.T.);
#316=EDGE_CURVE('',#282,#282,#176,.T.);
#317=EDGE_CURVE('',#283,#283,#177,.T.);
#318=EDGE_CURVE('',#284,#284,#178,.T.);
#319=EDGE_CURVE('',#285,#285,#179,.T.);
#320=EDGE_CURVE('',#286,#287,#336,.T.);
#321=EDGE_CURVE('',#286,#288,#180,.T.);
#322=EDGE_CURVE('',#288,#289,#337,.T.);
#323=EDGE_CURVE('',#288,#286,#181,.T.);
#324=EDGE_CURVE('',#277,#276,#182,.T.);
#325=EDGE_CURVE('',#275,#274,#183,.T.);
#326=EDGE_CURVE('',#263,#290,#338,.T.);
#327=EDGE_CURVE('',#290,#291,#184,.T.);
#328=EDGE_CURVE('',#264,#291,#339,.T.);
#329=EDGE_CURVE('',#291,#290,#185,.T.);
#330=LINE('',#550,#340);
#331=LINE('',#555,#341);
#332=LINE('',#563,#342);
#333=LINE('',#568,#343);
#334=LINE('',#590,#344);
#335=LINE('',#591,#345);
#336=LINE('',#617,#346);
#337=LINE('',#622,#347);
#338=LINE('',#632,#348);
#339=LINE('',#636,#349);
#340=VECTOR('',#434,1.);
#341=VECTOR('',#437,1.);
#342=VECTOR('',#450,1.);
#343=VECTOR('',#453,1.);
#344=VECTOR('',#478,1.);
#345=VECTOR('',#479,1.);
#346=VECTOR('',#514,1.);
#347=VECTOR('',#517,1.);
#348=VECTOR('',#534,1.);
#349=VECTOR('',#537,1.);
#350=INVISIBILITY((#351,#352,#353,#354));
#351=PRESENTATION_LAYER_ASSIGNMENT('100','Layer 100',(#372));
#352=PRESENTATION_LAYER_ASSIGNMENT('101','Layer 101',(#373));
#353=PRESENTATION_LAYER_ASSIGNMENT('102','Layer 102',(#374));
#354=PRESENTATION_LAYER_ASSIGNMENT('98','Layer 98',(#38));
#355=STYLED_ITEM('',(#359),#372);
#356=STYLED_ITEM('',(#360),#373);
#357=STYLED_ITEM('',(#361),#374);
#358=STYLED_ITEM('',(#362),#38);
#359=PRESENTATION_STYLE_ASSIGNMENT((#363));
#360=PRESENTATION_STYLE_ASSIGNMENT((#364));
#361=PRESENTATION_STYLE_ASSIGNMENT((#365));
#362=PRESENTATION_STYLE_ASSIGNMENT((#33));
#363=CURVE_STYLE('',#368,POSITIVE_LENGTH_MEASURE(0.7),#366);
#364=CURVE_STYLE('',#369,POSITIVE_LENGTH_MEASURE(0.7),#366);
#365=CURVE_STYLE('',#370,POSITIVE_LENGTH_MEASURE(0.7),#366);
#366=COLOUR_RGB('Medium Maroon',0.6,0.4,0.4);
#367=COLOUR_RGB('Medium Gray',0.490196078431373,0.490196078431373,0.490196078431373);
#368=DRAUGHTING_PRE_DEFINED_CURVE_FONT('continuous');
#369=DRAUGHTING_PRE_DEFINED_CURVE_FONT('continuous');
#370=DRAUGHTING_PRE_DEFINED_CURVE_FONT('continuous');
#371=AXIS2_PLACEMENT_3D('',#546,#426,#427);
#372=AXIS2_PLACEMENT_3D('PCS',#547,#428,#429);
#373=AXIS2_PLACEMENT_3D('CSW',#548,#430,#431);
#374=AXIS2_PLACEMENT_3D('MCS',#549,#432,#433);
#375=AXIS2_PLACEMENT_3D('',#553,#435,#436);
#376=AXIS2_PLACEMENT_3D('',#557,#438,#439);
#377=AXIS2_PLACEMENT_3D('',#558,#440,#441);
#378=AXIS2_PLACEMENT_3D('',#559,#442,#443);
#379=AXIS2_PLACEMENT_3D('',#560,#444,#445);
#380=AXIS2_PLACEMENT_3D('',#561,#446,#447);
#381=AXIS2_PLACEMENT_3D('',#562,#448,#449);
#382=AXIS2_PLACEMENT_3D('',#566,#451,#452);
#383=AXIS2_PLACEMENT_3D('',#570,#454,#455);
#384=AXIS2_PLACEMENT_3D('',#571,#456,#457);
#385=AXIS2_PLACEMENT_3D('',#573,#458,#459);
#386=AXIS2_PLACEMENT_3D('',#574,#460,#461);
#387=AXIS2_PLACEMENT_3D('',#576,#462,#463);
#388=AXIS2_PLACEMENT_3D('',#579,#464,#465);
#389=AXIS2_PLACEMENT_3D('',#580,#466,#467);
#390=AXIS2_PLACEMENT_3D('',#581,#468,#469);
#391=AXIS2_PLACEMENT_3D('',#584,#470,#471);
#392=AXIS2_PLACEMENT_3D('',#585,#472,#473);
#393=AXIS2_PLACEMENT_3D('',#586,#474,#475);
#394=AXIS2_PLACEMENT_3D('',#587,#476,#477);
#395=AXIS2_PLACEMENT_3D('',#592,#480,#481);
#396=AXIS2_PLACEMENT_3D('',#593,#482,#483);
#397=AXIS2_PLACEMENT_3D('',#595,#484,#485);
#398=AXIS2_PLACEMENT_3D('',#596,#486,#487);
#399=AXIS2_PLACEMENT_3D('',#598,#488,#489);
#400=AXIS2_PLACEMENT_3D('',#599,#490,#491);
#401=AXIS2_PLACEMENT_3D('',#601,#492,#493);
#402=AXIS2_PLACEMENT_3D('',#602,#494,#495);
#403=AXIS2_PLACEMENT_3D('',#604,#496,#497);
#404=AXIS2_PLACEMENT_3D('',#605,#498,#499);
#405=AXIS2_PLACEMENT_3D('',#607,#500,#501);
#406=AXIS2_PLACEMENT_3D('',#608,#502,#503);
#407=AXIS2_PLACEMENT_3D('',#610,#504,#505);
#408=AXIS2_PLACEMENT_3D('',#611,#506,#507);
#409=AXIS2_PLACEMENT_3D('',#613,#508,#509);
#410=AXIS2_PLACEMENT_3D('',#614,#510,#511);
#411=AXIS2_PLACEMENT_3D('',#616,#512,#513);
#412=AXIS2_PLACEMENT_3D('',#620,#515,#516);
#413=AXIS2_PLACEMENT_3D('',#624,#518,#519);
#414=AXIS2_PLACEMENT_3D('',#625,#520,#521);
#415=AXIS2_PLACEMENT_3D('',#626,#522,#523);
#416=AXIS2_PLACEMENT_3D('',#627,#524,#525);
#417=AXIS2_PLACEMENT_3D('',#628,#526,#527);
#418=AXIS2_PLACEMENT_3D('',#629,#528,#529);
#419=AXIS2_PLACEMENT_3D('',#630,#530,#531);
#420=AXIS2_PLACEMENT_3D('',#631,#532,#533);
#421=AXIS2_PLACEMENT_3D('',#634,#535,#536);
#422=AXIS2_PLACEMENT_3D('',#637,#538,#539);
#423=AXIS2_PLACEMENT_3D('',#638,#540,#541);
#424=AXIS2_PLACEMENT_3D('',#639,#542,#543);
#425=AXIS2_PLACEMENT_3D('',#640,#544,#545);
#426=DIRECTION('',(0.,0.,1.));
#427=DIRECTION('',(1.,0.,0.));
#428=DIRECTION('',(0.,0.,1.));
#429=DIRECTION('',(1.,0.,0.));
#430=DIRECTION('',(0.,0.,1.));
#431=DIRECTION('',(1.,0.,0.));
#432=DIRECTION('',(0.,0.,1.));
#433=DIRECTION('',(1.,0.,0.));
#434=DIRECTION('',(-0.865995096589524,-0.00724518342805225,0.499999999999995));
#435=DIRECTION('',(0.,0.,-1.));
#436=DIRECTION('',(1.,0.,0.));
#437=DIRECTION('',(0.865995096589524,0.00724518342805236,0.499999999999995));
#438=DIRECTION('',(0.,0.,-1.));
#439=DIRECTION('',(1.,0.,0.));
#440=DIRECTION('',(0.,0.,1.));
#441=DIRECTION('',(-0.999965004265712,-0.00836601720502846,3.14947807421363E-17));
#442=DIRECTION('',(0.,0.,-1.));
#443=DIRECTION('',(1.,0.,0.));
#444=DIRECTION('',(0.,0.,-1.));
#445=DIRECTION('',(1.,0.,0.));
#446=DIRECTION('',(0.,0.,1.));
#447=DIRECTION('',(-0.999965004265712,-0.00836601720502846,3.14947807421363E-17));
#448=DIRECTION('',(0.,0.,1.));
#449=DIRECTION('',(-0.999965004265712,-0.00836601720502846,0.));
#450=DIRECTION('',(0.,0.,1.));
#451=DIRECTION('',(0.,0.,-1.));
#452=DIRECTION('',(1.,0.,0.));
#453=DIRECTION('',(0.,0.,1.));
#454=DIRECTION('',(0.,0.,-1.));
#455=DIRECTION('',(1.,0.,0.));
#456=DIRECTION('',(0.,0.,1.));
#457=DIRECTION('',(-1.,0.,0.));
#458=DIRECTION('',(0.,0.,1.));
#459=DIRECTION('',(-1.,0.,0.));
#460=DIRECTION('',(0.,0.,1.));
#461=DIRECTION('',(-1.,0.,0.));
#462=DIRECTION('',(0.,0.,-1.));
#463=DIRECTION('',(-1.,0.,0.));
#464=DIRECTION('',(0.,0.,-1.));
#465=DIRECTION('',(-1.,0.,0.));
#466=DIRECTION('',(0.,0.,-1.));
#467=DIRECTION('',(1.,0.,0.));
#468=DIRECTION('',(0.,0.,1.));
#469=DIRECTION('',(1.,0.,0.));
#470=DIRECTION('',(1.22464679914735E-16,1.,0.));
#471=DIRECTION('',(1.,-1.22464679914735E-16,0.));
#472=DIRECTION('',(0.,-1.,0.));
#473=DIRECTION('',(-1.,0.,0.));
#474=DIRECTION('',(0.,0.,1.));
#475=DIRECTION('',(-1.,0.,0.));
#476=DIRECTION('',(0.,0.,1.));
#477=DIRECTION('',(-1.,0.,0.));
#478=DIRECTION('',(-0.144306116415234,-1.76724023565302E-17,0.989533094325376));
#479=DIRECTION('',(0.144306116415234,0.,0.989533094325376));
#480=DIRECTION('',(0.,0.,-1.));
#481=DIRECTION('',(1.,0.,4.02909945656639E-16));
#482=DIRECTION('',(0.,0.,1.));
#483=DIRECTION('',(1.,0.,0.));
#484=DIRECTION('',(0.,0.,1.));
#485=DIRECTION('',(-1.,0.,0.));
#486=DIRECTION('',(0.,0.,1.));
#487=DIRECTION('',(1.,0.,0.));
#488=DIRECTION('',(0.,0.,1.));
#489=DIRECTION('',(-1.,0.,-2.14993144334992E-17));
#490=DIRECTION('',(0.,0.,1.));
#491=DIRECTION('',(1.,0.,0.));
#492=DIRECTION('',(0.,0.,1.));
#493=DIRECTION('',(-1.,0.,0.));
#494=DIRECTION('',(0.,0.,1.));
#495=DIRECTION('',(1.,0.,0.));
#496=DIRECTION('',(0.,0.,1.));
#497=DIRECTION('',(-1.,0.,0.));
#498=DIRECTION('',(0.,0.,1.));
#499=DIRECTION('',(1.,0.,0.));
#500=DIRECTION('',(0.,0.,1.));
#501=DIRECTION('',(-1.,0.,0.));
#502=DIRECTION('',(0.,0.,1.));
#503=DIRECTION('',(1.,0.,0.));
#504=DIRECTION('',(0.,0.,1.));
#505=DIRECTION('',(-1.,0.,0.));
#506=DIRECTION('',(0.,0.,1.));
#507=DIRECTION('',(1.,0.,0.));
#508=DIRECTION('',(0.,0.,-1.));
#509=DIRECTION('',(1.,0.,0.));
#510=DIRECTION('',(0.,0.,1.));
#511=DIRECTION('',(1.,0.,0.));
#512=DIRECTION('',(0.,0.,-1.));
#513=DIRECTION('',(1.,0.,-2.14157286141318E-17));
#514=DIRECTION('',(0.,0.,1.));
#515=DIRECTION('',(0.,0.,1.));
#516=DIRECTION('',(1.,0.,0.));
#517=DIRECTION('',(0.,0.,1.));
#518=DIRECTION('',(0.,0.,1.));
#519=DIRECTION('',(1.,0.,0.));
#520=DIRECTION('',(0.,0.,1.));
#521=DIRECTION('',(-1.,0.,0.));
#522=DIRECTION('',(0.,0.,1.));
#523=DIRECTION('',(-1.,0.,0.));
#524=DIRECTION('',(0.,0.,-1.));
#525=DIRECTION('',(1.,0.,0.));
#526=DIRECTION('',(0.,0.,-1.));
#527=DIRECTION('',(1.,0.,4.02909945656639E-16));
#528=DIRECTION('',(0.,0.,1.));
#529=DIRECTION('',(1.,0.,0.));
#530=DIRECTION('',(0.,0.,1.));
#531=DIRECTION('',(-1.,0.,0.));
#532=DIRECTION('',(0.,0.,1.));
#533=DIRECTION('',(-1.,0.,0.));
#534=DIRECTION('',(0.,0.,1.));
#535=DIRECTION('',(0.,0.,-1.));
#536=DIRECTION('',(-1.,0.,0.));
#537=DIRECTION('',(0.,0.,1.));
#538=DIRECTION('',(0.,0.,-1.));
#539=DIRECTION('',(0.999965004265712,0.00836601720502846,0.));
#540=DIRECTION('',(0.,0.,-1.));
#541=DIRECTION('',(-1.,0.,0.));
#542=DIRECTION('',(0.,0.,-1.));
#543=DIRECTION('',(0.999965004265712,0.00836601720502846,0.));
#544=DIRECTION('',(0.,0.,-1.));
#545=DIRECTION('',(0.999965004265712,0.00836601720502846,0.));
#546=CARTESIAN_POINT('',(0.,0.,0.));
#547=CARTESIAN_POINT('',(0.,0.,0.));
#548=CARTESIAN_POINT('',(0.,0.,-150.));
#549=CARTESIAN_POINT('',(0.,0.,0.));
#550=CARTESIAN_POINT('',(-30.4989076301896,-0.255163524753363,-151.38023595216));
#551=CARTESIAN_POINT('',(-24.7491088556618,-0.20705892582445,-154.7));
#552=CARTESIAN_POINT('',(-31.4988726344553,-0.263529541958392,-150.80288568297));
#553=CARTESIAN_POINT('',(2.49999145780429E-5,1.73472347597681E-15,-150.80288568297));
#554=CARTESIAN_POINT('',(31.4989226342845,0.263529541958399,-150.80288568297));
#555=CARTESIAN_POINT('',(30.4989576300188,0.25516352475337,-151.38023595216));
#556=CARTESIAN_POINT('',(24.749158855491,0.207058925824457,-154.7));
#557=CARTESIAN_POINT('',(2.49999145780429E-5,1.73472347597681E-15,-154.7));
#558=CARTESIAN_POINT('',(2.49999145780429E-5,1.73472347597681E-15,-151.38023595216));
#559=CARTESIAN_POINT('',(2.49999145780429E-5,1.73472347597681E-15,-150.80288568297));
#560=CARTESIAN_POINT('',(2.49999145780429E-5,1.73472347597681E-15,-154.7));
#561=CARTESIAN_POINT('',(2.49999145780429E-5,1.73472347597681E-15,-151.38023595216));
#562=CARTESIAN_POINT('',(-0.13914369629107,16.6344178459601,-154.7));
#563=CARTESIAN_POINT('',(25.0000249999146,0.,-88.7524800062801));
#564=CARTESIAN_POINT('',(25.0000249999146,0.,-128.));
#565=CARTESIAN_POINT('',(25.0000249999146,0.,-43.));
#566=CARTESIAN_POINT('',(2.49999145776059E-5,0.,-43.));
#567=CARTESIAN_POINT('',(-24.9999750000854,3.46944695195361E-15,-43.));
#568=CARTESIAN_POINT('',(-24.9999750000854,3.46944695195361E-15,-88.7524800062801));
#569=CARTESIAN_POINT('',(-24.9999750000854,3.46944695195361E-15,-128.75));
#570=CARTESIAN_POINT('',(2.49999145776059E-5,0.,-43.));
#571=CARTESIAN_POINT('',(2.49999145776059E-5,0.,-129.2));
#572=CARTESIAN_POINT('',(-24.9999750000854,0.,-129.2));
#573=CARTESIAN_POINT('',(2.49999145776059E-5,0.,-88.7524800062801));
#574=CARTESIAN_POINT('',(2.49999145776059E-5,0.,-3.00000000000002));
#575=CARTESIAN_POINT('',(-49.9999750000854,0.,-3.00000000000002));
#576=CARTESIAN_POINT('',(2.49999145776059E-5,0.,-3.00000000000002));
#577=CARTESIAN_POINT('',(35.3625225952232,0.,-3.00000000000002));
#578=CARTESIAN_POINT('',(-35.3624725953941,-4.33065694899507E-15,-3.00000000000002));
#579=CARTESIAN_POINT('',(2.49999145776059E-5,0.,-3.00000000000002));
#580=CARTESIAN_POINT('',(2.49999145776059E-5,35.3979162658848,-3.00000000000002));
#581=CARTESIAN_POINT('',(2.49999145776059E-5,0.,-38.));
#582=CARTESIAN_POINT('',(-29.9999750000854,3.46944695195361E-15,-38.));
#583=CARTESIAN_POINT('',(30.0000249999146,0.,-38.));
#584=CARTESIAN_POINT('',(-29.9999750000854,3.46944695195361E-15,-43.));
#585=CARTESIAN_POINT('',(30.0000249999146,0.,-43.));
#586=CARTESIAN_POINT('',(2.49999145776059E-5,0.,-43.));
#587=CARTESIAN_POINT('',(2.49999145776059E-5,0.,101.8));
#588=CARTESIAN_POINT('',(20.0792732657735,1.64243705057625E-15,101.8));
#589=CARTESIAN_POINT('',(-20.0792232659444,0.,101.8));
#590=CARTESIAN_POINT('',(34.9979412657993,3.46944695195361E-15,-0.500000000000018));
#591=CARTESIAN_POINT('',(-34.9978912659702,0.,-0.500000000000018));
#592=CARTESIAN_POINT('',(2.49999145776059E-5,0.,-0.500000000000018));
#593=CARTESIAN_POINT('',(2.49999145776059E-5,0.,-15.6999313280922));
#594=CARTESIAN_POINT('',(50.0000249999146,0.,-15.6999313280922));
#595=CARTESIAN_POINT('',(2.49999145776059E-5,0.,-88.7524800062801));
#596=CARTESIAN_POINT('',(2.49999145776059E-5,0.,-19.7));
#597=CARTESIAN_POINT('',(43.0717028264056,0.,-19.7));
#598=CARTESIAN_POINT('',(2.49999145776059E-5,0.,-19.7));
#599=CARTESIAN_POINT('',(2.49999145776059E-5,0.,-19.7));
#600=CARTESIAN_POINT('',(43.0000249999146,0.,-19.7));
#601=CARTESIAN_POINT('',(2.49999145776059E-5,43.071677826491,-19.7));
#602=CARTESIAN_POINT('',(2.49999145776059E-5,0.,-20.2));
#603=CARTESIAN_POINT('',(42.5000249999146,0.,-20.2));
#604=CARTESIAN_POINT('',(2.49999145776059E-5,0.,-20.2));
#605=CARTESIAN_POINT('',(2.49999145776059E-5,0.,-26.2));
#606=CARTESIAN_POINT('',(42.5000249999146,0.,-26.2));
#607=CARTESIAN_POINT('',(2.49999145776059E-5,0.,-88.7524800062801));
#608=CARTESIAN_POINT('',(2.49999145776059E-5,0.,-26.7));
#609=CARTESIAN_POINT('',(43.0000249999146,0.,-26.7));
#610=CARTESIAN_POINT('',(2.49999145776059E-5,0.,-26.2));
#611=CARTESIAN_POINT('',(2.49999145776059E-5,0.,-26.7));
#612=CARTESIAN_POINT('',(43.0717028264056,0.,-26.7));
#613=CARTESIAN_POINT('',(2.49999145776059E-5,43.,-26.7));
#614=CARTESIAN_POINT('',(2.49999145776059E-5,0.,-30.7000686719079));
#615=CARTESIAN_POINT('',(50.0000249999146,0.,-30.7000686719079));
#616=CARTESIAN_POINT('',(2.49999145776059E-5,0.,-30.7000686719079));
#617=CARTESIAN_POINT('',(-49.9999750000854,6.93889390390723E-15,-88.7524800062801));
#618=CARTESIAN_POINT('',(-49.9999750000854,6.93889390390723E-15,-38.));
#619=CARTESIAN_POINT('',(-49.9999750000854,3.81639164714898E-14,-34.4999999820237));
#620=CARTESIAN_POINT('',(2.49999145776059E-5,0.,-38.));
#621=CARTESIAN_POINT('',(50.0000249999146,0.,-38.));
#622=CARTESIAN_POINT('',(50.0000249999146,0.,-88.7524800062801));
#623=CARTESIAN_POINT('',(50.0000249999146,-4.25992574548673E-9,-34.4999999657987));
#624=CARTESIAN_POINT('',(2.49999145776059E-5,0.,-38.));
#625=CARTESIAN_POINT('',(2.49999145776059E-5,0.,-88.7524800062801));
#626=CARTESIAN_POINT('',(2.49999145776059E-5,0.,101.8));
#627=CARTESIAN_POINT('',(2.49999145776059E-5,-2.25514051876985E-14,101.8));
#628=CARTESIAN_POINT('',(2.49999145776059E-5,0.,-0.500000000000018));
#629=CARTESIAN_POINT('',(2.49999145776059E-5,0.,-38.));
#630=CARTESIAN_POINT('',(2.49999145776059E-5,49.,-38.));
#631=CARTESIAN_POINT('',(2.49999145776059E-5,0.,-43.));
#632=CARTESIAN_POINT('',(-31.4988726344553,-0.263529541958395,-154.7));
#633=CARTESIAN_POINT('',(-31.4988726344553,-0.263529541958395,-129.2));
#634=CARTESIAN_POINT('',(2.49999145780429E-5,1.73472347597681E-15,-129.2));
#635=CARTESIAN_POINT('',(31.4989226342845,0.263529541958402,-129.2));
#636=CARTESIAN_POINT('',(31.4989226342845,0.263529541958402,-154.7));
#637=CARTESIAN_POINT('',(2.49999145780429E-5,1.73472347597681E-15,-154.7));
#638=CARTESIAN_POINT('',(2.49999145780429E-5,1.73472347597681E-15,-129.2));
#639=CARTESIAN_POINT('',(2.49999145780429E-5,1.73472347597681E-15,-154.7));
#640=CARTESIAN_POINT('',(-0.246772507633761,29.4989676258385,-129.2));
#641=MECHANICAL_DESIGN_GEOMETRIC_PRESENTATION_REPRESENTATION('',(#355,#356,
#357,#358),#642);
#642=(
GEOMETRIC_REPRESENTATION_CONTEXT(3)
GLOBAL_UNCERTAINTY_ASSIGNED_CONTEXT((#643))
GLOBAL_UNIT_ASSIGNED_CONTEXT((#649,#645,#644))
REPRESENTATION_CONTEXT('BT.50ADB-CC.ER40','TOP_LEVEL_ASSEMBLY_PART')
);
#643=UNCERTAINTY_MEASURE_WITH_UNIT(LENGTH_MEASURE(2.E-5),#649,
'DISTANCE_ACCURACY_VALUE','Maximum Tolerance applied to model');
#644=(
NAMED_UNIT(*)
SI_UNIT($,.STERADIAN.)
SOLID_ANGLE_UNIT()
);
#645=(
CONVERSION_BASED_UNIT('DEGREE',#647)
NAMED_UNIT(#646)
PLANE_ANGLE_UNIT()
);
#646=DIMENSIONAL_EXPONENTS(0.,0.,0.,0.,0.,0.,0.);
#647=PLANE_ANGLE_MEASURE_WITH_UNIT(PLANE_ANGLE_MEASURE(0.0174532925),#648);
#648=(
NAMED_UNIT(*)
PLANE_ANGLE_UNIT()
SI_UNIT($,.RADIAN.)
);
#649=(
LENGTH_UNIT()
NAMED_UNIT(*)
SI_UNIT(.MILLI.,.METRE.)
);
ENDSEC;
END-ISO-10303-21;
