ISO-10303-21;
HEADER;
/* Generated by software containing ST-Developer
 * from STEP Tools, Inc. (www.steptools.com) 
 */
/* OPTION: using custom schema-name function */

FILE_DESCRIPTION(
/* description */ (''),
/* implementation_level */ '2;1');

FILE_NAME(
/* name */ 'BT.40ADB-W.12.160.stp',
/* time_stamp */ '2024-08-10T14:24:04+02:00',
/* author */ (''),
/* organization */ (''),
/* preprocessor_version */ 'ST-DEVELOPER v16.7',
/* originating_system */ 'SIEMENS PLM Software NX 12.0',
/* authorisation */ '');

FILE_SCHEMA (('AUTOMOTIVE_DESIGN { 1 0 10303 214 3 1 1 1 }'));
ENDSEC;

DATA;
#10=CONSTRUCTIVE_GEOMETRY_REPRESENTATION_RELATIONSHIP(
'supplemental geometry','',#32,#11);
#11=CONSTRUCTIVE_GEOMETRY_REPRESENTATION('supplemental geometry',(#333,
#334,#335),#574);
#12=PROPERTY_DEFINITION_REPRESENTATION(#16,#14);
#13=PROPERTY_DEFINITION_REPRESENTATION(#17,#15);
#14=REPRESENTATION('',(#18),#574);
#15=REPRESENTATION('',(#19),#574);
#16=PROPERTY_DEFINITION('pmi validation property','',#23);
#17=PROPERTY_DEFINITION('pmi validation property','',#23);
#18=VALUE_REPRESENTATION_ITEM('number of annotations',COUNT_MEASURE(0.));
#19=VALUE_REPRESENTATION_ITEM('number of views',COUNT_MEASURE(0.));
#20=SHAPE_REPRESENTATION_RELATIONSHIP('None',
'relationship between pf6610E89C82zphc-None and pf6610E89C82zphc-None',
#32,#21);
#21=ADVANCED_BREP_SHAPE_REPRESENTATION('pf6610E89C82zphc-None',(#38),#574);
#22=SHAPE_DEFINITION_REPRESENTATION(#23,#32);
#23=PRODUCT_DEFINITION_SHAPE('','',#24);
#24=PRODUCT_DEFINITION(' ','',#26,#25);
#25=PRODUCT_DEFINITION_CONTEXT('part definition',#31,'design');
#26=PRODUCT_DEFINITION_FORMATION_WITH_SPECIFIED_SOURCE(' ',' ',#28,
 .NOT_KNOWN.);
#27=PRODUCT_RELATED_PRODUCT_CATEGORY('part','',(#28));
#28=PRODUCT('pf6610E89C82zphc','pf6610E89C82zphc',' ',(#29));
#29=PRODUCT_CONTEXT(' ',#31,'mechanical');
#30=APPLICATION_PROTOCOL_DEFINITION('international standard',
'automotive_design',2010,#31);
#31=APPLICATION_CONTEXT(
'core data for automotive mechanical design processes');
#32=SHAPE_REPRESENTATION('pf6610E89C82zphc-None',(#332),#574);
#33=SURFACE_STYLE_USAGE(.BOTH.,#34);
#34=SURFACE_SIDE_STYLE('',(#35));
#35=SURFACE_STYLE_FILL_AREA(#36);
#36=FILL_AREA_STYLE('',(#37));
#37=FILL_AREA_STYLE_COLOUR('',#328);
#38=MANIFOLD_SOLID_BREP('\X2\0102010C00AE\X0\G1',#39);
#39=CLOSED_SHELL('',(#95,#96,#97,#98,#99,#100,#101,#102,#103,#104,#105,
#106,#107,#108,#109,#110,#111,#112,#113,#114,#115));
#40=PLANE('',#355);
#41=PLANE('',#358);
#42=PLANE('',#369);
#43=PLANE('',#372);
#44=PLANE('',#375);
#45=PLANE('',#379);
#46=CYLINDRICAL_SURFACE('',#347,31.5);
#47=CYLINDRICAL_SURFACE('',#349,21.);
#48=CYLINDRICAL_SURFACE('',#351,21.);
#49=CYLINDRICAL_SURFACE('',#362,26.5);
#50=CYLINDRICAL_SURFACE('',#366,31.5);
#51=FACE_BOUND('',#132,.T.);
#52=FACE_BOUND('',#133,.T.);
#53=FACE_BOUND('',#136,.T.);
#54=FACE_BOUND('',#137,.T.);
#55=FACE_BOUND('',#138,.T.);
#56=FACE_BOUND('',#139,.T.);
#57=FACE_BOUND('',#140,.T.);
#58=FACE_BOUND('',#141,.T.);
#59=FACE_BOUND('',#142,.T.);
#60=FACE_BOUND('',#143,.T.);
#61=FACE_BOUND('',#144,.T.);
#62=FACE_BOUND('',#145,.T.);
#63=FACE_BOUND('',#146,.T.);
#64=FACE_BOUND('',#147,.T.);
#65=FACE_BOUND('',#148,.T.);
#66=FACE_BOUND('',#149,.T.);
#67=FACE_BOUND('',#150,.T.);
#68=FACE_BOUND('',#151,.T.);
#69=FACE_BOUND('',#152,.T.);
#70=FACE_BOUND('',#153,.T.);
#71=FACE_BOUND('',#154,.T.);
#72=FACE_BOUND('',#155,.T.);
#73=CONICAL_SURFACE('',#343,15.,24.9999999999999);
#74=CONICAL_SURFACE('',#367,27.1696270189222,60.0000000000002);
#75=CONICAL_SURFACE('',#370,31.5,60.0000000000001);
#76=CONICAL_SURFACE('',#374,15.,24.9999999999999);
#77=CONICAL_SURFACE('',#380,22.2979162658848,8.29710000000004);
#78=CONICAL_SURFACE('',#381,22.2979162658848,8.29710000000004);
#79=LINE('',#506,#87);
#80=LINE('',#510,#88);
#81=LINE('',#514,#89);
#82=LINE('',#519,#90);
#83=LINE('',#524,#91);
#84=LINE('',#525,#92);
#85=LINE('',#569,#93);
#86=LINE('',#570,#94);
#87=VECTOR('',#402,1.);
#88=VECTOR('',#405,1.);
#89=VECTOR('',#410,1.);
#90=VECTOR('',#413,1.);
#91=VECTOR('',#420,1.);
#92=VECTOR('',#421,1.);
#93=VECTOR('',#484,1.);
#94=VECTOR('',#485,1.);
#95=ADVANCED_FACE('',(#120),#116,.F.);
#96=ADVANCED_FACE('',(#121),#73,.T.);
#97=ADVANCED_FACE('',(#51,#52),#46,.T.);
#98=ADVANCED_FACE('',(#122),#47,.T.);
#99=ADVANCED_FACE('',(#123),#48,.T.);
#100=ADVANCED_FACE('',(#53,#54),#40,.T.);
#101=ADVANCED_FACE('',(#55,#56),#41,.T.);
#102=ADVANCED_FACE('',(#57,#58),#117,.F.);
#103=ADVANCED_FACE('',(#59,#60),#49,.T.);
#104=ADVANCED_FACE('',(#61,#62),#118,.F.);
#105=ADVANCED_FACE('',(#63,#64),#50,.T.);
#106=ADVANCED_FACE('',(#65,#66),#74,.T.);
#107=ADVANCED_FACE('',(#67,#68),#42,.T.);
#108=ADVANCED_FACE('',(#69,#70),#75,.T.);
#109=ADVANCED_FACE('',(#71,#72),#43,.T.);
#110=ADVANCED_FACE('',(#124),#76,.T.);
#111=ADVANCED_FACE('',(#125),#44,.T.);
#112=ADVANCED_FACE('',(#126),#119,.F.);
#113=ADVANCED_FACE('',(#127),#45,.T.);
#114=ADVANCED_FACE('',(#128),#77,.T.);
#115=ADVANCED_FACE('',(#129),#78,.T.);
#116=TOROIDAL_SURFACE('',#340,26.,5.);
#117=TOROIDAL_SURFACE('',#360,27.,0.5);
#118=TOROIDAL_SURFACE('',#364,27.,0.5);
#119=TOROIDAL_SURFACE('',#376,26.,5.);
#120=FACE_OUTER_BOUND('',#130,.T.);
#121=FACE_OUTER_BOUND('',#131,.T.);
#122=FACE_OUTER_BOUND('',#134,.T.);
#123=FACE_OUTER_BOUND('',#135,.T.);
#124=FACE_OUTER_BOUND('',#156,.T.);
#125=FACE_OUTER_BOUND('',#157,.T.);
#126=FACE_OUTER_BOUND('',#158,.T.);
#127=FACE_OUTER_BOUND('',#159,.T.);
#128=FACE_OUTER_BOUND('',#160,.T.);
#129=FACE_OUTER_BOUND('',#161,.T.);
#130=EDGE_LOOP('',(#162,#163,#164,#165));
#131=EDGE_LOOP('',(#166,#167,#168,#169));
#132=EDGE_LOOP('',(#170));
#133=EDGE_LOOP('',(#171,#172,#173,#174,#175,#176));
#134=EDGE_LOOP('',(#177,#178,#179,#180));
#135=EDGE_LOOP('',(#181,#182,#183,#184));
#136=EDGE_LOOP('',(#185,#186));
#137=EDGE_LOOP('',(#187));
#138=EDGE_LOOP('',(#188));
#139=EDGE_LOOP('',(#189));
#140=EDGE_LOOP('',(#190));
#141=EDGE_LOOP('',(#191));
#142=EDGE_LOOP('',(#192));
#143=EDGE_LOOP('',(#193));
#144=EDGE_LOOP('',(#194));
#145=EDGE_LOOP('',(#195));
#146=EDGE_LOOP('',(#196));
#147=EDGE_LOOP('',(#197));
#148=EDGE_LOOP('',(#198));
#149=EDGE_LOOP('',(#199));
#150=EDGE_LOOP('',(#200));
#151=EDGE_LOOP('',(#201));
#152=EDGE_LOOP('',(#202));
#153=EDGE_LOOP('',(#203));
#154=EDGE_LOOP('',(#204,#205));
#155=EDGE_LOOP('',(#206,#207));
#156=EDGE_LOOP('',(#208,#209,#210,#211));
#157=EDGE_LOOP('',(#212,#213));
#158=EDGE_LOOP('',(#214,#215,#216,#217));
#159=EDGE_LOOP('',(#218,#219));
#160=EDGE_LOOP('',(#220,#221,#222,#223));
#161=EDGE_LOOP('',(#224,#225,#226,#227));
#162=ORIENTED_EDGE('',*,*,#253,.F.);
#163=ORIENTED_EDGE('',*,*,#254,.T.);
#164=ORIENTED_EDGE('',*,*,#255,.F.);
#165=ORIENTED_EDGE('',*,*,#256,.F.);
#166=ORIENTED_EDGE('',*,*,#257,.F.);
#167=ORIENTED_EDGE('',*,*,#258,.F.);
#168=ORIENTED_EDGE('',*,*,#259,.F.);
#169=ORIENTED_EDGE('',*,*,#260,.T.);
#170=ORIENTED_EDGE('',*,*,#261,.T.);
#171=ORIENTED_EDGE('',*,*,#262,.F.);
#172=ORIENTED_EDGE('',*,*,#262,.T.);
#173=ORIENTED_EDGE('',*,*,#263,.F.);
#174=ORIENTED_EDGE('',*,*,#264,.F.);
#175=ORIENTED_EDGE('',*,*,#264,.T.);
#176=ORIENTED_EDGE('',*,*,#265,.F.);
#177=ORIENTED_EDGE('',*,*,#266,.T.);
#178=ORIENTED_EDGE('',*,*,#267,.T.);
#179=ORIENTED_EDGE('',*,*,#259,.T.);
#180=ORIENTED_EDGE('',*,*,#268,.F.);
#181=ORIENTED_EDGE('',*,*,#267,.F.);
#182=ORIENTED_EDGE('',*,*,#253,.T.);
#183=ORIENTED_EDGE('',*,*,#268,.T.);
#184=ORIENTED_EDGE('',*,*,#269,.T.);
#185=ORIENTED_EDGE('',*,*,#270,.F.);
#186=ORIENTED_EDGE('',*,*,#271,.F.);
#187=ORIENTED_EDGE('',*,*,#272,.F.);
#188=ORIENTED_EDGE('',*,*,#273,.T.);
#189=ORIENTED_EDGE('',*,*,#274,.F.);
#190=ORIENTED_EDGE('',*,*,#274,.T.);
#191=ORIENTED_EDGE('',*,*,#275,.F.);
#192=ORIENTED_EDGE('',*,*,#275,.T.);
#193=ORIENTED_EDGE('',*,*,#276,.F.);
#194=ORIENTED_EDGE('',*,*,#276,.T.);
#195=ORIENTED_EDGE('',*,*,#277,.F.);
#196=ORIENTED_EDGE('',*,*,#278,.F.);
#197=ORIENTED_EDGE('',*,*,#272,.T.);
#198=ORIENTED_EDGE('',*,*,#273,.F.);
#199=ORIENTED_EDGE('',*,*,#278,.T.);
#200=ORIENTED_EDGE('',*,*,#277,.T.);
#201=ORIENTED_EDGE('',*,*,#279,.F.);
#202=ORIENTED_EDGE('',*,*,#279,.T.);
#203=ORIENTED_EDGE('',*,*,#261,.F.);
#204=ORIENTED_EDGE('',*,*,#255,.T.);
#205=ORIENTED_EDGE('',*,*,#280,.T.);
#206=ORIENTED_EDGE('',*,*,#263,.T.);
#207=ORIENTED_EDGE('',*,*,#265,.T.);
#208=ORIENTED_EDGE('',*,*,#258,.T.);
#209=ORIENTED_EDGE('',*,*,#281,.F.);
#210=ORIENTED_EDGE('',*,*,#260,.F.);
#211=ORIENTED_EDGE('',*,*,#269,.F.);
#212=ORIENTED_EDGE('',*,*,#257,.T.);
#213=ORIENTED_EDGE('',*,*,#281,.T.);
#214=ORIENTED_EDGE('',*,*,#254,.F.);
#215=ORIENTED_EDGE('',*,*,#266,.F.);
#216=ORIENTED_EDGE('',*,*,#256,.T.);
#217=ORIENTED_EDGE('',*,*,#280,.F.);
#218=ORIENTED_EDGE('',*,*,#282,.F.);
#219=ORIENTED_EDGE('',*,*,#283,.F.);
#220=ORIENTED_EDGE('',*,*,#284,.F.);
#221=ORIENTED_EDGE('',*,*,#283,.T.);
#222=ORIENTED_EDGE('',*,*,#285,.T.);
#223=ORIENTED_EDGE('',*,*,#271,.T.);
#224=ORIENTED_EDGE('',*,*,#282,.T.);
#225=ORIENTED_EDGE('',*,*,#284,.T.);
#226=ORIENTED_EDGE('',*,*,#270,.T.);
#227=ORIENTED_EDGE('',*,*,#285,.F.);
#228=VERTEX_POINT('',#495);
#229=VERTEX_POINT('',#496);
#230=VERTEX_POINT('',#498);
#231=VERTEX_POINT('',#500);
#232=VERTEX_POINT('',#504);
#233=VERTEX_POINT('',#505);
#234=VERTEX_POINT('',#507);
#235=VERTEX_POINT('',#509);
#236=VERTEX_POINT('',#513);
#237=VERTEX_POINT('',#515);
#238=VERTEX_POINT('',#516);
#239=VERTEX_POINT('',#518);
#240=VERTEX_POINT('',#520);
#241=VERTEX_POINT('',#530);
#242=VERTEX_POINT('',#531);
#243=VERTEX_POINT('',#534);
#244=VERTEX_POINT('',#537);
#245=VERTEX_POINT('',#539);
#246=VERTEX_POINT('',#542);
#247=VERTEX_POINT('',#545);
#248=VERTEX_POINT('',#548);
#249=VERTEX_POINT('',#551);
#250=VERTEX_POINT('',#555);
#251=VERTEX_POINT('',#565);
#252=VERTEX_POINT('',#566);
#253=EDGE_CURVE('',#228,#229,#286,.T.);
#254=EDGE_CURVE('',#228,#230,#287,.T.);
#255=EDGE_CURVE('',#231,#230,#288,.T.);
#256=EDGE_CURVE('',#229,#231,#289,.T.);
#257=EDGE_CURVE('',#232,#233,#290,.T.);
#258=EDGE_CURVE('',#234,#232,#79,.T.);
#259=EDGE_CURVE('',#235,#234,#291,.T.);
#260=EDGE_CURVE('',#235,#233,#80,.T.);
#261=EDGE_CURVE('',#236,#236,#292,.T.);
#262=EDGE_CURVE('',#237,#238,#81,.T.);
#263=EDGE_CURVE('',#239,#238,#293,.T.);
#264=EDGE_CURVE('',#240,#239,#82,.T.);
#265=EDGE_CURVE('',#238,#239,#294,.T.);
#266=EDGE_CURVE('',#229,#228,#295,.T.);
#267=EDGE_CURVE('',#228,#235,#83,.T.);
#268=EDGE_CURVE('',#229,#234,#84,.T.);
#269=EDGE_CURVE('',#234,#235,#296,.T.);
#270=EDGE_CURVE('',#241,#242,#297,.T.);
#271=EDGE_CURVE('',#242,#241,#298,.T.);
#272=EDGE_CURVE('',#243,#243,#299,.T.);
#273=EDGE_CURVE('',#244,#244,#300,.T.);
#274=EDGE_CURVE('',#245,#245,#301,.T.);
#275=EDGE_CURVE('',#246,#246,#302,.T.);
#276=EDGE_CURVE('',#247,#247,#303,.T.);
#277=EDGE_CURVE('',#248,#248,#304,.T.);
#278=EDGE_CURVE('',#249,#249,#305,.T.);
#279=EDGE_CURVE('',#250,#250,#306,.T.);
#280=EDGE_CURVE('',#230,#231,#307,.T.);
#281=EDGE_CURVE('',#233,#232,#308,.T.);
#282=EDGE_CURVE('',#251,#252,#309,.T.);
#283=EDGE_CURVE('',#252,#251,#310,.T.);
#284=EDGE_CURVE('',#252,#241,#85,.T.);
#285=EDGE_CURVE('',#251,#242,#86,.T.);
#286=CIRCLE('',#336,21.);
#287=CIRCLE('',#337,5.);
#288=CIRCLE('',#338,26.);
#289=CIRCLE('',#339,5.);
#290=CIRCLE('',#341,15.);
#291=CIRCLE('',#342,21.);
#292=CIRCLE('',#344,31.5);
#293=CIRCLE('',#345,31.5);
#294=CIRCLE('',#346,31.5);
#295=CIRCLE('',#348,21.);
#296=CIRCLE('',#350,21.);
#297=CIRCLE('',#352,22.5166650635391);
#298=CIRCLE('',#353,22.5166650635391);
#299=CIRCLE('',#354,31.5);
#300=CIRCLE('',#356,27.1696270189222);
#301=CIRCLE('',#357,27.);
#302=CIRCLE('',#359,26.5);
#303=CIRCLE('',#361,26.5);
#304=CIRCLE('',#363,27.);
#305=CIRCLE('',#365,31.5);
#306=CIRCLE('',#368,27.1696270189222);
#307=CIRCLE('',#371,26.);
#308=CIRCLE('',#373,15.);
#309=CIRCLE('',#377,12.6875524222709);
#310=CIRCLE('',#378,12.6875524222709);
#311=INVISIBILITY((#312,#313,#314,#315));
#312=PRESENTATION_LAYER_ASSIGNMENT('100','Layer 100',(#333));
#313=PRESENTATION_LAYER_ASSIGNMENT('101','Layer 101',(#334));
#314=PRESENTATION_LAYER_ASSIGNMENT('102','Layer 102',(#335));
#315=PRESENTATION_LAYER_ASSIGNMENT('98','Layer 98',(#38));
#316=STYLED_ITEM('',(#320),#333);
#317=STYLED_ITEM('',(#321),#334);
#318=STYLED_ITEM('',(#322),#335);
#319=STYLED_ITEM('',(#323),#38);
#320=PRESENTATION_STYLE_ASSIGNMENT((#324));
#321=PRESENTATION_STYLE_ASSIGNMENT((#325));
#322=PRESENTATION_STYLE_ASSIGNMENT((#326));
#323=PRESENTATION_STYLE_ASSIGNMENT((#33));
#324=CURVE_STYLE('',#329,POSITIVE_LENGTH_MEASURE(0.7),#327);
#325=CURVE_STYLE('',#330,POSITIVE_LENGTH_MEASURE(0.7),#327);
#326=CURVE_STYLE('',#331,POSITIVE_LENGTH_MEASURE(0.7),#327);
#327=COLOUR_RGB('Medium Maroon',0.6,0.4,0.4);
#328=COLOUR_RGB('Medium Gray',0.490196078431373,0.490196078431373,0.490196078431373);
#329=DRAUGHTING_PRE_DEFINED_CURVE_FONT('continuous');
#330=DRAUGHTING_PRE_DEFINED_CURVE_FONT('continuous');
#331=DRAUGHTING_PRE_DEFINED_CURVE_FONT('continuous');
#332=AXIS2_PLACEMENT_3D('',#490,#382,#383);
#333=AXIS2_PLACEMENT_3D('PCS',#491,#384,#385);
#334=AXIS2_PLACEMENT_3D('CSW',#492,#386,#387);
#335=AXIS2_PLACEMENT_3D('MCS',#493,#388,#389);
#336=AXIS2_PLACEMENT_3D('',#494,#390,#391);
#337=AXIS2_PLACEMENT_3D('',#497,#392,#393);
#338=AXIS2_PLACEMENT_3D('',#499,#394,#395);
#339=AXIS2_PLACEMENT_3D('',#501,#396,#397);
#340=AXIS2_PLACEMENT_3D('',#502,#398,#399);
#341=AXIS2_PLACEMENT_3D('',#503,#400,#401);
#342=AXIS2_PLACEMENT_3D('',#508,#403,#404);
#343=AXIS2_PLACEMENT_3D('',#511,#406,#407);
#344=AXIS2_PLACEMENT_3D('',#512,#408,#409);
#345=AXIS2_PLACEMENT_3D('',#517,#411,#412);
#346=AXIS2_PLACEMENT_3D('',#521,#414,#415);
#347=AXIS2_PLACEMENT_3D('',#522,#416,#417);
#348=AXIS2_PLACEMENT_3D('',#523,#418,#419);
#349=AXIS2_PLACEMENT_3D('',#526,#422,#423);
#350=AXIS2_PLACEMENT_3D('',#527,#424,#425);
#351=AXIS2_PLACEMENT_3D('',#528,#426,#427);
#352=AXIS2_PLACEMENT_3D('',#529,#428,#429);
#353=AXIS2_PLACEMENT_3D('',#532,#430,#431);
#354=AXIS2_PLACEMENT_3D('',#533,#432,#433);
#355=AXIS2_PLACEMENT_3D('',#535,#434,#435);
#356=AXIS2_PLACEMENT_3D('',#536,#436,#437);
#357=AXIS2_PLACEMENT_3D('',#538,#438,#439);
#358=AXIS2_PLACEMENT_3D('',#540,#440,#441);
#359=AXIS2_PLACEMENT_3D('',#541,#442,#443);
#360=AXIS2_PLACEMENT_3D('',#543,#444,#445);
#361=AXIS2_PLACEMENT_3D('',#544,#446,#447);
#362=AXIS2_PLACEMENT_3D('',#546,#448,#449);
#363=AXIS2_PLACEMENT_3D('',#547,#450,#451);
#364=AXIS2_PLACEMENT_3D('',#549,#452,#453);
#365=AXIS2_PLACEMENT_3D('',#550,#454,#455);
#366=AXIS2_PLACEMENT_3D('',#552,#456,#457);
#367=AXIS2_PLACEMENT_3D('',#553,#458,#459);
#368=AXIS2_PLACEMENT_3D('',#554,#460,#461);
#369=AXIS2_PLACEMENT_3D('',#556,#462,#463);
#370=AXIS2_PLACEMENT_3D('',#557,#464,#465);
#371=AXIS2_PLACEMENT_3D('',#558,#466,#467);
#372=AXIS2_PLACEMENT_3D('',#559,#468,#469);
#373=AXIS2_PLACEMENT_3D('',#560,#470,#471);
#374=AXIS2_PLACEMENT_3D('',#561,#472,#473);
#375=AXIS2_PLACEMENT_3D('',#562,#474,#475);
#376=AXIS2_PLACEMENT_3D('',#563,#476,#477);
#377=AXIS2_PLACEMENT_3D('',#564,#478,#479);
#378=AXIS2_PLACEMENT_3D('',#567,#480,#481);
#379=AXIS2_PLACEMENT_3D('',#568,#482,#483);
#380=AXIS2_PLACEMENT_3D('',#571,#486,#487);
#381=AXIS2_PLACEMENT_3D('',#572,#488,#489);
#382=DIRECTION('',(0.,0.,1.));
#383=DIRECTION('',(1.,0.,0.));
#384=DIRECTION('',(0.,0.,1.));
#385=DIRECTION('',(1.,0.,0.));
#386=DIRECTION('',(0.,0.,1.));
#387=DIRECTION('',(1.,0.,0.));
#388=DIRECTION('',(0.,0.,1.));
#389=DIRECTION('',(1.,0.,0.));
#390=DIRECTION('',(0.,0.,-1.));
#391=DIRECTION('',(1.,0.,0.));
#392=DIRECTION('',(1.22464679914735E-16,-1.,0.));
#393=DIRECTION('',(-1.,-1.22464679914735E-16,0.));
#394=DIRECTION('',(0.,0.,1.));
#395=DIRECTION('',(1.,0.,0.));
#396=DIRECTION('',(0.,1.,0.));
#397=DIRECTION('',(1.,0.,0.));
#398=DIRECTION('',(0.,0.,-1.));
#399=DIRECTION('',(-1.,0.,0.));
#400=DIRECTION('',(0.,0.,-1.));
#401=DIRECTION('',(-1.,0.,0.));
#402=DIRECTION('',(-0.422618261740697,5.17558101501963E-17,-0.906307787036651));
#403=DIRECTION('',(0.,0.,1.));
#404=DIRECTION('',(1.,0.,0.));
#405=DIRECTION('',(0.422618261740697,0.,-0.906307787036651));
#406=DIRECTION('',(0.,0.,1.));
#407=DIRECTION('',(1.,0.,1.15334028641991E-16));
#408=DIRECTION('',(0.,0.,-1.));
#409=DIRECTION('',(1.,0.,0.));
#410=DIRECTION('',(0.,0.,-1.));
#411=DIRECTION('',(0.,0.,-1.));
#412=DIRECTION('',(-1.,0.,0.));
#413=DIRECTION('',(0.,0.,-1.));
#414=DIRECTION('',(0.,0.,-1.));
#415=DIRECTION('',(-1.,0.,0.));
#416=DIRECTION('',(0.,0.,-1.));
#417=DIRECTION('',(-1.,0.,0.));
#418=DIRECTION('',(0.,0.,-1.));
#419=DIRECTION('',(1.,0.,0.));
#420=DIRECTION('',(0.,0.,-1.));
#421=DIRECTION('',(0.,0.,-1.));
#422=DIRECTION('',(0.,0.,-1.));
#423=DIRECTION('',(-1.,0.,0.));
#424=DIRECTION('',(0.,0.,1.));
#425=DIRECTION('',(1.,0.,0.));
#426=DIRECTION('',(0.,0.,-1.));
#427=DIRECTION('',(-1.,0.,0.));
#428=DIRECTION('',(0.,0.,1.));
#429=DIRECTION('',(1.,0.,0.));
#430=DIRECTION('',(0.,0.,1.));
#431=DIRECTION('',(1.,0.,0.));
#432=DIRECTION('',(0.,0.,-1.));
#433=DIRECTION('',(1.,0.,0.));
#434=DIRECTION('',(0.,0.,1.));
#435=DIRECTION('',(1.,0.,0.));
#436=DIRECTION('',(0.,0.,-1.));
#437=DIRECTION('',(1.,0.,0.));
#438=DIRECTION('',(0.,0.,-1.));
#439=DIRECTION('',(1.,0.,0.));
#440=DIRECTION('',(0.,0.,-1.));
#441=DIRECTION('',(-1.,0.,0.));
#442=DIRECTION('',(0.,0.,-1.));
#443=DIRECTION('',(1.,0.,0.));
#444=DIRECTION('',(0.,0.,-1.));
#445=DIRECTION('',(-1.,0.,0.));
#446=DIRECTION('',(0.,0.,-1.));
#447=DIRECTION('',(1.,0.,0.));
#448=DIRECTION('',(0.,0.,-1.));
#449=DIRECTION('',(-1.,0.,0.));
#450=DIRECTION('',(0.,0.,-1.));
#451=DIRECTION('',(1.,0.,0.));
#452=DIRECTION('',(0.,0.,-1.));
#453=DIRECTION('',(-1.,0.,0.));
#454=DIRECTION('',(0.,0.,-1.));
#455=DIRECTION('',(1.,0.,0.));
#456=DIRECTION('',(0.,0.,-1.));
#457=DIRECTION('',(-1.,0.,0.));
#458=DIRECTION('',(0.,0.,1.));
#459=DIRECTION('',(1.,0.,-1.9721502113898E-17));
#460=DIRECTION('',(0.,0.,-1.));
#461=DIRECTION('',(1.,0.,0.));
#462=DIRECTION('',(0.,0.,1.));
#463=DIRECTION('',(1.,0.,0.));
#464=DIRECTION('',(0.,0.,-1.));
#465=DIRECTION('',(-1.,0.,-2.55749991334657E-17));
#466=DIRECTION('',(0.,0.,1.));
#467=DIRECTION('',(1.,0.,0.));
#468=DIRECTION('',(0.,0.,-1.));
#469=DIRECTION('',(-1.,0.,0.));
#470=DIRECTION('',(0.,0.,-1.));
#471=DIRECTION('',(-1.,0.,0.));
#472=DIRECTION('',(0.,0.,1.));
#473=DIRECTION('',(1.,0.,1.15334028641991E-16));
#474=DIRECTION('',(0.,0.,-1.));
#475=DIRECTION('',(-1.,0.,0.));
#476=DIRECTION('',(0.,0.,-1.));
#477=DIRECTION('',(-1.,0.,0.));
#478=DIRECTION('',(0.,0.,-1.));
#479=DIRECTION('',(1.,0.,0.));
#480=DIRECTION('',(0.,0.,-1.));
#481=DIRECTION('',(1.,0.,0.));
#482=DIRECTION('',(0.,0.,1.));
#483=DIRECTION('',(1.,0.,0.));
#484=DIRECTION('',(-0.144306116415234,-1.76724023565302E-17,-0.989533094325376));
#485=DIRECTION('',(0.144306116415234,0.,-0.989533094325376));
#486=DIRECTION('',(0.,0.,-1.));
#487=DIRECTION('',(-1.,0.,1.23812682086789E-16));
#488=DIRECTION('',(0.,0.,-1.));
#489=DIRECTION('',(-1.,0.,1.23812682086789E-16));
#490=CARTESIAN_POINT('',(0.,0.,0.));
#491=CARTESIAN_POINT('',(0.,0.,0.));
#492=CARTESIAN_POINT('',(0.,0.,-160.));
#493=CARTESIAN_POINT('',(0.,0.,0.));
#494=CARTESIAN_POINT('',(-6.46788178571E-14,-4.02319061662716E-29,-32.));
#495=CARTESIAN_POINT('',(-21.0000000000001,-2.57175827820948E-15,-32.));
#496=CARTESIAN_POINT('',(20.9999999999999,-4.02319061662716E-29,-32.));
#497=CARTESIAN_POINT('',(-26.0000000000001,-3.18408167778316E-15,-32.));
#498=CARTESIAN_POINT('',(-26.0000000000001,-3.18408167778316E-15,-27.));
#499=CARTESIAN_POINT('',(-6.46788178571E-14,-4.02319061662716E-29,-27.));
#500=CARTESIAN_POINT('',(25.9999999999999,-4.02319061662716E-29,-27.));
#501=CARTESIAN_POINT('',(25.9999999999999,-4.02319061662716E-29,-32.));
#502=CARTESIAN_POINT('',(-6.46788178571E-14,-4.02319061662716E-29,-32.));
#503=CARTESIAN_POINT('',(-6.46788178571E-14,-4.02319061662716E-29,-160.));
#504=CARTESIAN_POINT('',(14.9999999999999,-1.83697019872107E-15,-160.));
#505=CARTESIAN_POINT('',(-15.0000000000001,-4.02319061662716E-29,-160.));
#506=CARTESIAN_POINT('',(14.9999999999999,-1.83697019872107E-15,-160.));
#507=CARTESIAN_POINT('',(20.9999999999999,-1.28587913910476E-15,-147.132958476943));
#508=CARTESIAN_POINT('',(-6.46788178571E-14,-4.02319061662716E-29,-147.132958476943));
#509=CARTESIAN_POINT('',(-21.0000000000001,-1.28587913910476E-15,-147.132958476943));
#510=CARTESIAN_POINT('',(-15.0000000000001,-4.02319061662716E-29,-160.));
#511=CARTESIAN_POINT('',(-6.46788178571E-14,-4.02319061662716E-29,-160.));
#512=CARTESIAN_POINT('',(-6.46788178571E-14,-4.02319061662716E-29,-21.6001420063167));
#513=CARTESIAN_POINT('',(31.4999999999999,-4.02319061662716E-29,-21.6001420063167));
#514=CARTESIAN_POINT('',(-31.5000000000001,-3.8576374173142E-15,-87.7524800062801));
#515=CARTESIAN_POINT('',(-31.5000000000001,1.88437114106889E-14,-23.4999997454123));
#516=CARTESIAN_POINT('',(-31.5000000000001,-3.8576374173142E-15,-27.));
#517=CARTESIAN_POINT('',(-6.46788178571E-14,-4.02319061662716E-29,-27.));
#518=CARTESIAN_POINT('',(31.4999999999999,-4.02319061662716E-29,-27.));
#519=CARTESIAN_POINT('',(31.4999999999999,-4.02319061662716E-29,-87.7524800062801));
#520=CARTESIAN_POINT('',(31.4999999999999,3.65918233213854E-15,-23.4999998697892));
#521=CARTESIAN_POINT('',(-6.46788178571E-14,-4.02319061662716E-29,-27.));
#522=CARTESIAN_POINT('',(-6.46788178571E-14,-4.02319061662716E-29,-87.7524800062801));
#523=CARTESIAN_POINT('',(-6.46788178571E-14,-4.02319061662716E-29,-32.));
#524=CARTESIAN_POINT('',(-21.0000000000001,-2.57175827820948E-15,-87.7524800062801));
#525=CARTESIAN_POINT('',(20.9999999999999,-4.02319061662716E-29,-87.7524800062801));
#526=CARTESIAN_POINT('',(-6.46788178571E-14,-4.02319061662716E-29,-87.7524800062801));
#527=CARTESIAN_POINT('',(-6.46788178571E-14,-4.02319061662716E-29,-147.132958476943));
#528=CARTESIAN_POINT('',(-6.46788178571E-14,-4.02319061662716E-29,-87.7524800062801));
#529=CARTESIAN_POINT('',(-6.46788178571E-14,-4.02319061662716E-29,-1.99999999999997));
#530=CARTESIAN_POINT('',(-22.5166650635392,-4.02319061662716E-29,-1.99999999999997));
#531=CARTESIAN_POINT('',(22.516665063539,2.75749617975358E-15,-1.99999999999997));
#532=CARTESIAN_POINT('',(-6.46788178571E-14,-4.02319061662716E-29,-1.99999999999997));
#533=CARTESIAN_POINT('',(-6.46788178571E-14,-4.02319061662716E-29,-1.99999999999997));
#534=CARTESIAN_POINT('',(31.4999999999999,-4.02319061662716E-29,-1.99999999999997));
#535=CARTESIAN_POINT('',(-6.46788178571E-14,-22.6979162658848,-1.99999999999997));
#536=CARTESIAN_POINT('',(-6.46788178571E-14,-4.02319061662716E-29,-14.1));
#537=CARTESIAN_POINT('',(27.1696270189221,-4.02319061662716E-29,-14.1));
#538=CARTESIAN_POINT('',(-6.46788178571E-14,-4.02319061662716E-29,-14.1));
#539=CARTESIAN_POINT('',(26.9999999999999,-4.02319061662716E-29,-14.1));
#540=CARTESIAN_POINT('',(-6.46788178571E-14,-27.1696270189222,-14.1));
#541=CARTESIAN_POINT('',(-6.46788178571E-14,-4.02319061662716E-29,-14.6));
#542=CARTESIAN_POINT('',(26.4999999999999,-4.02319061662716E-29,-14.6));
#543=CARTESIAN_POINT('',(-6.46788178571E-14,-4.02319061662716E-29,-14.6));
#544=CARTESIAN_POINT('',(-6.46788178571E-14,-4.02319061662716E-29,-18.6));
#545=CARTESIAN_POINT('',(26.4999999999999,-4.02319061662716E-29,-18.6));
#546=CARTESIAN_POINT('',(-6.46788178571E-14,-4.02319061662716E-29,-87.7524800062801));
#547=CARTESIAN_POINT('',(-6.46788178571E-14,-4.02319061662716E-29,-19.1));
#548=CARTESIAN_POINT('',(26.9999999999999,-4.02319061662716E-29,-19.1));
#549=CARTESIAN_POINT('',(-6.46788178571E-14,-4.02319061662716E-29,-18.6));
#550=CARTESIAN_POINT('',(-6.46788178571E-14,-4.02319061662716E-29,-11.5998579936832));
#551=CARTESIAN_POINT('',(31.4999999999999,-4.02319061662716E-29,-11.5998579936832));
#552=CARTESIAN_POINT('',(-6.46788178571E-14,-4.02319061662716E-29,-87.7524800062801));
#553=CARTESIAN_POINT('',(-6.46788178571E-14,-4.02319061662716E-29,-14.1));
#554=CARTESIAN_POINT('',(-6.46788178571E-14,-4.02319061662716E-29,-19.1));
#555=CARTESIAN_POINT('',(27.1696270189221,-4.02319061662716E-29,-19.1));
#556=CARTESIAN_POINT('',(-6.46788178571E-14,-27.,-19.1));
#557=CARTESIAN_POINT('',(-6.46788178571E-14,-4.02319061662716E-29,-21.6001420063167));
#558=CARTESIAN_POINT('',(-6.46788178571E-14,-4.02319061662716E-29,-27.));
#559=CARTESIAN_POINT('',(-6.46788178571E-14,-30.5,-27.));
#560=CARTESIAN_POINT('',(-6.46788178571E-14,-4.02319061662716E-29,-160.));
#561=CARTESIAN_POINT('',(-6.46788178571E-14,-4.02319061662716E-29,-160.));
#562=CARTESIAN_POINT('',(-6.46788178571E-14,-15.,-160.));
#563=CARTESIAN_POINT('',(-6.46788178571E-14,-4.02319061662716E-29,-32.));
#564=CARTESIAN_POINT('',(-6.46788178571E-14,-4.02319061662716E-29,65.4));
#565=CARTESIAN_POINT('',(12.6875524222708,-4.02319061662716E-29,65.4));
#566=CARTESIAN_POINT('',(-12.687552422271,-1.55377704629487E-15,65.4));
#567=CARTESIAN_POINT('',(-6.46788178571E-14,-4.02319061662716E-29,65.4));
#568=CARTESIAN_POINT('',(-6.46788178571E-14,1.8755769442117E-14,65.4));
#569=CARTESIAN_POINT('',(-22.2979162658848,-2.73070717826719E-15,-0.499999999999966));
#570=CARTESIAN_POINT('',(22.2979162658847,-4.02319061662716E-29,-0.499999999999966));
#571=CARTESIAN_POINT('',(-6.46788178571E-14,-4.02319061662716E-29,-0.499999999999966));
#572=CARTESIAN_POINT('',(-6.46788178571E-14,-4.02319061662716E-29,-0.499999999999966));
#573=MECHANICAL_DESIGN_GEOMETRIC_PRESENTATION_REPRESENTATION('',(#316,#317,
#318,#319),#574);
#574=(
GEOMETRIC_REPRESENTATION_CONTEXT(3)
GLOBAL_UNCERTAINTY_ASSIGNED_CONTEXT((#575))
GLOBAL_UNIT_ASSIGNED_CONTEXT((#581,#577,#576))
REPRESENTATION_CONTEXT('BT.40ADB-W.12','TOP_LEVEL_ASSEMBLY_PART')
);
#575=UNCERTAINTY_MEASURE_WITH_UNIT(LENGTH_MEASURE(2.E-5),#581,
'DISTANCE_ACCURACY_VALUE','Maximum Tolerance applied to model');
#576=(
NAMED_UNIT(*)
SI_UNIT($,.STERADIAN.)
SOLID_ANGLE_UNIT()
);
#577=(
CONVERSION_BASED_UNIT('DEGREE',#579)
NAMED_UNIT(#578)
PLANE_ANGLE_UNIT()
);
#578=DIMENSIONAL_EXPONENTS(0.,0.,0.,0.,0.,0.,0.);
#579=PLANE_ANGLE_MEASURE_WITH_UNIT(PLANE_ANGLE_MEASURE(0.0174532925),#580);
#580=(
NAMED_UNIT(*)
PLANE_ANGLE_UNIT()
SI_UNIT($,.RADIAN.)
);
#581=(
LENGTH_UNIT()
NAMED_UNIT(*)
SI_UNIT(.MILLI.,.METRE.)
);
ENDSEC;
END-ISO-10303-21;
