ISO-10303-21;
HEADER;
/* Generated by software containing ST-Developer
 * from STEP Tools, Inc. (www.steptools.com) 
 */
/* OPTION: using custom schema-name function */

FILE_DESCRIPTION(
/* description */ (''),
/* implementation_level */ '2;1');

FILE_NAME(
/* name */ 'BT.40ADB-SC.12.160.stp',
/* time_stamp */ '2024-07-08T06:40:48+02:00',
/* author */ (''),
/* organization */ (''),
/* preprocessor_version */ 'ST-DEVELOPER v16.7',
/* originating_system */ 'SIEMENS PLM Software NX 12.0',
/* authorisation */ '');

FILE_SCHEMA (('AUTOMOTIVE_DESIGN { 1 0 10303 214 3 1 1 1 }'));
ENDSEC;

DATA;
#10=CONSTRUCTIVE_GEOMETRY_REPRESENTATION_RELATIONSHIP(
'supplemental geometry','',#32,#11);
#11=CONSTRUCTIVE_GEOMETRY_REPRESENTATION('supplemental geometry',(#338,
#339,#340),#586);
#12=PROPERTY_DEFINITION_REPRESENTATION(#16,#14);
#13=PROPERTY_DEFINITION_REPRESENTATION(#17,#15);
#14=REPRESENTATION('',(#18),#586);
#15=REPRESENTATION('',(#19),#586);
#16=PROPERTY_DEFINITION('pmi validation property','',#23);
#17=PROPERTY_DEFINITION('pmi validation property','',#23);
#18=VALUE_REPRESENTATION_ITEM('number of annotations',COUNT_MEASURE(0.));
#19=VALUE_REPRESENTATION_ITEM('number of views',COUNT_MEASURE(0.));
#20=SHAPE_REPRESENTATION_RELATIONSHIP('None',
'relationship between pf664004CBF9abko-None and pf664004CBF9abko-None',
#32,#21);
#21=ADVANCED_BREP_SHAPE_REPRESENTATION('pf664004CBF9abko-None',(#38),#586);
#22=SHAPE_DEFINITION_REPRESENTATION(#23,#32);
#23=PRODUCT_DEFINITION_SHAPE('','',#24);
#24=PRODUCT_DEFINITION(' ','',#26,#25);
#25=PRODUCT_DEFINITION_CONTEXT('part definition',#31,'design');
#26=PRODUCT_DEFINITION_FORMATION_WITH_SPECIFIED_SOURCE(' ',' ',#28,
 .NOT_KNOWN.);
#27=PRODUCT_RELATED_PRODUCT_CATEGORY('part','',(#28));
#28=PRODUCT('pf664004CBF9abko','pf664004CBF9abko',' ',(#29));
#29=PRODUCT_CONTEXT(' ',#31,'mechanical');
#30=APPLICATION_PROTOCOL_DEFINITION('international standard',
'automotive_design',2010,#31);
#31=APPLICATION_CONTEXT(
'core data for automotive mechanical design processes');
#32=SHAPE_REPRESENTATION('pf664004CBF9abko-None',(#337),#586);
#33=SURFACE_STYLE_USAGE(.BOTH.,#34);
#34=SURFACE_SIDE_STYLE('',(#35));
#35=SURFACE_STYLE_FILL_AREA(#36);
#36=FILL_AREA_STYLE('',(#37));
#37=FILL_AREA_STYLE_COLOUR('',#333);
#38=MANIFOLD_SOLID_BREP('',#39);
#39=CLOSED_SHELL('',(#84,#85,#86,#87,#88,#89,#90,#91,#92,#93,#94,#95,#96,
#97,#98,#99,#100,#101,#102,#103,#104,#105));
#40=TOROIDAL_SURFACE('',#357,19.,3.);
#41=TOROIDAL_SURFACE('',#371,27.,0.5);
#42=TOROIDAL_SURFACE('',#374,27.,0.5);
#43=TOROIDAL_SURFACE('',#382,19.,3.);
#44=CYLINDRICAL_SURFACE('',#353,16.);
#45=CYLINDRICAL_SURFACE('',#363,31.5);
#46=CYLINDRICAL_SURFACE('',#369,26.5);
#47=CYLINDRICAL_SURFACE('',#376,31.5);
#48=CYLINDRICAL_SURFACE('',#380,31.5);
#49=CYLINDRICAL_SURFACE('',#383,16.);
#50=CONICAL_SURFACE('',#349,14.03626342104,4.5);
#51=CONICAL_SURFACE('',#351,14.03626342104,4.5);
#52=CONICAL_SURFACE('',#366,29.29703582746,60.125);
#53=CONICAL_SURFACE('',#378,29.29703582746,60.125);
#54=CONICAL_SURFACE('',#387,17.51867021387,8.2971);
#55=CONICAL_SURFACE('',#388,17.51867021387,8.2971);
#56=LINE('',#517,#64);
#57=LINE('',#521,#65);
#58=LINE('',#525,#66);
#59=LINE('',#527,#67);
#60=LINE('',#543,#68);
#61=LINE('',#545,#69);
#62=LINE('',#581,#70);
#63=LINE('',#582,#71);
#64=VECTOR('',#411,1.);
#65=VECTOR('',#414,1.);
#66=VECTOR('',#421,1.);
#67=VECTOR('',#422,1.);
#68=VECTOR('',#443,1.);
#69=VECTOR('',#444,1.);
#70=VECTOR('',#495,1.);
#71=VECTOR('',#496,1.);
#72=FACE_OUTER_BOUND('',#134,.T.);
#73=FACE_OUTER_BOUND('',#135,.T.);
#74=FACE_OUTER_BOUND('',#136,.T.);
#75=FACE_OUTER_BOUND('',#137,.T.);
#76=FACE_OUTER_BOUND('',#138,.T.);
#77=FACE_OUTER_BOUND('',#141,.T.);
#78=FACE_OUTER_BOUND('',#158,.T.);
#79=FACE_OUTER_BOUND('',#159,.T.);
#80=FACE_OUTER_BOUND('',#160,.T.);
#81=FACE_OUTER_BOUND('',#161,.T.);
#82=FACE_OUTER_BOUND('',#162,.T.);
#83=FACE_OUTER_BOUND('',#163,.T.);
#84=ADVANCED_FACE('',(#112,#113),#106,.F.);
#85=ADVANCED_FACE('',(#72),#107,.T.);
#86=ADVANCED_FACE('',(#73),#50,.T.);
#87=ADVANCED_FACE('',(#74),#51,.T.);
#88=ADVANCED_FACE('',(#75),#44,.T.);
#89=ADVANCED_FACE('',(#76),#40,.F.);
#90=ADVANCED_FACE('',(#114,#115),#108,.T.);
#91=ADVANCED_FACE('',(#77),#45,.T.);
#92=ADVANCED_FACE('',(#116,#117),#52,.T.);
#93=ADVANCED_FACE('',(#118,#119),#46,.T.);
#94=ADVANCED_FACE('',(#120,#121),#41,.F.);
#95=ADVANCED_FACE('',(#122,#123),#109,.F.);
#96=ADVANCED_FACE('',(#124,#125),#42,.F.);
#97=ADVANCED_FACE('',(#126,#127),#47,.T.);
#98=ADVANCED_FACE('',(#128,#129),#53,.T.);
#99=ADVANCED_FACE('',(#130,#131),#110,.T.);
#100=ADVANCED_FACE('',(#78),#48,.T.);
#101=ADVANCED_FACE('',(#79),#43,.F.);
#102=ADVANCED_FACE('',(#80),#49,.T.);
#103=ADVANCED_FACE('',(#81),#111,.F.);
#104=ADVANCED_FACE('',(#82),#54,.T.);
#105=ADVANCED_FACE('',(#83),#55,.T.);
#106=PLANE('',#344);
#107=PLANE('',#347);
#108=PLANE('',#361);
#109=PLANE('',#372);
#110=PLANE('',#379);
#111=PLANE('',#386);
#112=FACE_BOUND('',#132,.T.);
#113=FACE_BOUND('',#133,.T.);
#114=FACE_BOUND('',#139,.T.);
#115=FACE_BOUND('',#140,.T.);
#116=FACE_BOUND('',#142,.T.);
#117=FACE_BOUND('',#143,.T.);
#118=FACE_BOUND('',#144,.T.);
#119=FACE_BOUND('',#145,.T.);
#120=FACE_BOUND('',#146,.T.);
#121=FACE_BOUND('',#147,.T.);
#122=FACE_BOUND('',#148,.T.);
#123=FACE_BOUND('',#149,.T.);
#124=FACE_BOUND('',#150,.T.);
#125=FACE_BOUND('',#151,.T.);
#126=FACE_BOUND('',#152,.T.);
#127=FACE_BOUND('',#153,.T.);
#128=FACE_BOUND('',#154,.T.);
#129=FACE_BOUND('',#155,.T.);
#130=FACE_BOUND('',#156,.T.);
#131=FACE_BOUND('',#157,.T.);
#132=EDGE_LOOP('',(#164));
#133=EDGE_LOOP('',(#165,#166));
#134=EDGE_LOOP('',(#167,#168));
#135=EDGE_LOOP('',(#169,#170,#171,#172));
#136=EDGE_LOOP('',(#173,#174,#175,#176));
#137=EDGE_LOOP('',(#177,#178,#179,#180));
#138=EDGE_LOOP('',(#181,#182,#183,#184));
#139=EDGE_LOOP('',(#185,#186));
#140=EDGE_LOOP('',(#187,#188));
#141=EDGE_LOOP('',(#189,#190,#191,#192));
#142=EDGE_LOOP('',(#193));
#143=EDGE_LOOP('',(#194,#195));
#144=EDGE_LOOP('',(#196));
#145=EDGE_LOOP('',(#197));
#146=EDGE_LOOP('',(#198));
#147=EDGE_LOOP('',(#199));
#148=EDGE_LOOP('',(#200));
#149=EDGE_LOOP('',(#201));
#150=EDGE_LOOP('',(#202));
#151=EDGE_LOOP('',(#203));
#152=EDGE_LOOP('',(#204));
#153=EDGE_LOOP('',(#205));
#154=EDGE_LOOP('',(#206));
#155=EDGE_LOOP('',(#207));
#156=EDGE_LOOP('',(#208));
#157=EDGE_LOOP('',(#209));
#158=EDGE_LOOP('',(#210,#211,#212,#213));
#159=EDGE_LOOP('',(#214,#215,#216,#217));
#160=EDGE_LOOP('',(#218,#219,#220,#221));
#161=EDGE_LOOP('',(#222,#223));
#162=EDGE_LOOP('',(#224,#225,#226,#227));
#163=EDGE_LOOP('',(#228,#229,#230,#231));
#164=ORIENTED_EDGE('',*,*,#256,.F.);
#165=ORIENTED_EDGE('',*,*,#257,.T.);
#166=ORIENTED_EDGE('',*,*,#258,.T.);
#167=ORIENTED_EDGE('',*,*,#259,.F.);
#168=ORIENTED_EDGE('',*,*,#260,.F.);
#169=ORIENTED_EDGE('',*,*,#261,.T.);
#170=ORIENTED_EDGE('',*,*,#262,.F.);
#171=ORIENTED_EDGE('',*,*,#263,.F.);
#172=ORIENTED_EDGE('',*,*,#260,.T.);
#173=ORIENTED_EDGE('',*,*,#263,.T.);
#174=ORIENTED_EDGE('',*,*,#264,.T.);
#175=ORIENTED_EDGE('',*,*,#261,.F.);
#176=ORIENTED_EDGE('',*,*,#259,.T.);
#177=ORIENTED_EDGE('',*,*,#265,.T.);
#178=ORIENTED_EDGE('',*,*,#264,.F.);
#179=ORIENTED_EDGE('',*,*,#266,.T.);
#180=ORIENTED_EDGE('',*,*,#267,.T.);
#181=ORIENTED_EDGE('',*,*,#268,.T.);
#182=ORIENTED_EDGE('',*,*,#267,.F.);
#183=ORIENTED_EDGE('',*,*,#269,.F.);
#184=ORIENTED_EDGE('',*,*,#270,.T.);
#185=ORIENTED_EDGE('',*,*,#271,.F.);
#186=ORIENTED_EDGE('',*,*,#272,.F.);
#187=ORIENTED_EDGE('',*,*,#270,.F.);
#188=ORIENTED_EDGE('',*,*,#273,.F.);
#189=ORIENTED_EDGE('',*,*,#274,.F.);
#190=ORIENTED_EDGE('',*,*,#272,.T.);
#191=ORIENTED_EDGE('',*,*,#275,.T.);
#192=ORIENTED_EDGE('',*,*,#276,.F.);
#193=ORIENTED_EDGE('',*,*,#277,.F.);
#194=ORIENTED_EDGE('',*,*,#278,.T.);
#195=ORIENTED_EDGE('',*,*,#276,.T.);
#196=ORIENTED_EDGE('',*,*,#279,.T.);
#197=ORIENTED_EDGE('',*,*,#280,.T.);
#198=ORIENTED_EDGE('',*,*,#280,.F.);
#199=ORIENTED_EDGE('',*,*,#281,.T.);
#200=ORIENTED_EDGE('',*,*,#281,.F.);
#201=ORIENTED_EDGE('',*,*,#277,.T.);
#202=ORIENTED_EDGE('',*,*,#282,.F.);
#203=ORIENTED_EDGE('',*,*,#279,.F.);
#204=ORIENTED_EDGE('',*,*,#256,.T.);
#205=ORIENTED_EDGE('',*,*,#283,.F.);
#206=ORIENTED_EDGE('',*,*,#283,.T.);
#207=ORIENTED_EDGE('',*,*,#284,.F.);
#208=ORIENTED_EDGE('',*,*,#284,.T.);
#209=ORIENTED_EDGE('',*,*,#282,.T.);
#210=ORIENTED_EDGE('',*,*,#275,.F.);
#211=ORIENTED_EDGE('',*,*,#271,.T.);
#212=ORIENTED_EDGE('',*,*,#274,.T.);
#213=ORIENTED_EDGE('',*,*,#278,.F.);
#214=ORIENTED_EDGE('',*,*,#269,.T.);
#215=ORIENTED_EDGE('',*,*,#285,.F.);
#216=ORIENTED_EDGE('',*,*,#268,.F.);
#217=ORIENTED_EDGE('',*,*,#273,.T.);
#218=ORIENTED_EDGE('',*,*,#266,.F.);
#219=ORIENTED_EDGE('',*,*,#262,.T.);
#220=ORIENTED_EDGE('',*,*,#265,.F.);
#221=ORIENTED_EDGE('',*,*,#285,.T.);
#222=ORIENTED_EDGE('',*,*,#286,.T.);
#223=ORIENTED_EDGE('',*,*,#287,.T.);
#224=ORIENTED_EDGE('',*,*,#288,.F.);
#225=ORIENTED_EDGE('',*,*,#257,.F.);
#226=ORIENTED_EDGE('',*,*,#289,.T.);
#227=ORIENTED_EDGE('',*,*,#286,.F.);
#228=ORIENTED_EDGE('',*,*,#289,.F.);
#229=ORIENTED_EDGE('',*,*,#258,.F.);
#230=ORIENTED_EDGE('',*,*,#288,.T.);
#231=ORIENTED_EDGE('',*,*,#287,.F.);
#232=VERTEX_POINT('',#506);
#233=VERTEX_POINT('',#508);
#234=VERTEX_POINT('',#509);
#235=VERTEX_POINT('',#513);
#236=VERTEX_POINT('',#514);
#237=VERTEX_POINT('',#518);
#238=VERTEX_POINT('',#520);
#239=VERTEX_POINT('',#526);
#240=VERTEX_POINT('',#528);
#241=VERTEX_POINT('',#532);
#242=VERTEX_POINT('',#534);
#243=VERTEX_POINT('',#538);
#244=VERTEX_POINT('',#539);
#245=VERTEX_POINT('',#544);
#246=VERTEX_POINT('',#546);
#247=VERTEX_POINT('',#550);
#248=VERTEX_POINT('',#554);
#249=VERTEX_POINT('',#556);
#250=VERTEX_POINT('',#559);
#251=VERTEX_POINT('',#563);
#252=VERTEX_POINT('',#566);
#253=VERTEX_POINT('',#569);
#254=VERTEX_POINT('',#577);
#255=VERTEX_POINT('',#578);
#256=EDGE_CURVE('',#232,#232,#290,.T.);
#257=EDGE_CURVE('',#233,#234,#291,.T.);
#258=EDGE_CURVE('',#234,#233,#292,.T.);
#259=EDGE_CURVE('',#235,#236,#293,.T.);
#260=EDGE_CURVE('',#236,#235,#294,.T.);
#261=EDGE_CURVE('',#235,#237,#56,.T.);
#262=EDGE_CURVE('',#238,#237,#295,.T.);
#263=EDGE_CURVE('',#236,#238,#57,.T.);
#264=EDGE_CURVE('',#238,#237,#296,.T.);
#265=EDGE_CURVE('',#239,#237,#58,.T.);
#266=EDGE_CURVE('',#238,#240,#59,.T.);
#267=EDGE_CURVE('',#240,#239,#297,.T.);
#268=EDGE_CURVE('',#241,#239,#298,.T.);
#269=EDGE_CURVE('',#242,#240,#299,.T.);
#270=EDGE_CURVE('',#242,#241,#300,.T.);
#271=EDGE_CURVE('',#243,#244,#301,.T.);
#272=EDGE_CURVE('',#244,#243,#302,.T.);
#273=EDGE_CURVE('',#241,#242,#303,.T.);
#274=EDGE_CURVE('',#244,#245,#60,.T.);
#275=EDGE_CURVE('',#243,#246,#61,.T.);
#276=EDGE_CURVE('',#245,#246,#304,.T.);
#277=EDGE_CURVE('',#247,#247,#305,.T.);
#278=EDGE_CURVE('',#246,#245,#306,.T.);
#279=EDGE_CURVE('',#248,#248,#307,.T.);
#280=EDGE_CURVE('',#249,#249,#308,.T.);
#281=EDGE_CURVE('',#250,#250,#309,.T.);
#282=EDGE_CURVE('',#251,#251,#310,.T.);
#283=EDGE_CURVE('',#252,#252,#311,.T.);
#284=EDGE_CURVE('',#253,#253,#312,.T.);
#285=EDGE_CURVE('',#239,#240,#313,.T.);
#286=EDGE_CURVE('',#254,#255,#314,.T.);
#287=EDGE_CURVE('',#255,#254,#315,.T.);
#288=EDGE_CURVE('',#234,#254,#62,.T.);
#289=EDGE_CURVE('',#233,#255,#63,.T.);
#290=CIRCLE('',#341,31.5);
#291=CIRCLE('',#342,22.5166650635425);
#292=CIRCLE('',#343,22.5166650635425);
#293=CIRCLE('',#345,12.0000000000014);
#294=CIRCLE('',#346,12.0000000000014);
#295=CIRCLE('',#348,16.);
#296=CIRCLE('',#350,16.);
#297=CIRCLE('',#352,16.);
#298=CIRCLE('',#354,3.);
#299=CIRCLE('',#355,3.);
#300=CIRCLE('',#356,19.);
#301=CIRCLE('',#358,31.5);
#302=CIRCLE('',#359,31.5);
#303=CIRCLE('',#360,19.);
#304=CIRCLE('',#362,31.5);
#305=CIRCLE('',#364,27.09407165491);
#306=CIRCLE('',#365,31.5);
#307=CIRCLE('',#367,26.5);
#308=CIRCLE('',#368,26.5);
#309=CIRCLE('',#370,27.);
#310=CIRCLE('',#373,27.);
#311=CIRCLE('',#375,31.5);
#312=CIRCLE('',#377,27.09407165491);
#313=CIRCLE('',#381,16.);
#314=CIRCLE('',#384,12.6875524222744);
#315=CIRCLE('',#385,12.6875524222744);
#316=INVISIBILITY((#317,#318,#319));
#317=PRESENTATION_LAYER_ASSIGNMENT('100','Layer 100',(#338));
#318=PRESENTATION_LAYER_ASSIGNMENT('101','Layer 101',(#339));
#319=PRESENTATION_LAYER_ASSIGNMENT('102','Layer 102',(#340));
#320=PRESENTATION_LAYER_ASSIGNMENT('98','Layer 98',(#38));
#321=STYLED_ITEM('',(#325),#338);
#322=STYLED_ITEM('',(#326),#339);
#323=STYLED_ITEM('',(#327),#340);
#324=STYLED_ITEM('',(#328),#38);
#325=PRESENTATION_STYLE_ASSIGNMENT((#329));
#326=PRESENTATION_STYLE_ASSIGNMENT((#330));
#327=PRESENTATION_STYLE_ASSIGNMENT((#331));
#328=PRESENTATION_STYLE_ASSIGNMENT((#33));
#329=CURVE_STYLE('',#334,POSITIVE_LENGTH_MEASURE(0.7),#332);
#330=CURVE_STYLE('',#335,POSITIVE_LENGTH_MEASURE(0.7),#332);
#331=CURVE_STYLE('',#336,POSITIVE_LENGTH_MEASURE(0.7),#332);
#332=COLOUR_RGB('Medium Maroon',0.6,0.4,0.4);
#333=COLOUR_RGB('Medium Gray',0.490196078431373,0.490196078431373,0.490196078431373);
#334=DRAUGHTING_PRE_DEFINED_CURVE_FONT('continuous');
#335=DRAUGHTING_PRE_DEFINED_CURVE_FONT('continuous');
#336=DRAUGHTING_PRE_DEFINED_CURVE_FONT('continuous');
#337=AXIS2_PLACEMENT_3D('',#501,#389,#390);
#338=AXIS2_PLACEMENT_3D('PCS',#502,#391,#392);
#339=AXIS2_PLACEMENT_3D('CSW',#503,#393,#394);
#340=AXIS2_PLACEMENT_3D('MCS',#504,#395,#396);
#341=AXIS2_PLACEMENT_3D('',#505,#397,#398);
#342=AXIS2_PLACEMENT_3D('',#507,#399,#400);
#343=AXIS2_PLACEMENT_3D('',#510,#401,#402);
#344=AXIS2_PLACEMENT_3D('',#511,#403,#404);
#345=AXIS2_PLACEMENT_3D('',#512,#405,#406);
#346=AXIS2_PLACEMENT_3D('',#515,#407,#408);
#347=AXIS2_PLACEMENT_3D('',#516,#409,#410);
#348=AXIS2_PLACEMENT_3D('',#519,#412,#413);
#349=AXIS2_PLACEMENT_3D('',#522,#415,#416);
#350=AXIS2_PLACEMENT_3D('',#523,#417,#418);
#351=AXIS2_PLACEMENT_3D('',#524,#419,#420);
#352=AXIS2_PLACEMENT_3D('',#529,#423,#424);
#353=AXIS2_PLACEMENT_3D('',#530,#425,#426);
#354=AXIS2_PLACEMENT_3D('',#531,#427,#428);
#355=AXIS2_PLACEMENT_3D('',#533,#429,#430);
#356=AXIS2_PLACEMENT_3D('',#535,#431,#432);
#357=AXIS2_PLACEMENT_3D('',#536,#433,#434);
#358=AXIS2_PLACEMENT_3D('',#537,#435,#436);
#359=AXIS2_PLACEMENT_3D('',#540,#437,#438);
#360=AXIS2_PLACEMENT_3D('',#541,#439,#440);
#361=AXIS2_PLACEMENT_3D('',#542,#441,#442);
#362=AXIS2_PLACEMENT_3D('',#547,#445,#446);
#363=AXIS2_PLACEMENT_3D('',#548,#447,#448);
#364=AXIS2_PLACEMENT_3D('',#549,#449,#450);
#365=AXIS2_PLACEMENT_3D('',#551,#451,#452);
#366=AXIS2_PLACEMENT_3D('',#552,#453,#454);
#367=AXIS2_PLACEMENT_3D('',#553,#455,#456);
#368=AXIS2_PLACEMENT_3D('',#555,#457,#458);
#369=AXIS2_PLACEMENT_3D('',#557,#459,#460);
#370=AXIS2_PLACEMENT_3D('',#558,#461,#462);
#371=AXIS2_PLACEMENT_3D('',#560,#463,#464);
#372=AXIS2_PLACEMENT_3D('',#561,#465,#466);
#373=AXIS2_PLACEMENT_3D('',#562,#467,#468);
#374=AXIS2_PLACEMENT_3D('',#564,#469,#470);
#375=AXIS2_PLACEMENT_3D('',#565,#471,#472);
#376=AXIS2_PLACEMENT_3D('',#567,#473,#474);
#377=AXIS2_PLACEMENT_3D('',#568,#475,#476);
#378=AXIS2_PLACEMENT_3D('',#570,#477,#478);
#379=AXIS2_PLACEMENT_3D('',#571,#479,#480);
#380=AXIS2_PLACEMENT_3D('',#572,#481,#482);
#381=AXIS2_PLACEMENT_3D('',#573,#483,#484);
#382=AXIS2_PLACEMENT_3D('',#574,#485,#486);
#383=AXIS2_PLACEMENT_3D('',#575,#487,#488);
#384=AXIS2_PLACEMENT_3D('',#576,#489,#490);
#385=AXIS2_PLACEMENT_3D('',#579,#491,#492);
#386=AXIS2_PLACEMENT_3D('',#580,#493,#494);
#387=AXIS2_PLACEMENT_3D('',#583,#497,#498);
#388=AXIS2_PLACEMENT_3D('',#584,#499,#500);
#389=DIRECTION('',(0.,0.,1.));
#390=DIRECTION('',(1.,0.,0.));
#391=DIRECTION('',(0.,0.,1.));
#392=DIRECTION('',(1.,0.,0.));
#393=DIRECTION('',(0.,0.,1.));
#394=DIRECTION('',(1.,0.,0.));
#395=DIRECTION('',(0.,0.,1.));
#396=DIRECTION('',(1.,0.,0.));
#397=DIRECTION('',(0.,0.,-1.));
#398=DIRECTION('',(-1.,0.,0.));
#399=DIRECTION('',(0.,0.,-1.));
#400=DIRECTION('',(-1.,0.,0.));
#401=DIRECTION('',(0.,0.,-1.));
#402=DIRECTION('',(-1.,0.,0.));
#403=DIRECTION('',(0.,0.,-1.));
#404=DIRECTION('',(0.,1.,0.));
#405=DIRECTION('',(0.,0.,1.));
#406=DIRECTION('',(-1.,0.,0.));
#407=DIRECTION('',(0.,0.,1.));
#408=DIRECTION('',(-1.,0.,0.));
#409=DIRECTION('',(0.,0.,-1.));
#410=DIRECTION('',(0.,1.,0.));
#411=DIRECTION('',(0.,-0.0784590957278522,0.996917333733127));
#412=DIRECTION('',(0.,0.,1.));
#413=DIRECTION('',(0.,1.,0.));
#414=DIRECTION('',(0.,0.0784590957278522,0.996917333733127));
#415=DIRECTION('',(0.,0.,1.));
#416=DIRECTION('',(0.,-1.,-2.99290307326176E-16));
#417=DIRECTION('',(0.,0.,-1.));
#418=DIRECTION('',(0.,1.,0.));
#419=DIRECTION('',(0.,0.,1.));
#420=DIRECTION('',(0.,-1.,-2.99290307326176E-16));
#421=DIRECTION('',(5.499490532006E-14,0.,-1.));
#422=DIRECTION('',(5.496571285926E-14,0.,1.));
#423=DIRECTION('',(0.,0.,-1.));
#424=DIRECTION('',(0.,1.,0.));
#425=DIRECTION('',(0.,0.,-1.));
#426=DIRECTION('',(0.,1.,0.));
#427=DIRECTION('',(-1.,-5.874207370526E-14,0.));
#428=DIRECTION('',(-3.22118202965246E-27,5.435466891394E-14,1.));
#429=DIRECTION('',(1.,5.929978730279E-14,0.));
#430=DIRECTION('',(3.28692043842088E-27,-5.55111512312578E-14,1.));
#431=DIRECTION('',(0.,0.,-1.));
#432=DIRECTION('',(0.,1.,0.));
#433=DIRECTION('',(0.,0.,-1.));
#434=DIRECTION('',(0.0069354479206907,-0.999975949491856,0.));
#435=DIRECTION('',(0.,0.,1.));
#436=DIRECTION('',(-1.,0.,0.));
#437=DIRECTION('',(0.,0.,1.));
#438=DIRECTION('',(-1.,0.,0.));
#439=DIRECTION('',(0.,0.,-1.));
#440=DIRECTION('',(0.,-1.,0.));
#441=DIRECTION('',(0.,0.,-1.));
#442=DIRECTION('',(0.,1.,0.));
#443=DIRECTION('',(0.,0.,1.));
#444=DIRECTION('',(0.,0.,1.));
#445=DIRECTION('',(0.,0.,1.));
#446=DIRECTION('',(0.,1.,0.));
#447=DIRECTION('',(0.,0.,-1.));
#448=DIRECTION('',(0.,1.,0.));
#449=DIRECTION('',(0.,0.,1.));
#450=DIRECTION('',(-0.964298831579577,-0.264816471191394,0.));
#451=DIRECTION('',(0.,0.,1.));
#452=DIRECTION('',(0.,-1.,0.));
#453=DIRECTION('',(0.,0.,-1.));
#454=DIRECTION('',(0.,1.,-1.37201425506989E-17));
#455=DIRECTION('',(0.,0.,-1.));
#456=DIRECTION('',(0.952744251682231,-0.30377358490571,0.));
#457=DIRECTION('',(0.,0.,1.));
#458=DIRECTION('',(-0.960130820563129,-0.279551081923809,0.));
#459=DIRECTION('',(0.,0.,-1.));
#460=DIRECTION('',(0.,1.,0.));
#461=DIRECTION('',(0.,0.,1.));
#462=DIRECTION('',(-0.964044976154829,-0.265739127624508,0.));
#463=DIRECTION('',(0.,0.,-1.));
#464=DIRECTION('',(0.00438941531076905,-0.999990366470212,0.));
#465=DIRECTION('',(0.,0.,-1.));
#466=DIRECTION('',(0.,1.,0.));
#467=DIRECTION('',(0.,0.,1.));
#468=DIRECTION('',(-0.954519607842528,-0.298148148148109,0.));
#469=DIRECTION('',(0.,0.,-1.));
#470=DIRECTION('',(0.00418746158650899,-0.999991232544297,0.));
#471=DIRECTION('',(0.,0.,-1.));
#472=DIRECTION('',(0.966794372151946,-0.255555555555586,0.));
#473=DIRECTION('',(0.,0.,-1.));
#474=DIRECTION('',(0.,1.,0.));
#475=DIRECTION('',(0.,0.,-1.));
#476=DIRECTION('',(0.954842335270237,-0.297112966354012,0.));
#477=DIRECTION('',(0.,0.,1.));
#478=DIRECTION('',(0.,-1.,9.80010182192779E-18));
#479=DIRECTION('',(0.,0.,-1.));
#480=DIRECTION('',(0.,1.,0.));
#481=DIRECTION('',(0.,0.,-1.));
#482=DIRECTION('',(0.,1.,0.));
#483=DIRECTION('',(0.,0.,-1.));
#484=DIRECTION('',(0.,-1.,0.));
#485=DIRECTION('',(0.,0.,-1.));
#486=DIRECTION('',(-0.0069354479206897,0.999975949491856,0.));
#487=DIRECTION('',(0.,0.,-1.));
#488=DIRECTION('',(0.,1.,0.));
#489=DIRECTION('',(0.,0.,1.));
#490=DIRECTION('',(-1.,0.,0.));
#491=DIRECTION('',(0.,0.,1.));
#492=DIRECTION('',(-1.,0.,0.));
#493=DIRECTION('',(0.,0.,-1.));
#494=DIRECTION('',(0.,1.,0.));
#495=DIRECTION('',(-1.44055658061997E-13,0.144306116415197,0.989533094325381));
#496=DIRECTION('',(1.44060548240597E-13,-0.144306116415197,0.989533094325381));
#497=DIRECTION('',(0.,0.,-1.));
#498=DIRECTION('',(0.,1.,-2.54870260628185E-16));
#499=DIRECTION('',(0.,0.,-1.));
#500=DIRECTION('',(0.,1.,-2.54870260628185E-16));
#501=CARTESIAN_POINT('',(0.,0.,0.));
#502=CARTESIAN_POINT('',(0.,0.,0.));
#503=CARTESIAN_POINT('',(0.,0.,-160.));
#504=CARTESIAN_POINT('',(0.,0.,0.));
#505=CARTESIAN_POINT('',(0.,0.,-2.));
#506=CARTESIAN_POINT('',(-31.5,0.,-2.));
#507=CARTESIAN_POINT('',(0.,0.,-2.));
#508=CARTESIAN_POINT('',(0.,22.5166650635425,-2.));
#509=CARTESIAN_POINT('',(-6.13687901368789E-12,-22.5166650635425,-2.));
#510=CARTESIAN_POINT('',(0.,0.,-2.));
#511=CARTESIAN_POINT('',(0.,0.,-2.));
#512=CARTESIAN_POINT('',(0.,0.,-160.));
#513=CARTESIAN_POINT('',(2.023152395323E-13,-11.9999999999929,-160.));
#514=CARTESIAN_POINT('',(-2.026848540662E-13,11.9999999999929,-160.));
#515=CARTESIAN_POINT('',(0.,0.,-160.));
#516=CARTESIAN_POINT('',(0.,0.,-160.));
#517=CARTESIAN_POINT('',(2.023152395323E-13,-12.07252684207,-159.0784590957));
#518=CARTESIAN_POINT('',(0.,-16.,-109.1751810553));
#519=CARTESIAN_POINT('',(0.,0.,-109.1751810553));
#520=CARTESIAN_POINT('',(0.,16.,-109.1751810553));
#521=CARTESIAN_POINT('',(-2.026848540662E-13,12.07252684207,-159.0784590957));
#522=CARTESIAN_POINT('',(0.,0.,-134.1268200755));
#523=CARTESIAN_POINT('',(0.,0.,-109.1751810553));
#524=CARTESIAN_POINT('',(0.,0.,-134.1268200755));
#525=CARTESIAN_POINT('',(-4.356191020714E-12,-16.,-30.));
#526=CARTESIAN_POINT('',(0.,-16.,-30.));
#527=CARTESIAN_POINT('',(0.,16.,-109.1751810553));
#528=CARTESIAN_POINT('',(0.,16.,-30.));
#529=CARTESIAN_POINT('',(0.,0.,-30.));
#530=CARTESIAN_POINT('',(0.,0.,-88.6));
#531=CARTESIAN_POINT('',(1.116107206656E-12,-19.,-30.));
#532=CARTESIAN_POINT('',(0.,-19.,-27.));
#533=CARTESIAN_POINT('',(-1.126709836541E-12,19.,-30.));
#534=CARTESIAN_POINT('',(0.,19.,-27.));
#535=CARTESIAN_POINT('',(0.,0.,-27.));
#536=CARTESIAN_POINT('',(0.,0.,-30.));
#537=CARTESIAN_POINT('',(0.,0.,-27.));
#538=CARTESIAN_POINT('',(3.76541984645E-14,-31.5,-27.));
#539=CARTESIAN_POINT('',(-3.861860781882E-14,31.5,-27.));
#540=CARTESIAN_POINT('',(0.,0.,-27.));
#541=CARTESIAN_POINT('',(0.,0.,-27.));
#542=CARTESIAN_POINT('',(0.,0.,-27.));
#543=CARTESIAN_POINT('',(-3.861860781882E-14,31.5,-26.));
#544=CARTESIAN_POINT('',(0.,31.5,-21.630963692662));
#545=CARTESIAN_POINT('',(3.76541984645E-14,-31.5,-26.));
#546=CARTESIAN_POINT('',(0.,-31.5,-21.630963692662));
#547=CARTESIAN_POINT('',(0.,0.,-21.630963692662));
#548=CARTESIAN_POINT('',(0.,0.,70.02));
#549=CARTESIAN_POINT('',(0.,0.,-19.1));
#550=CARTESIAN_POINT('',(-26.126781639563,-7.17495644586003,-19.1));
#551=CARTESIAN_POINT('',(0.,0.,-21.630963692662));
#552=CARTESIAN_POINT('',(0.,0.,-20.365481846331));
#553=CARTESIAN_POINT('',(0.,0.,-14.6));
#554=CARTESIAN_POINT('',(25.2477226695791,-8.05000000000131,-14.6));
#555=CARTESIAN_POINT('',(0.,0.,-18.6));
#556=CARTESIAN_POINT('',(-25.4434667449229,-7.40810367098093,-18.6));
#557=CARTESIAN_POINT('',(0.,0.,70.02));
#558=CARTESIAN_POINT('',(0.,0.,-19.1));
#559=CARTESIAN_POINT('',(-26.0292143561804,-7.17495644586172,-19.1));
#560=CARTESIAN_POINT('',(0.,0.,-18.6));
#561=CARTESIAN_POINT('',(0.,0.,-19.1));
#562=CARTESIAN_POINT('',(0.,0.,-14.1));
#563=CARTESIAN_POINT('',(-25.7720294117483,-8.04999999999893,-14.1));
#564=CARTESIAN_POINT('',(0.,0.,-14.6));
#565=CARTESIAN_POINT('',(0.,0.,-11.56903630734));
#566=CARTESIAN_POINT('',(30.4540227227863,-8.05000000000095,-11.56903630734));
#567=CARTESIAN_POINT('',(0.,0.,70.02));
#568=CARTESIAN_POINT('',(0.,0.,-14.1));
#569=CARTESIAN_POINT('',(25.8705666509534,-8.04999999999845,-14.1));
#570=CARTESIAN_POINT('',(0.,0.,-12.83451815367));
#571=CARTESIAN_POINT('',(0.,0.,-14.1));
#572=CARTESIAN_POINT('',(0.,0.,70.02));
#573=CARTESIAN_POINT('',(0.,0.,-30.));
#574=CARTESIAN_POINT('',(0.,0.,-30.));
#575=CARTESIAN_POINT('',(0.,0.,-88.6));
#576=CARTESIAN_POINT('',(0.,0.,65.4));
#577=CARTESIAN_POINT('',(-9.52089434025205E-12,-12.6875524222734,65.4));
#578=CARTESIAN_POINT('',(9.52121754084259E-12,12.6875524222734,65.4));
#579=CARTESIAN_POINT('',(0.,0.,65.4));
#580=CARTESIAN_POINT('',(0.,0.,65.4));
#581=CARTESIAN_POINT('',(0.,-22.225,0.));
#582=CARTESIAN_POINT('',(0.,22.225,0.));
#583=CARTESIAN_POINT('',(0.,0.,32.27215305821));
#584=CARTESIAN_POINT('',(0.,0.,32.27215305821));
#585=MECHANICAL_DESIGN_GEOMETRIC_PRESENTATION_REPRESENTATION('',(#321,#322,
#323,#324),#586);
#586=(
GEOMETRIC_REPRESENTATION_CONTEXT(3)
GLOBAL_UNCERTAINTY_ASSIGNED_CONTEXT((#587))
GLOBAL_UNIT_ASSIGNED_CONTEXT((#593,#589,#588))
REPRESENTATION_CONTEXT('BT.40ADB-SC.12','TOP_LEVEL_ASSEMBLY_PART')
);
#587=UNCERTAINTY_MEASURE_WITH_UNIT(LENGTH_MEASURE(2.E-5),#593,
'DISTANCE_ACCURACY_VALUE','Maximum Tolerance applied to model');
#588=(
NAMED_UNIT(*)
SI_UNIT($,.STERADIAN.)
SOLID_ANGLE_UNIT()
);
#589=(
CONVERSION_BASED_UNIT('DEGREE',#591)
NAMED_UNIT(#590)
PLANE_ANGLE_UNIT()
);
#590=DIMENSIONAL_EXPONENTS(0.,0.,0.,0.,0.,0.,0.);
#591=PLANE_ANGLE_MEASURE_WITH_UNIT(PLANE_ANGLE_MEASURE(0.0174532925),#592);
#592=(
NAMED_UNIT(*)
PLANE_ANGLE_UNIT()
SI_UNIT($,.RADIAN.)
);
#593=(
LENGTH_UNIT()
NAMED_UNIT(*)
SI_UNIT(.MILLI.,.METRE.)
);
ENDSEC;
END-ISO-10303-21;
