ISO-10303-21;
HEADER;
/* Generated by software containing ST-Developer
 * from STEP Tools, Inc. (www.steptools.com) 
 */
/* OPTION: using custom schema-name function */

FILE_DESCRIPTION(
/* description */ (''),
/* implementation_level */ '2;1');

FILE_NAME(
/* name */ 'BT.40ADB-IHA.M6.050.stp',
/* time_stamp */ '2024-08-10T14:01:31+02:00',
/* author */ (''),
/* organization */ (''),
/* preprocessor_version */ 'ST-DEVELOPER v16.7',
/* originating_system */ 'SIEMENS PLM Software NX 12.0',
/* authorisation */ '');

FILE_SCHEMA (('AUTOMOTIVE_DESIGN { 1 0 10303 214 3 1 1 1 }'));
ENDSEC;

DATA;
#10=CONSTRUCTIVE_GEOMETRY_REPRESENTATION_RELATIONSHIP(
'supplemental geometry','',#32,#11);
#11=CONSTRUCTIVE_GEOMETRY_REPRESENTATION('supplemental geometry',(#333,
#334,#335),#574);
#12=PROPERTY_DEFINITION_REPRESENTATION(#16,#14);
#13=PROPERTY_DEFINITION_REPRESENTATION(#17,#15);
#14=REPRESENTATION('',(#18),#574);
#15=REPRESENTATION('',(#19),#574);
#16=PROPERTY_DEFINITION('pmi validation property','',#23);
#17=PROPERTY_DEFINITION('pmi validation property','',#23);
#18=VALUE_REPRESENTATION_ITEM('number of annotations',COUNT_MEASURE(0.));
#19=VALUE_REPRESENTATION_ITEM('number of views',COUNT_MEASURE(0.));
#20=SHAPE_REPRESENTATION_RELATIONSHIP('None',
'relationship between pf6610E89C82zpar-None and pf6610E89C82zpar-None',
#32,#21);
#21=ADVANCED_BREP_SHAPE_REPRESENTATION('pf6610E89C82zpar-None',(#38),#574);
#22=SHAPE_DEFINITION_REPRESENTATION(#23,#32);
#23=PRODUCT_DEFINITION_SHAPE('','',#24);
#24=PRODUCT_DEFINITION(' ','',#26,#25);
#25=PRODUCT_DEFINITION_CONTEXT('part definition',#31,'design');
#26=PRODUCT_DEFINITION_FORMATION_WITH_SPECIFIED_SOURCE(' ',' ',#28,
 .NOT_KNOWN.);
#27=PRODUCT_RELATED_PRODUCT_CATEGORY('part','',(#28));
#28=PRODUCT('pf6610E89C82zpar','pf6610E89C82zpar',' ',(#29));
#29=PRODUCT_CONTEXT(' ',#31,'mechanical');
#30=APPLICATION_PROTOCOL_DEFINITION('international standard',
'automotive_design',2010,#31);
#31=APPLICATION_CONTEXT(
'core data for automotive mechanical design processes');
#32=SHAPE_REPRESENTATION('pf6610E89C82zpar-None',(#332),#574);
#33=SURFACE_STYLE_USAGE(.BOTH.,#34);
#34=SURFACE_SIDE_STYLE('',(#35));
#35=SURFACE_STYLE_FILL_AREA(#36);
#36=FILL_AREA_STYLE('',(#37));
#37=FILL_AREA_STYLE_COLOUR('',#328);
#38=MANIFOLD_SOLID_BREP('\X\B6\X2\011800A800A4\X0\8',#39);
#39=CLOSED_SHELL('',(#95,#96,#97,#98,#99,#100,#101,#102,#103,#104,#105,
#106,#107,#108,#109,#110,#111,#112,#113,#114,#115));
#40=PLANE('',#362);
#41=PLANE('',#365);
#42=PLANE('',#367);
#43=PLANE('',#370);
#44=PLANE('',#375);
#45=PLANE('',#381);
#46=FACE_BOUND('',#133,.T.);
#47=FACE_BOUND('',#134,.T.);
#48=FACE_BOUND('',#135,.T.);
#49=FACE_BOUND('',#136,.T.);
#50=FACE_BOUND('',#137,.T.);
#51=FACE_BOUND('',#138,.T.);
#52=FACE_BOUND('',#139,.T.);
#53=FACE_BOUND('',#140,.T.);
#54=FACE_BOUND('',#141,.T.);
#55=FACE_BOUND('',#142,.T.);
#56=FACE_BOUND('',#143,.T.);
#57=FACE_BOUND('',#144,.T.);
#58=FACE_BOUND('',#145,.T.);
#59=FACE_BOUND('',#146,.T.);
#60=FACE_BOUND('',#147,.T.);
#61=FACE_BOUND('',#148,.T.);
#62=FACE_BOUND('',#149,.T.);
#63=FACE_BOUND('',#150,.T.);
#64=FACE_BOUND('',#151,.T.);
#65=FACE_BOUND('',#152,.T.);
#66=FACE_BOUND('',#153,.T.);
#67=FACE_BOUND('',#154,.T.);
#68=CONICAL_SURFACE('',#345,5.,6.78897457443879);
#69=CONICAL_SURFACE('',#361,27.1696270189222,60.0000000000001);
#70=CONICAL_SURFACE('',#368,31.5,60.0000000000001);
#71=CONICAL_SURFACE('',#372,5.,6.78897457443879);
#72=CONICAL_SURFACE('',#378,22.2979162658848,8.29710000000004);
#73=CONICAL_SURFACE('',#380,22.2979162658848,8.29710000000004);
#74=CYLINDRICAL_SURFACE('',#343,5.);
#75=CYLINDRICAL_SURFACE('',#349,31.5);
#76=CYLINDRICAL_SURFACE('',#354,26.5);
#77=CYLINDRICAL_SURFACE('',#359,31.5);
#78=CYLINDRICAL_SURFACE('',#374,5.);
#79=LINE('',#506,#87);
#80=LINE('',#510,#88);
#81=LINE('',#512,#89);
#82=LINE('',#514,#90);
#83=LINE('',#518,#91);
#84=LINE('',#523,#92);
#85=LINE('',#567,#93);
#86=LINE('',#568,#94);
#87=VECTOR('',#402,1.);
#88=VECTOR('',#405,1.);
#89=VECTOR('',#408,1.);
#90=VECTOR('',#411,1.);
#91=VECTOR('',#416,1.);
#92=VECTOR('',#419,1.);
#93=VECTOR('',#480,1.);
#94=VECTOR('',#481,1.);
#95=ADVANCED_FACE('',(#120),#116,.F.);
#96=ADVANCED_FACE('',(#121),#74,.T.);
#97=ADVANCED_FACE('',(#122),#68,.T.);
#98=ADVANCED_FACE('',(#46,#47),#75,.T.);
#99=ADVANCED_FACE('',(#48,#49),#117,.F.);
#100=ADVANCED_FACE('',(#50,#51),#76,.T.);
#101=ADVANCED_FACE('',(#52,#53),#118,.F.);
#102=ADVANCED_FACE('',(#54,#55),#77,.T.);
#103=ADVANCED_FACE('',(#56,#57),#69,.T.);
#104=ADVANCED_FACE('',(#58,#59),#40,.T.);
#105=ADVANCED_FACE('',(#60,#61),#41,.T.);
#106=ADVANCED_FACE('',(#62,#63),#42,.T.);
#107=ADVANCED_FACE('',(#64,#65),#70,.T.);
#108=ADVANCED_FACE('',(#66,#67),#43,.T.);
#109=ADVANCED_FACE('',(#123),#71,.T.);
#110=ADVANCED_FACE('',(#124),#78,.T.);
#111=ADVANCED_FACE('',(#125),#44,.T.);
#112=ADVANCED_FACE('',(#126),#119,.F.);
#113=ADVANCED_FACE('',(#127),#72,.T.);
#114=ADVANCED_FACE('',(#128),#73,.T.);
#115=ADVANCED_FACE('',(#129),#45,.T.);
#116=TOROIDAL_SURFACE('',#340,12.6640408546509,3.);
#117=TOROIDAL_SURFACE('',#352,27.,0.5);
#118=TOROIDAL_SURFACE('',#356,27.,0.5);
#119=TOROIDAL_SURFACE('',#376,12.6640408546509,3.);
#120=FACE_OUTER_BOUND('',#130,.T.);
#121=FACE_OUTER_BOUND('',#131,.T.);
#122=FACE_OUTER_BOUND('',#132,.T.);
#123=FACE_OUTER_BOUND('',#155,.T.);
#124=FACE_OUTER_BOUND('',#156,.T.);
#125=FACE_OUTER_BOUND('',#157,.T.);
#126=FACE_OUTER_BOUND('',#158,.T.);
#127=FACE_OUTER_BOUND('',#159,.T.);
#128=FACE_OUTER_BOUND('',#160,.T.);
#129=FACE_OUTER_BOUND('',#161,.T.);
#130=EDGE_LOOP('',(#162,#163,#164,#165));
#131=EDGE_LOOP('',(#166,#167,#168,#169));
#132=EDGE_LOOP('',(#170,#171,#172,#173));
#133=EDGE_LOOP('',(#174));
#134=EDGE_LOOP('',(#175,#176,#177,#178,#179,#180));
#135=EDGE_LOOP('',(#181));
#136=EDGE_LOOP('',(#182));
#137=EDGE_LOOP('',(#183));
#138=EDGE_LOOP('',(#184));
#139=EDGE_LOOP('',(#185));
#140=EDGE_LOOP('',(#186));
#141=EDGE_LOOP('',(#187));
#142=EDGE_LOOP('',(#188));
#143=EDGE_LOOP('',(#189));
#144=EDGE_LOOP('',(#190));
#145=EDGE_LOOP('',(#191));
#146=EDGE_LOOP('',(#192));
#147=EDGE_LOOP('',(#193,#194));
#148=EDGE_LOOP('',(#195));
#149=EDGE_LOOP('',(#196));
#150=EDGE_LOOP('',(#197));
#151=EDGE_LOOP('',(#198));
#152=EDGE_LOOP('',(#199));
#153=EDGE_LOOP('',(#200,#201));
#154=EDGE_LOOP('',(#202,#203));
#155=EDGE_LOOP('',(#204,#205,#206,#207));
#156=EDGE_LOOP('',(#208,#209,#210,#211));
#157=EDGE_LOOP('',(#212,#213));
#158=EDGE_LOOP('',(#214,#215,#216,#217));
#159=EDGE_LOOP('',(#218,#219,#220,#221));
#160=EDGE_LOOP('',(#222,#223,#224,#225));
#161=EDGE_LOOP('',(#226,#227));
#162=ORIENTED_EDGE('',*,*,#253,.F.);
#163=ORIENTED_EDGE('',*,*,#254,.T.);
#164=ORIENTED_EDGE('',*,*,#255,.F.);
#165=ORIENTED_EDGE('',*,*,#256,.F.);
#166=ORIENTED_EDGE('',*,*,#257,.F.);
#167=ORIENTED_EDGE('',*,*,#258,.T.);
#168=ORIENTED_EDGE('',*,*,#259,.F.);
#169=ORIENTED_EDGE('',*,*,#260,.F.);
#170=ORIENTED_EDGE('',*,*,#257,.T.);
#171=ORIENTED_EDGE('',*,*,#261,.T.);
#172=ORIENTED_EDGE('',*,*,#262,.T.);
#173=ORIENTED_EDGE('',*,*,#263,.F.);
#174=ORIENTED_EDGE('',*,*,#264,.T.);
#175=ORIENTED_EDGE('',*,*,#265,.T.);
#176=ORIENTED_EDGE('',*,*,#265,.F.);
#177=ORIENTED_EDGE('',*,*,#266,.F.);
#178=ORIENTED_EDGE('',*,*,#267,.T.);
#179=ORIENTED_EDGE('',*,*,#267,.F.);
#180=ORIENTED_EDGE('',*,*,#268,.F.);
#181=ORIENTED_EDGE('',*,*,#269,.F.);
#182=ORIENTED_EDGE('',*,*,#270,.T.);
#183=ORIENTED_EDGE('',*,*,#271,.F.);
#184=ORIENTED_EDGE('',*,*,#269,.T.);
#185=ORIENTED_EDGE('',*,*,#271,.T.);
#186=ORIENTED_EDGE('',*,*,#272,.F.);
#187=ORIENTED_EDGE('',*,*,#273,.F.);
#188=ORIENTED_EDGE('',*,*,#274,.T.);
#189=ORIENTED_EDGE('',*,*,#275,.F.);
#190=ORIENTED_EDGE('',*,*,#273,.T.);
#191=ORIENTED_EDGE('',*,*,#270,.F.);
#192=ORIENTED_EDGE('',*,*,#275,.T.);
#193=ORIENTED_EDGE('',*,*,#276,.F.);
#194=ORIENTED_EDGE('',*,*,#277,.F.);
#195=ORIENTED_EDGE('',*,*,#274,.F.);
#196=ORIENTED_EDGE('',*,*,#272,.T.);
#197=ORIENTED_EDGE('',*,*,#278,.F.);
#198=ORIENTED_EDGE('',*,*,#278,.T.);
#199=ORIENTED_EDGE('',*,*,#264,.F.);
#200=ORIENTED_EDGE('',*,*,#255,.T.);
#201=ORIENTED_EDGE('',*,*,#279,.T.);
#202=ORIENTED_EDGE('',*,*,#266,.T.);
#203=ORIENTED_EDGE('',*,*,#268,.T.);
#204=ORIENTED_EDGE('',*,*,#261,.F.);
#205=ORIENTED_EDGE('',*,*,#280,.T.);
#206=ORIENTED_EDGE('',*,*,#263,.T.);
#207=ORIENTED_EDGE('',*,*,#253,.T.);
#208=ORIENTED_EDGE('',*,*,#258,.F.);
#209=ORIENTED_EDGE('',*,*,#280,.F.);
#210=ORIENTED_EDGE('',*,*,#260,.T.);
#211=ORIENTED_EDGE('',*,*,#281,.F.);
#212=ORIENTED_EDGE('',*,*,#259,.T.);
#213=ORIENTED_EDGE('',*,*,#281,.T.);
#214=ORIENTED_EDGE('',*,*,#254,.F.);
#215=ORIENTED_EDGE('',*,*,#262,.F.);
#216=ORIENTED_EDGE('',*,*,#256,.T.);
#217=ORIENTED_EDGE('',*,*,#279,.F.);
#218=ORIENTED_EDGE('',*,*,#282,.T.);
#219=ORIENTED_EDGE('',*,*,#283,.T.);
#220=ORIENTED_EDGE('',*,*,#277,.T.);
#221=ORIENTED_EDGE('',*,*,#284,.F.);
#222=ORIENTED_EDGE('',*,*,#283,.F.);
#223=ORIENTED_EDGE('',*,*,#285,.T.);
#224=ORIENTED_EDGE('',*,*,#284,.T.);
#225=ORIENTED_EDGE('',*,*,#276,.T.);
#226=ORIENTED_EDGE('',*,*,#282,.F.);
#227=ORIENTED_EDGE('',*,*,#285,.F.);
#228=VERTEX_POINT('',#495);
#229=VERTEX_POINT('',#496);
#230=VERTEX_POINT('',#498);
#231=VERTEX_POINT('',#500);
#232=VERTEX_POINT('',#504);
#233=VERTEX_POINT('',#505);
#234=VERTEX_POINT('',#507);
#235=VERTEX_POINT('',#509);
#236=VERTEX_POINT('',#517);
#237=VERTEX_POINT('',#519);
#238=VERTEX_POINT('',#520);
#239=VERTEX_POINT('',#522);
#240=VERTEX_POINT('',#524);
#241=VERTEX_POINT('',#528);
#242=VERTEX_POINT('',#530);
#243=VERTEX_POINT('',#533);
#244=VERTEX_POINT('',#536);
#245=VERTEX_POINT('',#539);
#246=VERTEX_POINT('',#541);
#247=VERTEX_POINT('',#544);
#248=VERTEX_POINT('',#548);
#249=VERTEX_POINT('',#549);
#250=VERTEX_POINT('',#553);
#251=VERTEX_POINT('',#565);
#252=VERTEX_POINT('',#566);
#253=EDGE_CURVE('',#228,#229,#286,.T.);
#254=EDGE_CURVE('',#228,#230,#287,.T.);
#255=EDGE_CURVE('',#231,#230,#288,.T.);
#256=EDGE_CURVE('',#229,#231,#289,.T.);
#257=EDGE_CURVE('',#232,#233,#290,.T.);
#258=EDGE_CURVE('',#232,#234,#79,.T.);
#259=EDGE_CURVE('',#235,#234,#291,.T.);
#260=EDGE_CURVE('',#233,#235,#80,.T.);
#261=EDGE_CURVE('',#233,#229,#81,.T.);
#262=EDGE_CURVE('',#229,#228,#292,.T.);
#263=EDGE_CURVE('',#232,#228,#82,.T.);
#264=EDGE_CURVE('',#236,#236,#293,.T.);
#265=EDGE_CURVE('',#237,#238,#83,.T.);
#266=EDGE_CURVE('',#239,#237,#294,.T.);
#267=EDGE_CURVE('',#239,#240,#84,.T.);
#268=EDGE_CURVE('',#237,#239,#295,.T.);
#269=EDGE_CURVE('',#241,#241,#296,.T.);
#270=EDGE_CURVE('',#242,#242,#297,.T.);
#271=EDGE_CURVE('',#243,#243,#298,.T.);
#272=EDGE_CURVE('',#244,#244,#299,.T.);
#273=EDGE_CURVE('',#245,#245,#300,.T.);
#274=EDGE_CURVE('',#246,#246,#301,.T.);
#275=EDGE_CURVE('',#247,#247,#302,.T.);
#276=EDGE_CURVE('',#248,#249,#303,.T.);
#277=EDGE_CURVE('',#249,#248,#304,.T.);
#278=EDGE_CURVE('',#250,#250,#305,.T.);
#279=EDGE_CURVE('',#230,#231,#306,.T.);
#280=EDGE_CURVE('',#233,#232,#307,.T.);
#281=EDGE_CURVE('',#234,#235,#308,.T.);
#282=EDGE_CURVE('',#251,#252,#309,.T.);
#283=EDGE_CURVE('',#252,#249,#85,.T.);
#284=EDGE_CURVE('',#251,#248,#86,.T.);
#285=EDGE_CURVE('',#252,#251,#310,.T.);
#286=CIRCLE('',#336,9.68507603206611);
#287=CIRCLE('',#337,3.);
#288=CIRCLE('',#338,12.6640408546509);
#289=CIRCLE('',#339,3.);
#290=CIRCLE('',#341,5.);
#291=CIRCLE('',#342,5.);
#292=CIRCLE('',#344,9.68507603206611);
#293=CIRCLE('',#346,31.5);
#294=CIRCLE('',#347,31.5);
#295=CIRCLE('',#348,31.5);
#296=CIRCLE('',#350,26.5);
#297=CIRCLE('',#351,27.);
#298=CIRCLE('',#353,26.5);
#299=CIRCLE('',#355,27.);
#300=CIRCLE('',#357,31.5);
#301=CIRCLE('',#358,31.5);
#302=CIRCLE('',#360,27.1696270189222);
#303=CIRCLE('',#363,22.5166650635391);
#304=CIRCLE('',#364,22.5166650635391);
#305=CIRCLE('',#366,27.1696270189222);
#306=CIRCLE('',#369,12.6640408546509);
#307=CIRCLE('',#371,5.);
#308=CIRCLE('',#373,5.);
#309=CIRCLE('',#377,12.6875524222709);
#310=CIRCLE('',#379,12.6875524222709);
#311=INVISIBILITY((#312,#313,#314,#315));
#312=PRESENTATION_LAYER_ASSIGNMENT('100','Layer 100',(#333));
#313=PRESENTATION_LAYER_ASSIGNMENT('101','Layer 101',(#334));
#314=PRESENTATION_LAYER_ASSIGNMENT('102','Layer 102',(#335));
#315=PRESENTATION_LAYER_ASSIGNMENT('98','Layer 98',(#38));
#316=STYLED_ITEM('',(#320),#333);
#317=STYLED_ITEM('',(#321),#334);
#318=STYLED_ITEM('',(#322),#335);
#319=STYLED_ITEM('',(#323),#38);
#320=PRESENTATION_STYLE_ASSIGNMENT((#324));
#321=PRESENTATION_STYLE_ASSIGNMENT((#325));
#322=PRESENTATION_STYLE_ASSIGNMENT((#326));
#323=PRESENTATION_STYLE_ASSIGNMENT((#33));
#324=CURVE_STYLE('',#329,POSITIVE_LENGTH_MEASURE(0.7),#327);
#325=CURVE_STYLE('',#330,POSITIVE_LENGTH_MEASURE(0.7),#327);
#326=CURVE_STYLE('',#331,POSITIVE_LENGTH_MEASURE(0.7),#327);
#327=COLOUR_RGB('Medium Maroon',0.6,0.4,0.4);
#328=COLOUR_RGB('Medium Gray',0.490196078431373,0.490196078431373,0.490196078431373);
#329=DRAUGHTING_PRE_DEFINED_CURVE_FONT('continuous');
#330=DRAUGHTING_PRE_DEFINED_CURVE_FONT('continuous');
#331=DRAUGHTING_PRE_DEFINED_CURVE_FONT('continuous');
#332=AXIS2_PLACEMENT_3D('',#490,#382,#383);
#333=AXIS2_PLACEMENT_3D('PCS',#491,#384,#385);
#334=AXIS2_PLACEMENT_3D('CSW',#492,#386,#387);
#335=AXIS2_PLACEMENT_3D('MCS',#493,#388,#389);
#336=AXIS2_PLACEMENT_3D('',#494,#390,#391);
#337=AXIS2_PLACEMENT_3D('',#497,#392,#393);
#338=AXIS2_PLACEMENT_3D('',#499,#394,#395);
#339=AXIS2_PLACEMENT_3D('',#501,#396,#397);
#340=AXIS2_PLACEMENT_3D('',#502,#398,#399);
#341=AXIS2_PLACEMENT_3D('',#503,#400,#401);
#342=AXIS2_PLACEMENT_3D('',#508,#403,#404);
#343=AXIS2_PLACEMENT_3D('',#511,#406,#407);
#344=AXIS2_PLACEMENT_3D('',#513,#409,#410);
#345=AXIS2_PLACEMENT_3D('',#515,#412,#413);
#346=AXIS2_PLACEMENT_3D('',#516,#414,#415);
#347=AXIS2_PLACEMENT_3D('',#521,#417,#418);
#348=AXIS2_PLACEMENT_3D('',#525,#420,#421);
#349=AXIS2_PLACEMENT_3D('',#526,#422,#423);
#350=AXIS2_PLACEMENT_3D('',#527,#424,#425);
#351=AXIS2_PLACEMENT_3D('',#529,#426,#427);
#352=AXIS2_PLACEMENT_3D('',#531,#428,#429);
#353=AXIS2_PLACEMENT_3D('',#532,#430,#431);
#354=AXIS2_PLACEMENT_3D('',#534,#432,#433);
#355=AXIS2_PLACEMENT_3D('',#535,#434,#435);
#356=AXIS2_PLACEMENT_3D('',#537,#436,#437);
#357=AXIS2_PLACEMENT_3D('',#538,#438,#439);
#358=AXIS2_PLACEMENT_3D('',#540,#440,#441);
#359=AXIS2_PLACEMENT_3D('',#542,#442,#443);
#360=AXIS2_PLACEMENT_3D('',#543,#444,#445);
#361=AXIS2_PLACEMENT_3D('',#545,#446,#447);
#362=AXIS2_PLACEMENT_3D('',#546,#448,#449);
#363=AXIS2_PLACEMENT_3D('',#547,#450,#451);
#364=AXIS2_PLACEMENT_3D('',#550,#452,#453);
#365=AXIS2_PLACEMENT_3D('',#551,#454,#455);
#366=AXIS2_PLACEMENT_3D('',#552,#456,#457);
#367=AXIS2_PLACEMENT_3D('',#554,#458,#459);
#368=AXIS2_PLACEMENT_3D('',#555,#460,#461);
#369=AXIS2_PLACEMENT_3D('',#556,#462,#463);
#370=AXIS2_PLACEMENT_3D('',#557,#464,#465);
#371=AXIS2_PLACEMENT_3D('',#558,#466,#467);
#372=AXIS2_PLACEMENT_3D('',#559,#468,#469);
#373=AXIS2_PLACEMENT_3D('',#560,#470,#471);
#374=AXIS2_PLACEMENT_3D('',#561,#472,#473);
#375=AXIS2_PLACEMENT_3D('',#562,#474,#475);
#376=AXIS2_PLACEMENT_3D('',#563,#476,#477);
#377=AXIS2_PLACEMENT_3D('',#564,#478,#479);
#378=AXIS2_PLACEMENT_3D('',#569,#482,#483);
#379=AXIS2_PLACEMENT_3D('',#570,#484,#485);
#380=AXIS2_PLACEMENT_3D('',#571,#486,#487);
#381=AXIS2_PLACEMENT_3D('',#572,#488,#489);
#382=DIRECTION('',(0.,0.,1.));
#383=DIRECTION('',(1.,0.,0.));
#384=DIRECTION('',(0.,0.,1.));
#385=DIRECTION('',(1.,0.,0.));
#386=DIRECTION('',(0.,0.,1.));
#387=DIRECTION('',(1.,0.,0.));
#388=DIRECTION('',(0.,0.,1.));
#389=DIRECTION('',(1.,0.,0.));
#390=DIRECTION('',(0.,0.,-1.));
#391=DIRECTION('',(1.,0.,0.));
#392=DIRECTION('',(-1.22464679914735E-16,1.,0.));
#393=DIRECTION('',(1.,1.22464679914735E-16,0.));
#394=DIRECTION('',(0.,0.,1.));
#395=DIRECTION('',(-1.,0.,0.));
#396=DIRECTION('',(0.,-1.,0.));
#397=DIRECTION('',(-0.999999999999999,0.,0.));
#398=DIRECTION('',(0.,0.,-1.));
#399=DIRECTION('',(1.,0.,0.));
#400=DIRECTION('',(0.,0.,1.));
#401=DIRECTION('',(1.,0.,0.));
#402=DIRECTION('',(0.,0.,-1.));
#403=DIRECTION('',(0.,0.,-1.));
#404=DIRECTION('',(-1.,0.,0.));
#405=DIRECTION('',(0.,0.,-1.));
#406=DIRECTION('',(0.,0.,-1.));
#407=DIRECTION('',(1.,0.,0.));
#408=DIRECTION('',(-0.118212889785112,1.44769037093297E-17,0.992988274194944));
#409=DIRECTION('',(0.,0.,-1.));
#410=DIRECTION('',(1.,0.,0.));
#411=DIRECTION('',(0.118212889785112,0.,0.992988274194944));
#412=DIRECTION('',(0.,0.,1.));
#413=DIRECTION('',(-1.,0.,2.23749361968602E-16));
#414=DIRECTION('',(0.,0.,-1.));
#415=DIRECTION('',(-1.,0.,0.));
#416=DIRECTION('',(0.,0.,1.));
#417=DIRECTION('',(0.,0.,-1.));
#418=DIRECTION('',(-1.,0.,0.));
#419=DIRECTION('',(0.,0.,1.));
#420=DIRECTION('',(0.,0.,-1.));
#421=DIRECTION('',(-1.,0.,0.));
#422=DIRECTION('',(0.,0.,-1.));
#423=DIRECTION('',(1.,0.,0.));
#424=DIRECTION('',(0.,0.,-1.));
#425=DIRECTION('',(-1.,0.,0.));
#426=DIRECTION('',(0.,0.,-1.));
#427=DIRECTION('',(-1.,0.,0.));
#428=DIRECTION('',(0.,0.,-1.));
#429=DIRECTION('',(1.,0.,0.));
#430=DIRECTION('',(0.,0.,-1.));
#431=DIRECTION('',(-1.,0.,0.));
#432=DIRECTION('',(0.,0.,-1.));
#433=DIRECTION('',(1.,0.,0.));
#434=DIRECTION('',(0.,0.,-1.));
#435=DIRECTION('',(-1.,0.,0.));
#436=DIRECTION('',(0.,0.,-1.));
#437=DIRECTION('',(1.,0.,0.));
#438=DIRECTION('',(0.,0.,-1.));
#439=DIRECTION('',(-1.,0.,0.));
#440=DIRECTION('',(0.,0.,-1.));
#441=DIRECTION('',(1.,0.,0.));
#442=DIRECTION('',(0.,0.,-1.));
#443=DIRECTION('',(1.,0.,0.));
#444=DIRECTION('',(0.,0.,-1.));
#445=DIRECTION('',(-1.,0.,0.));
#446=DIRECTION('',(0.,0.,1.));
#447=DIRECTION('',(-1.,0.,-1.57772016911185E-17));
#448=DIRECTION('',(0.,0.,-1.));
#449=DIRECTION('',(1.,0.,0.));
#450=DIRECTION('',(0.,0.,1.));
#451=DIRECTION('',(1.,0.,0.));
#452=DIRECTION('',(0.,0.,1.));
#453=DIRECTION('',(1.,0.,0.));
#454=DIRECTION('',(0.,0.,1.));
#455=DIRECTION('',(-1.,0.,0.));
#456=DIRECTION('',(0.,0.,-1.));
#457=DIRECTION('',(-1.,0.,0.));
#458=DIRECTION('',(0.,0.,1.));
#459=DIRECTION('',(-1.,0.,0.));
#460=DIRECTION('',(0.,0.,-1.));
#461=DIRECTION('',(1.,0.,-2.75423067591169E-17));
#462=DIRECTION('',(0.,0.,1.));
#463=DIRECTION('',(-1.,0.,0.));
#464=DIRECTION('',(0.,0.,-1.));
#465=DIRECTION('',(1.,0.,0.));
#466=DIRECTION('',(0.,0.,1.));
#467=DIRECTION('',(1.,0.,0.));
#468=DIRECTION('',(0.,0.,1.));
#469=DIRECTION('',(-1.,0.,2.23749361968602E-16));
#470=DIRECTION('',(0.,0.,-1.));
#471=DIRECTION('',(-1.,0.,0.));
#472=DIRECTION('',(0.,0.,-1.));
#473=DIRECTION('',(1.,0.,0.));
#474=DIRECTION('',(0.,0.,-1.));
#475=DIRECTION('',(1.,0.,0.));
#476=DIRECTION('',(0.,0.,-1.));
#477=DIRECTION('',(1.,0.,0.));
#478=DIRECTION('',(0.,0.,-1.));
#479=DIRECTION('',(1.,0.,0.));
#480=DIRECTION('',(0.144306116415234,1.76724023565302E-17,-0.989533094325376));
#481=DIRECTION('',(-0.144306116415234,0.,-0.989533094325376));
#482=DIRECTION('',(0.,0.,-1.));
#483=DIRECTION('',(1.,0.,1.65083576115719E-16));
#484=DIRECTION('',(0.,0.,-1.));
#485=DIRECTION('',(1.,0.,0.));
#486=DIRECTION('',(0.,0.,-1.));
#487=DIRECTION('',(1.,0.,1.65083576115719E-16));
#488=DIRECTION('',(0.,0.,1.));
#489=DIRECTION('',(-1.,0.,0.));
#490=CARTESIAN_POINT('',(0.,0.,0.));
#491=CARTESIAN_POINT('',(0.,0.,0.));
#492=CARTESIAN_POINT('',(0.,0.,-77.));
#493=CARTESIAN_POINT('',(0.,0.,0.));
#494=CARTESIAN_POINT('',(-4.55191440096314E-15,0.,-29.6453613306446));
#495=CARTESIAN_POINT('',(9.6850760320661,0.,-29.6453613306446));
#496=CARTESIAN_POINT('',(-9.68507603206612,1.18607973621685E-15,-29.6453613306446));
#497=CARTESIAN_POINT('',(12.6640408546509,1.55089770969196E-15,-30.));
#498=CARTESIAN_POINT('',(12.6640408546509,1.55089770969196E-15,-27.));
#499=CARTESIAN_POINT('',(-4.55191440096314E-15,0.,-27.));
#500=CARTESIAN_POINT('',(-12.6640408546509,0.,-27.));
#501=CARTESIAN_POINT('',(-12.6640408546509,0.,-30.));
#502=CARTESIAN_POINT('',(-4.55191440096314E-15,0.,-30.));
#503=CARTESIAN_POINT('',(-4.55191440096314E-15,0.,-69.));
#504=CARTESIAN_POINT('',(4.99999999999999,3.06161699786838E-16,-69.));
#505=CARTESIAN_POINT('',(-5.,3.06161699786838E-16,-69.));
#506=CARTESIAN_POINT('',(4.99999999999999,6.12323399573676E-16,-56.0819650074751));
#507=CARTESIAN_POINT('',(4.99999999999999,6.12323399573676E-16,-77.));
#508=CARTESIAN_POINT('',(-4.55191440096314E-15,0.,-77.));
#509=CARTESIAN_POINT('',(-5.,0.,-77.));
#510=CARTESIAN_POINT('',(-5.,0.,-56.0819650074751));
#511=CARTESIAN_POINT('',(-4.55191440096314E-15,0.,-56.0819650074751));
#512=CARTESIAN_POINT('',(-5.,6.12323399573676E-16,-69.));
#513=CARTESIAN_POINT('',(-4.55191440096314E-15,0.,-29.6453613306446));
#514=CARTESIAN_POINT('',(4.99999999999999,0.,-69.));
#515=CARTESIAN_POINT('',(-4.55191440096314E-15,0.,-69.));
#516=CARTESIAN_POINT('',(-4.55191440096314E-15,0.,-21.6001420063167));
#517=CARTESIAN_POINT('',(-31.5,0.,-21.6001420063167));
#518=CARTESIAN_POINT('',(31.5,3.85763741731416E-15,-56.0819650074751));
#519=CARTESIAN_POINT('',(31.5,3.85763741731416E-15,-27.));
#520=CARTESIAN_POINT('',(31.5,-1.85515909230046E-14,-23.4999997454122));
#521=CARTESIAN_POINT('',(-4.55191440096314E-15,0.,-27.));
#522=CARTESIAN_POINT('',(-31.5,0.,-27.));
#523=CARTESIAN_POINT('',(-31.5,0.,-56.0819650074751));
#524=CARTESIAN_POINT('',(-31.5,-3.51359854432924E-15,-23.4999998697892));
#525=CARTESIAN_POINT('',(-4.55191440096314E-15,0.,-27.));
#526=CARTESIAN_POINT('',(-4.55191440096314E-15,0.,-56.0819650074751));
#527=CARTESIAN_POINT('',(-4.55191440096314E-15,0.,-14.6));
#528=CARTESIAN_POINT('',(-26.5,0.,-14.6));
#529=CARTESIAN_POINT('',(-4.55191440096314E-15,0.,-14.1));
#530=CARTESIAN_POINT('',(-27.,0.,-14.1));
#531=CARTESIAN_POINT('',(-4.55191440096314E-15,0.,-14.6));
#532=CARTESIAN_POINT('',(-4.55191440096314E-15,0.,-18.6));
#533=CARTESIAN_POINT('',(-26.5,0.,-18.6));
#534=CARTESIAN_POINT('',(-4.55191440096314E-15,0.,-56.0819650074751));
#535=CARTESIAN_POINT('',(-4.55191440096314E-15,0.,-19.1));
#536=CARTESIAN_POINT('',(-27.,0.,-19.1));
#537=CARTESIAN_POINT('',(-4.55191440096314E-15,0.,-18.6));
#538=CARTESIAN_POINT('',(-4.55191440096314E-15,0.,-11.5998579936832));
#539=CARTESIAN_POINT('',(-31.5,0.,-11.5998579936832));
#540=CARTESIAN_POINT('',(-4.55191440096314E-15,0.,-1.99999999999997));
#541=CARTESIAN_POINT('',(31.5,0.,-1.99999999999997));
#542=CARTESIAN_POINT('',(-4.55191440096314E-15,0.,-56.0819650074751));
#543=CARTESIAN_POINT('',(-4.55191440096314E-15,0.,-14.1));
#544=CARTESIAN_POINT('',(-27.1696270189222,0.,-14.1));
#545=CARTESIAN_POINT('',(-4.55191440096314E-15,0.,-14.1));
#546=CARTESIAN_POINT('',(-4.55191440096314E-15,27.1696270189222,-14.1));
#547=CARTESIAN_POINT('',(-4.55191440096314E-15,0.,-1.99999999999997));
#548=CARTESIAN_POINT('',(-22.5166650635391,-2.75749617975362E-15,-1.99999999999997));
#549=CARTESIAN_POINT('',(22.5166650635391,0.,-1.99999999999997));
#550=CARTESIAN_POINT('',(-4.55191440096314E-15,0.,-1.99999999999997));
#551=CARTESIAN_POINT('',(-4.55191440096314E-15,22.6979162658848,-1.99999999999997));
#552=CARTESIAN_POINT('',(-4.55191440096314E-15,0.,-19.1));
#553=CARTESIAN_POINT('',(-27.1696270189222,0.,-19.1));
#554=CARTESIAN_POINT('',(-4.55191440096314E-15,27.,-19.1));
#555=CARTESIAN_POINT('',(-4.55191440096314E-15,0.,-21.6001420063167));
#556=CARTESIAN_POINT('',(-4.55191440096314E-15,0.,-27.));
#557=CARTESIAN_POINT('',(-4.55191440096314E-15,30.5,-27.));
#558=CARTESIAN_POINT('',(-4.55191440096314E-15,0.,-69.));
#559=CARTESIAN_POINT('',(-4.55191440096314E-15,0.,-69.));
#560=CARTESIAN_POINT('',(-4.55191440096314E-15,0.,-77.));
#561=CARTESIAN_POINT('',(-4.55191440096314E-15,0.,-56.0819650074751));
#562=CARTESIAN_POINT('',(-4.55191440096314E-15,5.,-77.));
#563=CARTESIAN_POINT('',(-4.55191440096314E-15,0.,-30.));
#564=CARTESIAN_POINT('',(-4.55191440096314E-15,0.,65.4));
#565=CARTESIAN_POINT('',(-12.6875524222709,0.,65.4));
#566=CARTESIAN_POINT('',(12.6875524222709,1.55377704629483E-15,65.4));
#567=CARTESIAN_POINT('',(22.2979162658848,2.73070717826715E-15,-0.499999999999973));
#568=CARTESIAN_POINT('',(-22.2979162658848,0.,-0.499999999999973));
#569=CARTESIAN_POINT('',(-4.55191440096314E-15,0.,-0.499999999999973));
#570=CARTESIAN_POINT('',(-4.55191440096314E-15,0.,65.4));
#571=CARTESIAN_POINT('',(-4.55191440096314E-15,0.,-0.499999999999973));
#572=CARTESIAN_POINT('',(-4.55191440096314E-15,-1.8755769442117E-14,65.4));
#573=MECHANICAL_DESIGN_GEOMETRIC_PRESENTATION_REPRESENTATION('',(#316,#317,
#318,#319),#574);
#574=(
GEOMETRIC_REPRESENTATION_CONTEXT(3)
GLOBAL_UNCERTAINTY_ASSIGNED_CONTEXT((#575))
GLOBAL_UNIT_ASSIGNED_CONTEXT((#581,#577,#576))
REPRESENTATION_CONTEXT('BT.40ADB-IHA.M6','TOP_LEVEL_ASSEMBLY_PART')
);
#575=UNCERTAINTY_MEASURE_WITH_UNIT(LENGTH_MEASURE(2.E-5),#581,
'DISTANCE_ACCURACY_VALUE','Maximum Tolerance applied to model');
#576=(
NAMED_UNIT(*)
SI_UNIT($,.STERADIAN.)
SOLID_ANGLE_UNIT()
);
#577=(
CONVERSION_BASED_UNIT('DEGREE',#579)
NAMED_UNIT(#578)
PLANE_ANGLE_UNIT()
);
#578=DIMENSIONAL_EXPONENTS(0.,0.,0.,0.,0.,0.,0.);
#579=PLANE_ANGLE_MEASURE_WITH_UNIT(PLANE_ANGLE_MEASURE(0.0174532925),#580);
#580=(
NAMED_UNIT(*)
PLANE_ANGLE_UNIT()
SI_UNIT($,.RADIAN.)
);
#581=(
LENGTH_UNIT()
NAMED_UNIT(*)
SI_UNIT(.MILLI.,.METRE.)
);
ENDSEC;
END-ISO-10303-21;
