ISO-10303-21;
HEADER;
/* Generated by software containing ST-Developer
 * from STEP Tools, Inc. (www.steptools.com) 
 */
/* OPTION: using custom schema-name function */

FILE_DESCRIPTION(
/* description */ (''),
/* implementation_level */ '2;1');

FILE_NAME(
/* name */ 'BT.40AD-W.18.063.stp',
/* time_stamp */ '2024-07-08T05:57:21+02:00',
/* author */ (''),
/* organization */ (''),
/* preprocessor_version */ 'ST-DEVELOPER v16.7',
/* originating_system */ 'SIEMENS PLM Software NX 12.0',
/* authorisation */ '');

FILE_SCHEMA (('AUTOMOTIVE_DESIGN { 1 0 10303 214 3 1 1 1 }'));
ENDSEC;

DATA;
#10=CONSTRUCTIVE_GEOMETRY_REPRESENTATION_RELATIONSHIP(
'supplemental geometry','',#32,#11);
#11=CONSTRUCTIVE_GEOMETRY_REPRESENTATION('supplemental geometry',(#350,
#351,#352),#602);
#12=PROPERTY_DEFINITION_REPRESENTATION(#16,#14);
#13=PROPERTY_DEFINITION_REPRESENTATION(#17,#15);
#14=REPRESENTATION('',(#18),#602);
#15=REPRESENTATION('',(#19),#602);
#16=PROPERTY_DEFINITION('pmi validation property','',#23);
#17=PROPERTY_DEFINITION('pmi validation property','',#23);
#18=VALUE_REPRESENTATION_ITEM('number of annotations',COUNT_MEASURE(0.));
#19=VALUE_REPRESENTATION_ITEM('number of views',COUNT_MEASURE(0.));
#20=SHAPE_REPRESENTATION_RELATIONSHIP('None',
'relationship between pf664004CBF9abet-None and pf664004CBF9abet-None',
#32,#21);
#21=ADVANCED_BREP_SHAPE_REPRESENTATION('pf664004CBF9abet-None',(#38),#602);
#22=SHAPE_DEFINITION_REPRESENTATION(#23,#32);
#23=PRODUCT_DEFINITION_SHAPE('','',#24);
#24=PRODUCT_DEFINITION(' ','',#26,#25);
#25=PRODUCT_DEFINITION_CONTEXT('part definition',#31,'design');
#26=PRODUCT_DEFINITION_FORMATION_WITH_SPECIFIED_SOURCE(' ',' ',#28,
 .NOT_KNOWN.);
#27=PRODUCT_RELATED_PRODUCT_CATEGORY('part','',(#28));
#28=PRODUCT('pf664004CBF9abet','pf664004CBF9abet',' ',(#29));
#29=PRODUCT_CONTEXT(' ',#31,'mechanical');
#30=APPLICATION_PROTOCOL_DEFINITION('international standard',
'automotive_design',2010,#31);
#31=APPLICATION_CONTEXT(
'core data for automotive mechanical design processes');
#32=SHAPE_REPRESENTATION('pf664004CBF9abet-None',(#349),#602);
#33=SURFACE_STYLE_USAGE(.BOTH.,#34);
#34=SURFACE_SIDE_STYLE('',(#35));
#35=SURFACE_STYLE_FILL_AREA(#36);
#36=FILL_AREA_STYLE('',(#37));
#37=FILL_AREA_STYLE_COLOUR('',#345);
#38=MANIFOLD_SOLID_BREP('',#39);
#39=CLOSED_SHELL('',(#85,#86,#87,#88,#89,#90,#91,#92,#93,#94,#95,#96,#97,
#98,#99,#100,#101,#102,#103,#104,#105));
#40=CYLINDRICAL_SURFACE('',#374,31.5);
#41=CYLINDRICAL_SURFACE('',#380,26.5);
#42=CYLINDRICAL_SURFACE('',#387,31.5);
#43=CYLINDRICAL_SURFACE('',#391,31.5);
#44=CYLINDRICAL_SURFACE('',#394,25.);
#45=TOROIDAL_SURFACE('',#368,25.8,0.8);
#46=TOROIDAL_SURFACE('',#382,27.,0.5);
#47=TOROIDAL_SURFACE('',#385,27.,0.5);
#48=TOROIDAL_SURFACE('',#393,25.8,0.8);
#49=CONICAL_SURFACE('',#361,22.17554531327,25.);
#50=CONICAL_SURFACE('',#363,22.17554531327,25.);
#51=CONICAL_SURFACE('',#377,29.29703582746,60.125);
#52=CONICAL_SURFACE('',#389,29.29703582746,60.125);
#53=CONICAL_SURFACE('',#398,17.51867021387,8.2971);
#54=CONICAL_SURFACE('',#399,17.51867021387,8.2971);
#55=LINE('',#528,#65);
#56=LINE('',#532,#66);
#57=LINE('',#551,#67);
#58=LINE('',#553,#68);
#59=LINE('',#583,#69);
#60=LINE('',#585,#70);
#61=LINE('',#587,#71);
#62=LINE('',#589,#72);
#63=LINE('',#597,#73);
#64=LINE('',#598,#74);
#65=VECTOR('',#422,1.);
#66=VECTOR('',#425,1.);
#67=VECTOR('',#450,1.);
#68=VECTOR('',#451,1.);
#69=VECTOR('',#494,1.);
#70=VECTOR('',#495,1.);
#71=VECTOR('',#496,1.);
#72=VECTOR('',#497,1.);
#73=VECTOR('',#506,1.);
#74=VECTOR('',#507,1.);
#75=FACE_OUTER_BOUND('',#136,.T.);
#76=FACE_OUTER_BOUND('',#137,.T.);
#77=FACE_OUTER_BOUND('',#138,.T.);
#78=FACE_OUTER_BOUND('',#139,.T.);
#79=FACE_OUTER_BOUND('',#142,.T.);
#80=FACE_OUTER_BOUND('',#159,.T.);
#81=FACE_OUTER_BOUND('',#160,.T.);
#82=FACE_OUTER_BOUND('',#163,.T.);
#83=FACE_OUTER_BOUND('',#164,.T.);
#84=FACE_OUTER_BOUND('',#165,.T.);
#85=ADVANCED_FACE('',(#112,#113),#106,.F.);
#86=ADVANCED_FACE('',(#75),#107,.F.);
#87=ADVANCED_FACE('',(#76),#49,.T.);
#88=ADVANCED_FACE('',(#77),#50,.T.);
#89=ADVANCED_FACE('',(#78),#45,.F.);
#90=ADVANCED_FACE('',(#114,#115),#108,.T.);
#91=ADVANCED_FACE('',(#79),#40,.T.);
#92=ADVANCED_FACE('',(#116,#117),#51,.T.);
#93=ADVANCED_FACE('',(#118,#119),#41,.T.);
#94=ADVANCED_FACE('',(#120,#121),#46,.F.);
#95=ADVANCED_FACE('',(#122,#123),#109,.F.);
#96=ADVANCED_FACE('',(#124,#125),#47,.F.);
#97=ADVANCED_FACE('',(#126,#127),#42,.T.);
#98=ADVANCED_FACE('',(#128,#129),#52,.T.);
#99=ADVANCED_FACE('',(#130,#131),#110,.T.);
#100=ADVANCED_FACE('',(#80),#43,.T.);
#101=ADVANCED_FACE('',(#81),#48,.F.);
#102=ADVANCED_FACE('',(#132,#133),#44,.T.);
#103=ADVANCED_FACE('',(#82),#111,.F.);
#104=ADVANCED_FACE('',(#83),#53,.T.);
#105=ADVANCED_FACE('',(#84),#54,.T.);
#106=PLANE('',#356);
#107=PLANE('',#359);
#108=PLANE('',#372);
#109=PLANE('',#383);
#110=PLANE('',#390);
#111=PLANE('',#397);
#112=FACE_BOUND('',#134,.T.);
#113=FACE_BOUND('',#135,.T.);
#114=FACE_BOUND('',#140,.T.);
#115=FACE_BOUND('',#141,.T.);
#116=FACE_BOUND('',#143,.T.);
#117=FACE_BOUND('',#144,.T.);
#118=FACE_BOUND('',#145,.T.);
#119=FACE_BOUND('',#146,.T.);
#120=FACE_BOUND('',#147,.T.);
#121=FACE_BOUND('',#148,.T.);
#122=FACE_BOUND('',#149,.T.);
#123=FACE_BOUND('',#150,.T.);
#124=FACE_BOUND('',#151,.T.);
#125=FACE_BOUND('',#152,.T.);
#126=FACE_BOUND('',#153,.T.);
#127=FACE_BOUND('',#154,.T.);
#128=FACE_BOUND('',#155,.T.);
#129=FACE_BOUND('',#156,.T.);
#130=FACE_BOUND('',#157,.T.);
#131=FACE_BOUND('',#158,.T.);
#132=FACE_BOUND('',#161,.T.);
#133=FACE_BOUND('',#162,.T.);
#134=EDGE_LOOP('',(#166));
#135=EDGE_LOOP('',(#167,#168));
#136=EDGE_LOOP('',(#169,#170));
#137=EDGE_LOOP('',(#171,#172,#173,#174));
#138=EDGE_LOOP('',(#175,#176,#177,#178));
#139=EDGE_LOOP('',(#179,#180,#181,#182));
#140=EDGE_LOOP('',(#183,#184));
#141=EDGE_LOOP('',(#185,#186));
#142=EDGE_LOOP('',(#187,#188,#189,#190));
#143=EDGE_LOOP('',(#191));
#144=EDGE_LOOP('',(#192,#193));
#145=EDGE_LOOP('',(#194));
#146=EDGE_LOOP('',(#195));
#147=EDGE_LOOP('',(#196));
#148=EDGE_LOOP('',(#197));
#149=EDGE_LOOP('',(#198));
#150=EDGE_LOOP('',(#199));
#151=EDGE_LOOP('',(#200));
#152=EDGE_LOOP('',(#201));
#153=EDGE_LOOP('',(#202));
#154=EDGE_LOOP('',(#203));
#155=EDGE_LOOP('',(#204));
#156=EDGE_LOOP('',(#205));
#157=EDGE_LOOP('',(#206));
#158=EDGE_LOOP('',(#207));
#159=EDGE_LOOP('',(#208,#209,#210,#211));
#160=EDGE_LOOP('',(#212,#213,#214,#215));
#161=EDGE_LOOP('',(#216,#217,#218,#219,#220,#221));
#162=EDGE_LOOP('',(#222,#223,#224,#225,#226,#227));
#163=EDGE_LOOP('',(#228,#229));
#164=EDGE_LOOP('',(#230,#231,#232,#233));
#165=EDGE_LOOP('',(#234,#235,#236,#237));
#166=ORIENTED_EDGE('',*,*,#266,.F.);
#167=ORIENTED_EDGE('',*,*,#267,.T.);
#168=ORIENTED_EDGE('',*,*,#268,.T.);
#169=ORIENTED_EDGE('',*,*,#269,.F.);
#170=ORIENTED_EDGE('',*,*,#270,.T.);
#171=ORIENTED_EDGE('',*,*,#269,.T.);
#172=ORIENTED_EDGE('',*,*,#271,.T.);
#173=ORIENTED_EDGE('',*,*,#272,.F.);
#174=ORIENTED_EDGE('',*,*,#273,.F.);
#175=ORIENTED_EDGE('',*,*,#274,.T.);
#176=ORIENTED_EDGE('',*,*,#271,.F.);
#177=ORIENTED_EDGE('',*,*,#270,.F.);
#178=ORIENTED_EDGE('',*,*,#273,.T.);
#179=ORIENTED_EDGE('',*,*,#275,.T.);
#180=ORIENTED_EDGE('',*,*,#276,.F.);
#181=ORIENTED_EDGE('',*,*,#277,.F.);
#182=ORIENTED_EDGE('',*,*,#278,.T.);
#183=ORIENTED_EDGE('',*,*,#279,.F.);
#184=ORIENTED_EDGE('',*,*,#280,.F.);
#185=ORIENTED_EDGE('',*,*,#281,.F.);
#186=ORIENTED_EDGE('',*,*,#278,.F.);
#187=ORIENTED_EDGE('',*,*,#282,.F.);
#188=ORIENTED_EDGE('',*,*,#280,.T.);
#189=ORIENTED_EDGE('',*,*,#283,.T.);
#190=ORIENTED_EDGE('',*,*,#284,.F.);
#191=ORIENTED_EDGE('',*,*,#285,.F.);
#192=ORIENTED_EDGE('',*,*,#286,.T.);
#193=ORIENTED_EDGE('',*,*,#284,.T.);
#194=ORIENTED_EDGE('',*,*,#287,.T.);
#195=ORIENTED_EDGE('',*,*,#288,.T.);
#196=ORIENTED_EDGE('',*,*,#288,.F.);
#197=ORIENTED_EDGE('',*,*,#289,.T.);
#198=ORIENTED_EDGE('',*,*,#289,.F.);
#199=ORIENTED_EDGE('',*,*,#285,.T.);
#200=ORIENTED_EDGE('',*,*,#290,.F.);
#201=ORIENTED_EDGE('',*,*,#287,.F.);
#202=ORIENTED_EDGE('',*,*,#266,.T.);
#203=ORIENTED_EDGE('',*,*,#291,.F.);
#204=ORIENTED_EDGE('',*,*,#291,.T.);
#205=ORIENTED_EDGE('',*,*,#292,.F.);
#206=ORIENTED_EDGE('',*,*,#292,.T.);
#207=ORIENTED_EDGE('',*,*,#290,.T.);
#208=ORIENTED_EDGE('',*,*,#283,.F.);
#209=ORIENTED_EDGE('',*,*,#279,.T.);
#210=ORIENTED_EDGE('',*,*,#282,.T.);
#211=ORIENTED_EDGE('',*,*,#286,.F.);
#212=ORIENTED_EDGE('',*,*,#277,.T.);
#213=ORIENTED_EDGE('',*,*,#293,.F.);
#214=ORIENTED_EDGE('',*,*,#275,.F.);
#215=ORIENTED_EDGE('',*,*,#281,.T.);
#216=ORIENTED_EDGE('',*,*,#294,.F.);
#217=ORIENTED_EDGE('',*,*,#294,.T.);
#218=ORIENTED_EDGE('',*,*,#293,.T.);
#219=ORIENTED_EDGE('',*,*,#295,.F.);
#220=ORIENTED_EDGE('',*,*,#295,.T.);
#221=ORIENTED_EDGE('',*,*,#276,.T.);
#222=ORIENTED_EDGE('',*,*,#296,.T.);
#223=ORIENTED_EDGE('',*,*,#296,.F.);
#224=ORIENTED_EDGE('',*,*,#272,.T.);
#225=ORIENTED_EDGE('',*,*,#297,.T.);
#226=ORIENTED_EDGE('',*,*,#297,.F.);
#227=ORIENTED_EDGE('',*,*,#274,.F.);
#228=ORIENTED_EDGE('',*,*,#298,.T.);
#229=ORIENTED_EDGE('',*,*,#299,.T.);
#230=ORIENTED_EDGE('',*,*,#300,.F.);
#231=ORIENTED_EDGE('',*,*,#267,.F.);
#232=ORIENTED_EDGE('',*,*,#301,.T.);
#233=ORIENTED_EDGE('',*,*,#298,.F.);
#234=ORIENTED_EDGE('',*,*,#301,.F.);
#235=ORIENTED_EDGE('',*,*,#268,.F.);
#236=ORIENTED_EDGE('',*,*,#300,.T.);
#237=ORIENTED_EDGE('',*,*,#299,.F.);
#238=VERTEX_POINT('',#517);
#239=VERTEX_POINT('',#519);
#240=VERTEX_POINT('',#520);
#241=VERTEX_POINT('',#524);
#242=VERTEX_POINT('',#525);
#243=VERTEX_POINT('',#529);
#244=VERTEX_POINT('',#531);
#245=VERTEX_POINT('',#537);
#246=VERTEX_POINT('',#538);
#247=VERTEX_POINT('',#540);
#248=VERTEX_POINT('',#542);
#249=VERTEX_POINT('',#546);
#250=VERTEX_POINT('',#547);
#251=VERTEX_POINT('',#552);
#252=VERTEX_POINT('',#554);
#253=VERTEX_POINT('',#558);
#254=VERTEX_POINT('',#562);
#255=VERTEX_POINT('',#564);
#256=VERTEX_POINT('',#567);
#257=VERTEX_POINT('',#571);
#258=VERTEX_POINT('',#574);
#259=VERTEX_POINT('',#577);
#260=VERTEX_POINT('',#584);
#261=VERTEX_POINT('',#586);
#262=VERTEX_POINT('',#588);
#263=VERTEX_POINT('',#590);
#264=VERTEX_POINT('',#593);
#265=VERTEX_POINT('',#594);
#266=EDGE_CURVE('',#238,#238,#302,.T.);
#267=EDGE_CURVE('',#239,#240,#303,.T.);
#268=EDGE_CURVE('',#240,#239,#304,.T.);
#269=EDGE_CURVE('',#241,#242,#305,.T.);
#270=EDGE_CURVE('',#241,#242,#306,.T.);
#271=EDGE_CURVE('',#242,#243,#55,.T.);
#272=EDGE_CURVE('',#244,#243,#307,.T.);
#273=EDGE_CURVE('',#241,#244,#56,.T.);
#274=EDGE_CURVE('',#244,#243,#308,.T.);
#275=EDGE_CURVE('',#245,#246,#309,.T.);
#276=EDGE_CURVE('',#247,#246,#310,.T.);
#277=EDGE_CURVE('',#248,#247,#311,.T.);
#278=EDGE_CURVE('',#248,#245,#312,.T.);
#279=EDGE_CURVE('',#249,#250,#313,.T.);
#280=EDGE_CURVE('',#250,#249,#314,.T.);
#281=EDGE_CURVE('',#245,#248,#315,.T.);
#282=EDGE_CURVE('',#250,#251,#57,.T.);
#283=EDGE_CURVE('',#249,#252,#58,.T.);
#284=EDGE_CURVE('',#251,#252,#316,.T.);
#285=EDGE_CURVE('',#253,#253,#317,.T.);
#286=EDGE_CURVE('',#252,#251,#318,.T.);
#287=EDGE_CURVE('',#254,#254,#319,.T.);
#288=EDGE_CURVE('',#255,#255,#320,.T.);
#289=EDGE_CURVE('',#256,#256,#321,.T.);
#290=EDGE_CURVE('',#257,#257,#322,.T.);
#291=EDGE_CURVE('',#258,#258,#323,.T.);
#292=EDGE_CURVE('',#259,#259,#324,.T.);
#293=EDGE_CURVE('',#246,#247,#325,.T.);
#294=EDGE_CURVE('',#260,#246,#59,.T.);
#295=EDGE_CURVE('',#261,#247,#60,.T.);
#296=EDGE_CURVE('',#244,#262,#61,.T.);
#297=EDGE_CURVE('',#243,#263,#62,.T.);
#298=EDGE_CURVE('',#264,#265,#326,.T.);
#299=EDGE_CURVE('',#265,#264,#327,.T.);
#300=EDGE_CURVE('',#240,#264,#63,.T.);
#301=EDGE_CURVE('',#239,#265,#64,.T.);
#302=CIRCLE('',#353,31.5);
#303=CIRCLE('',#354,22.5166650635425);
#304=CIRCLE('',#355,22.5166650635425);
#305=CIRCLE('',#357,19.0000000000043);
#306=CIRCLE('',#358,19.0000000000043);
#307=CIRCLE('',#360,25.);
#308=CIRCLE('',#362,25.);
#309=CIRCLE('',#364,0.8);
#310=CIRCLE('',#365,25.);
#311=CIRCLE('',#366,0.8);
#312=CIRCLE('',#367,25.8);
#313=CIRCLE('',#369,31.5);
#314=CIRCLE('',#370,31.5);
#315=CIRCLE('',#371,25.8);
#316=CIRCLE('',#373,31.5);
#317=CIRCLE('',#375,27.09407165491);
#318=CIRCLE('',#376,31.5);
#319=CIRCLE('',#378,26.5);
#320=CIRCLE('',#379,26.5);
#321=CIRCLE('',#381,27.);
#322=CIRCLE('',#384,27.);
#323=CIRCLE('',#386,31.5);
#324=CIRCLE('',#388,27.09407165491);
#325=CIRCLE('',#392,25.);
#326=CIRCLE('',#395,12.6875524222744);
#327=CIRCLE('',#396,12.6875524222744);
#328=INVISIBILITY((#329,#330,#331));
#329=PRESENTATION_LAYER_ASSIGNMENT('100','Layer 100',(#350));
#330=PRESENTATION_LAYER_ASSIGNMENT('101','Layer 101',(#351));
#331=PRESENTATION_LAYER_ASSIGNMENT('102','Layer 102',(#352));
#332=PRESENTATION_LAYER_ASSIGNMENT('98','Layer 98',(#38));
#333=STYLED_ITEM('',(#337),#350);
#334=STYLED_ITEM('',(#338),#351);
#335=STYLED_ITEM('',(#339),#352);
#336=STYLED_ITEM('',(#340),#38);
#337=PRESENTATION_STYLE_ASSIGNMENT((#341));
#338=PRESENTATION_STYLE_ASSIGNMENT((#342));
#339=PRESENTATION_STYLE_ASSIGNMENT((#343));
#340=PRESENTATION_STYLE_ASSIGNMENT((#33));
#341=CURVE_STYLE('',#346,POSITIVE_LENGTH_MEASURE(0.7),#344);
#342=CURVE_STYLE('',#347,POSITIVE_LENGTH_MEASURE(0.7),#344);
#343=CURVE_STYLE('',#348,POSITIVE_LENGTH_MEASURE(0.7),#344);
#344=COLOUR_RGB('Medium Maroon',0.6,0.4,0.4);
#345=COLOUR_RGB('Medium Gray',0.490196078431373,0.490196078431373,0.490196078431373);
#346=DRAUGHTING_PRE_DEFINED_CURVE_FONT('continuous');
#347=DRAUGHTING_PRE_DEFINED_CURVE_FONT('continuous');
#348=DRAUGHTING_PRE_DEFINED_CURVE_FONT('continuous');
#349=AXIS2_PLACEMENT_3D('',#512,#400,#401);
#350=AXIS2_PLACEMENT_3D('PCS',#513,#402,#403);
#351=AXIS2_PLACEMENT_3D('CSW',#514,#404,#405);
#352=AXIS2_PLACEMENT_3D('MCS',#515,#406,#407);
#353=AXIS2_PLACEMENT_3D('',#516,#408,#409);
#354=AXIS2_PLACEMENT_3D('',#518,#410,#411);
#355=AXIS2_PLACEMENT_3D('',#521,#412,#413);
#356=AXIS2_PLACEMENT_3D('',#522,#414,#415);
#357=AXIS2_PLACEMENT_3D('',#523,#416,#417);
#358=AXIS2_PLACEMENT_3D('',#526,#418,#419);
#359=AXIS2_PLACEMENT_3D('',#527,#420,#421);
#360=AXIS2_PLACEMENT_3D('',#530,#423,#424);
#361=AXIS2_PLACEMENT_3D('',#533,#426,#427);
#362=AXIS2_PLACEMENT_3D('',#534,#428,#429);
#363=AXIS2_PLACEMENT_3D('',#535,#430,#431);
#364=AXIS2_PLACEMENT_3D('',#536,#432,#433);
#365=AXIS2_PLACEMENT_3D('',#539,#434,#435);
#366=AXIS2_PLACEMENT_3D('',#541,#436,#437);
#367=AXIS2_PLACEMENT_3D('',#543,#438,#439);
#368=AXIS2_PLACEMENT_3D('',#544,#440,#441);
#369=AXIS2_PLACEMENT_3D('',#545,#442,#443);
#370=AXIS2_PLACEMENT_3D('',#548,#444,#445);
#371=AXIS2_PLACEMENT_3D('',#549,#446,#447);
#372=AXIS2_PLACEMENT_3D('',#550,#448,#449);
#373=AXIS2_PLACEMENT_3D('',#555,#452,#453);
#374=AXIS2_PLACEMENT_3D('',#556,#454,#455);
#375=AXIS2_PLACEMENT_3D('',#557,#456,#457);
#376=AXIS2_PLACEMENT_3D('',#559,#458,#459);
#377=AXIS2_PLACEMENT_3D('',#560,#460,#461);
#378=AXIS2_PLACEMENT_3D('',#561,#462,#463);
#379=AXIS2_PLACEMENT_3D('',#563,#464,#465);
#380=AXIS2_PLACEMENT_3D('',#565,#466,#467);
#381=AXIS2_PLACEMENT_3D('',#566,#468,#469);
#382=AXIS2_PLACEMENT_3D('',#568,#470,#471);
#383=AXIS2_PLACEMENT_3D('',#569,#472,#473);
#384=AXIS2_PLACEMENT_3D('',#570,#474,#475);
#385=AXIS2_PLACEMENT_3D('',#572,#476,#477);
#386=AXIS2_PLACEMENT_3D('',#573,#478,#479);
#387=AXIS2_PLACEMENT_3D('',#575,#480,#481);
#388=AXIS2_PLACEMENT_3D('',#576,#482,#483);
#389=AXIS2_PLACEMENT_3D('',#578,#484,#485);
#390=AXIS2_PLACEMENT_3D('',#579,#486,#487);
#391=AXIS2_PLACEMENT_3D('',#580,#488,#489);
#392=AXIS2_PLACEMENT_3D('',#581,#490,#491);
#393=AXIS2_PLACEMENT_3D('',#582,#492,#493);
#394=AXIS2_PLACEMENT_3D('',#591,#498,#499);
#395=AXIS2_PLACEMENT_3D('',#592,#500,#501);
#396=AXIS2_PLACEMENT_3D('',#595,#502,#503);
#397=AXIS2_PLACEMENT_3D('',#596,#504,#505);
#398=AXIS2_PLACEMENT_3D('',#599,#508,#509);
#399=AXIS2_PLACEMENT_3D('',#600,#510,#511);
#400=DIRECTION('',(0.,0.,1.));
#401=DIRECTION('',(1.,0.,0.));
#402=DIRECTION('',(0.,0.,1.));
#403=DIRECTION('',(1.,0.,0.));
#404=DIRECTION('',(0.,0.,1.));
#405=DIRECTION('',(1.,0.,0.));
#406=DIRECTION('',(0.,0.,1.));
#407=DIRECTION('',(1.,0.,0.));
#408=DIRECTION('',(0.,0.,-1.));
#409=DIRECTION('',(-1.,0.,0.));
#410=DIRECTION('',(0.,0.,-1.));
#411=DIRECTION('',(-1.,0.,0.));
#412=DIRECTION('',(0.,0.,-1.));
#413=DIRECTION('',(-1.,0.,0.));
#414=DIRECTION('',(0.,0.,-1.));
#415=DIRECTION('',(0.,1.,0.));
#416=DIRECTION('',(0.,0.,1.));
#417=DIRECTION('',(1.,0.,0.));
#418=DIRECTION('',(0.,0.,-1.));
#419=DIRECTION('',(1.,0.,0.));
#420=DIRECTION('',(0.,0.,1.));
#421=DIRECTION('',(0.,-1.,0.));
#422=DIRECTION('',(0.,-0.422618261740719,0.906307787036641));
#423=DIRECTION('',(0.,0.,1.));
#424=DIRECTION('',(1.,0.,0.));
#425=DIRECTION('',(0.,0.422618261740719,0.906307787036641));
#426=DIRECTION('',(0.,0.,1.));
#427=DIRECTION('',(0.,-1.,-8.52298771541033E-17));
#428=DIRECTION('',(0.,0.,-1.));
#429=DIRECTION('',(1.,0.,0.));
#430=DIRECTION('',(0.,0.,1.));
#431=DIRECTION('',(0.,-1.,-8.52298771541033E-17));
#432=DIRECTION('',(1.,0.,0.));
#433=DIRECTION('',(0.,-2.12503625807159E-13,0.999999999999998));
#434=DIRECTION('',(0.,0.,-1.));
#435=DIRECTION('',(0.,-1.,0.));
#436=DIRECTION('',(-1.,0.,0.));
#437=DIRECTION('',(0.,2.12503625807159E-13,0.999999999999998));
#438=DIRECTION('',(0.,0.,-1.));
#439=DIRECTION('',(0.,-1.,0.));
#440=DIRECTION('',(0.,0.,1.));
#441=DIRECTION('',(-0.0063054101593948,0.999980120703768,0.));
#442=DIRECTION('',(0.,0.,1.));
#443=DIRECTION('',(-1.,0.,0.));
#444=DIRECTION('',(0.,0.,1.));
#445=DIRECTION('',(-1.,0.,0.));
#446=DIRECTION('',(0.,0.,-1.));
#447=DIRECTION('',(0.,1.,0.));
#448=DIRECTION('',(0.,0.,-1.));
#449=DIRECTION('',(0.,1.,0.));
#450=DIRECTION('',(0.,0.,1.));
#451=DIRECTION('',(0.,0.,1.));
#452=DIRECTION('',(0.,0.,1.));
#453=DIRECTION('',(0.,1.,0.));
#454=DIRECTION('',(0.,0.,-1.));
#455=DIRECTION('',(0.,1.,0.));
#456=DIRECTION('',(0.,0.,1.));
#457=DIRECTION('',(-0.964298831579577,-0.264816471191394,0.));
#458=DIRECTION('',(0.,0.,1.));
#459=DIRECTION('',(0.,-1.,0.));
#460=DIRECTION('',(0.,0.,-1.));
#461=DIRECTION('',(0.,1.,-1.37201425506989E-17));
#462=DIRECTION('',(0.,0.,-1.));
#463=DIRECTION('',(0.952744251682231,-0.30377358490571,0.));
#464=DIRECTION('',(0.,0.,1.));
#465=DIRECTION('',(-0.960130820563129,-0.279551081923809,0.));
#466=DIRECTION('',(0.,0.,-1.));
#467=DIRECTION('',(0.,1.,0.));
#468=DIRECTION('',(0.,0.,1.));
#469=DIRECTION('',(-0.964044976154829,-0.265739127624508,0.));
#470=DIRECTION('',(0.,0.,-1.));
#471=DIRECTION('',(0.00438941531076905,-0.999990366470212,0.));
#472=DIRECTION('',(0.,0.,-1.));
#473=DIRECTION('',(0.,1.,0.));
#474=DIRECTION('',(0.,0.,1.));
#475=DIRECTION('',(-0.954519607842528,-0.298148148148109,0.));
#476=DIRECTION('',(0.,0.,-1.));
#477=DIRECTION('',(0.00418746158650899,-0.999991232544297,0.));
#478=DIRECTION('',(0.,0.,-1.));
#479=DIRECTION('',(0.966794372151946,-0.255555555555586,0.));
#480=DIRECTION('',(0.,0.,-1.));
#481=DIRECTION('',(0.,1.,0.));
#482=DIRECTION('',(0.,0.,-1.));
#483=DIRECTION('',(0.954842335270237,-0.297112966354012,0.));
#484=DIRECTION('',(0.,0.,1.));
#485=DIRECTION('',(0.,-1.,9.80010182192779E-18));
#486=DIRECTION('',(0.,0.,-1.));
#487=DIRECTION('',(0.,1.,0.));
#488=DIRECTION('',(0.,0.,-1.));
#489=DIRECTION('',(0.,1.,0.));
#490=DIRECTION('',(0.,0.,-1.));
#491=DIRECTION('',(0.,1.,0.));
#492=DIRECTION('',(0.,0.,1.));
#493=DIRECTION('',(0.0063054101593948,-0.999980120703768,0.));
#494=DIRECTION('',(-8.001830903087E-13,0.,1.));
#495=DIRECTION('',(9.43438911886E-13,0.,1.));
#496=DIRECTION('',(0.,0.,1.));
#497=DIRECTION('',(0.,0.,1.));
#498=DIRECTION('',(0.,0.,1.));
#499=DIRECTION('',(0.,-1.,0.));
#500=DIRECTION('',(0.,0.,1.));
#501=DIRECTION('',(-1.,0.,0.));
#502=DIRECTION('',(0.,0.,1.));
#503=DIRECTION('',(-1.,0.,0.));
#504=DIRECTION('',(0.,0.,-1.));
#505=DIRECTION('',(0.,1.,0.));
#506=DIRECTION('',(-1.44055658061997E-13,0.144306116415197,0.989533094325381));
#507=DIRECTION('',(1.44060548240597E-13,-0.144306116415197,0.989533094325381));
#508=DIRECTION('',(0.,0.,-1.));
#509=DIRECTION('',(0.,1.,-2.54870260628185E-16));
#510=DIRECTION('',(0.,0.,-1.));
#511=DIRECTION('',(0.,1.,-2.54870260628185E-16));
#512=CARTESIAN_POINT('',(0.,0.,0.));
#513=CARTESIAN_POINT('',(0.,0.,0.));
#514=CARTESIAN_POINT('',(0.,0.,-63.));
#515=CARTESIAN_POINT('',(0.,0.,0.));
#516=CARTESIAN_POINT('',(0.,0.,-2.));
#517=CARTESIAN_POINT('',(-31.5,0.,-2.));
#518=CARTESIAN_POINT('',(0.,0.,-2.));
#519=CARTESIAN_POINT('',(0.,22.5166650635425,-2.));
#520=CARTESIAN_POINT('',(-6.13687901368789E-12,-22.5166650635425,-2.));
#521=CARTESIAN_POINT('',(0.,0.,-2.));
#522=CARTESIAN_POINT('',(0.,0.,-2.));
#523=CARTESIAN_POINT('',(0.,0.,-63.));
#524=CARTESIAN_POINT('',(0.,19.000000000001,-63.));
#525=CARTESIAN_POINT('',(0.,-19.000000000001,-63.));
#526=CARTESIAN_POINT('',(0.,0.,-63.));
#527=CARTESIAN_POINT('',(0.,0.,-63.));
#528=CARTESIAN_POINT('',(0.,-19.53847505246,-61.84523652348));
#529=CARTESIAN_POINT('',(0.,-25.,-50.1329584769447));
#530=CARTESIAN_POINT('',(0.,0.,-50.1329584769519));
#531=CARTESIAN_POINT('',(0.,25.,-50.1329584769447));
#532=CARTESIAN_POINT('',(0.,19.53847505246,-61.84523652348));
#533=CARTESIAN_POINT('',(0.,0.,-56.19002109931));
#534=CARTESIAN_POINT('',(0.,0.,-50.1329584769519));
#535=CARTESIAN_POINT('',(0.,0.,-56.19002109931));
#536=CARTESIAN_POINT('',(-4.718447854657E-14,25.8,-27.8));
#537=CARTESIAN_POINT('',(0.,25.8,-27.));
#538=CARTESIAN_POINT('',(0.,25.,-27.8));
#539=CARTESIAN_POINT('',(0.,0.,-27.8));
#540=CARTESIAN_POINT('',(0.,-25.,-27.8));
#541=CARTESIAN_POINT('',(3.261280134836E-14,-25.8,-27.8));
#542=CARTESIAN_POINT('',(0.,-25.8,-27.));
#543=CARTESIAN_POINT('',(0.,0.,-27.));
#544=CARTESIAN_POINT('',(0.,0.,-27.8));
#545=CARTESIAN_POINT('',(0.,0.,-27.));
#546=CARTESIAN_POINT('',(3.76541984645E-14,-31.5,-27.));
#547=CARTESIAN_POINT('',(-3.861860781882E-14,31.5,-27.));
#548=CARTESIAN_POINT('',(0.,0.,-27.));
#549=CARTESIAN_POINT('',(0.,0.,-27.));
#550=CARTESIAN_POINT('',(0.,0.,-27.));
#551=CARTESIAN_POINT('',(-3.861860781882E-14,31.5,-26.));
#552=CARTESIAN_POINT('',(0.,31.5,-21.630963692662));
#553=CARTESIAN_POINT('',(3.76541984645E-14,-31.5,-26.));
#554=CARTESIAN_POINT('',(0.,-31.5,-21.630963692662));
#555=CARTESIAN_POINT('',(0.,0.,-21.630963692662));
#556=CARTESIAN_POINT('',(0.,0.,70.02));
#557=CARTESIAN_POINT('',(0.,0.,-19.1));
#558=CARTESIAN_POINT('',(-26.126781639563,-7.17495644586003,-19.1));
#559=CARTESIAN_POINT('',(0.,0.,-21.630963692662));
#560=CARTESIAN_POINT('',(0.,0.,-20.365481846331));
#561=CARTESIAN_POINT('',(0.,0.,-14.6));
#562=CARTESIAN_POINT('',(25.2477226695791,-8.05000000000131,-14.6));
#563=CARTESIAN_POINT('',(0.,0.,-18.6));
#564=CARTESIAN_POINT('',(-25.4434667449229,-7.40810367098093,-18.6));
#565=CARTESIAN_POINT('',(0.,0.,70.02));
#566=CARTESIAN_POINT('',(0.,0.,-19.1));
#567=CARTESIAN_POINT('',(-26.0292143561804,-7.17495644586172,-19.1));
#568=CARTESIAN_POINT('',(0.,0.,-18.6));
#569=CARTESIAN_POINT('',(0.,0.,-19.1));
#570=CARTESIAN_POINT('',(0.,0.,-14.1));
#571=CARTESIAN_POINT('',(-25.7720294117483,-8.04999999999893,-14.1));
#572=CARTESIAN_POINT('',(0.,0.,-14.6));
#573=CARTESIAN_POINT('',(0.,0.,-11.56903630734));
#574=CARTESIAN_POINT('',(30.4540227227863,-8.05000000000095,-11.56903630734));
#575=CARTESIAN_POINT('',(0.,0.,70.02));
#576=CARTESIAN_POINT('',(0.,0.,-14.1));
#577=CARTESIAN_POINT('',(25.8705666509534,-8.04999999999845,-14.1));
#578=CARTESIAN_POINT('',(0.,0.,-12.83451815367));
#579=CARTESIAN_POINT('',(0.,0.,-14.1));
#580=CARTESIAN_POINT('',(0.,0.,70.02));
#581=CARTESIAN_POINT('',(0.,0.,-27.8));
#582=CARTESIAN_POINT('',(0.,0.,-27.8));
#583=CARTESIAN_POINT('',(0.,25.,-31.588627683389));
#584=CARTESIAN_POINT('',(-3.30930613069984E-12,25.,-31.588627683389));
#585=CARTESIAN_POINT('',(0.,-25.,-31.));
#586=CARTESIAN_POINT('',(7.88860905221012E-28,-25.,-31.));
#587=CARTESIAN_POINT('',(0.,25.,-49.68956915166));
#588=CARTESIAN_POINT('',(0.,25.,-48.1313723166105));
#589=CARTESIAN_POINT('',(0.,-25.,-49.68956915166));
#590=CARTESIAN_POINT('',(0.,-25.,-47.));
#591=CARTESIAN_POINT('',(0.,0.,-66.045));
#592=CARTESIAN_POINT('',(0.,0.,65.4));
#593=CARTESIAN_POINT('',(-9.52089434025205E-12,-12.6875524222734,65.4));
#594=CARTESIAN_POINT('',(9.52121754084259E-12,12.6875524222734,65.4));
#595=CARTESIAN_POINT('',(0.,0.,65.4));
#596=CARTESIAN_POINT('',(0.,0.,65.4));
#597=CARTESIAN_POINT('',(0.,-22.225,0.));
#598=CARTESIAN_POINT('',(0.,22.225,0.));
#599=CARTESIAN_POINT('',(0.,0.,32.27215305821));
#600=CARTESIAN_POINT('',(0.,0.,32.27215305821));
#601=MECHANICAL_DESIGN_GEOMETRIC_PRESENTATION_REPRESENTATION('',(#333,#334,
#335,#336),#602);
#602=(
GEOMETRIC_REPRESENTATION_CONTEXT(3)
GLOBAL_UNCERTAINTY_ASSIGNED_CONTEXT((#603))
GLOBAL_UNIT_ASSIGNED_CONTEXT((#609,#605,#604))
REPRESENTATION_CONTEXT('BT.40AD-W.18','TOP_LEVEL_ASSEMBLY_PART')
);
#603=UNCERTAINTY_MEASURE_WITH_UNIT(LENGTH_MEASURE(2.E-5),#609,
'DISTANCE_ACCURACY_VALUE','Maximum Tolerance applied to model');
#604=(
NAMED_UNIT(*)
SI_UNIT($,.STERADIAN.)
SOLID_ANGLE_UNIT()
);
#605=(
CONVERSION_BASED_UNIT('DEGREE',#607)
NAMED_UNIT(#606)
PLANE_ANGLE_UNIT()
);
#606=DIMENSIONAL_EXPONENTS(0.,0.,0.,0.,0.,0.,0.);
#607=PLANE_ANGLE_MEASURE_WITH_UNIT(PLANE_ANGLE_MEASURE(0.0174532925),#608);
#608=(
NAMED_UNIT(*)
PLANE_ANGLE_UNIT()
SI_UNIT($,.RADIAN.)
);
#609=(
LENGTH_UNIT()
NAMED_UNIT(*)
SI_UNIT(.MILLI.,.METRE.)
);
ENDSEC;
END-ISO-10303-21;
