ISO-10303-21;
HEADER;
/* Generated by software containing ST-Developer
 * from STEP Tools, Inc. (www.steptools.com) 
 */
/* OPTION: using custom schema-name function */

FILE_DESCRIPTION(
/* description */ (''),
/* implementation_level */ '2;1');

FILE_NAME(
/* name */ 'BT.40AD-MT.3.070.stp',
/* time_stamp */ '2024-07-08T05:35:33+02:00',
/* author */ (''),
/* organization */ (''),
/* preprocessor_version */ 'ST-DEVELOPER v16.7',
/* originating_system */ 'SIEMENS PLM Software NX 12.0',
/* authorisation */ '');

FILE_SCHEMA (('AUTOMOTIVE_DESIGN { 1 0 10303 214 3 1 1 1 }'));
ENDSEC;

DATA;
#10=CONSTRUCTIVE_GEOMETRY_REPRESENTATION_RELATIONSHIP(
'supplemental geometry','',#32,#11);
#11=CONSTRUCTIVE_GEOMETRY_REPRESENTATION('supplemental geometry',(#322,
#323,#324),#552);
#12=PROPERTY_DEFINITION_REPRESENTATION(#16,#14);
#13=PROPERTY_DEFINITION_REPRESENTATION(#17,#15);
#14=REPRESENTATION('',(#18),#552);
#15=REPRESENTATION('',(#19),#552);
#16=PROPERTY_DEFINITION('pmi validation property','',#23);
#17=PROPERTY_DEFINITION('pmi validation property','',#23);
#18=VALUE_REPRESENTATION_ITEM('number of annotations',COUNT_MEASURE(0.));
#19=VALUE_REPRESENTATION_ITEM('number of views',COUNT_MEASURE(0.));
#20=SHAPE_REPRESENTATION_RELATIONSHIP('None',
'relationship between pf664004CBF9abav-None and pf664004CBF9abav-None',
#32,#21);
#21=ADVANCED_BREP_SHAPE_REPRESENTATION('pf664004CBF9abav-None',(#38),#552);
#22=SHAPE_DEFINITION_REPRESENTATION(#23,#32);
#23=PRODUCT_DEFINITION_SHAPE('','',#24);
#24=PRODUCT_DEFINITION(' ','',#26,#25);
#25=PRODUCT_DEFINITION_CONTEXT('part definition',#31,'design');
#26=PRODUCT_DEFINITION_FORMATION_WITH_SPECIFIED_SOURCE(' ',' ',#28,
 .NOT_KNOWN.);
#27=PRODUCT_RELATED_PRODUCT_CATEGORY('part','',(#28));
#28=PRODUCT('pf664004CBF9abav','pf664004CBF9abav',' ',(#29));
#29=PRODUCT_CONTEXT(' ',#31,'mechanical');
#30=APPLICATION_PROTOCOL_DEFINITION('international standard',
'automotive_design',2010,#31);
#31=APPLICATION_CONTEXT(
'core data for automotive mechanical design processes');
#32=SHAPE_REPRESENTATION('pf664004CBF9abav-None',(#321),#552);
#33=SURFACE_STYLE_USAGE(.BOTH.,#34);
#34=SURFACE_SIDE_STYLE('',(#35));
#35=SURFACE_STYLE_FILL_AREA(#36);
#36=FILL_AREA_STYLE('',(#37));
#37=FILL_AREA_STYLE_COLOUR('',#317);
#38=MANIFOLD_SOLID_BREP('',#39);
#39=CLOSED_SHELL('',(#77,#78,#79,#80,#81,#82,#83,#84,#85,#86,#87,#88,#89,
#90,#91,#92,#93,#94,#95));
#40=FACE_OUTER_BOUND('',#134,.T.);
#41=FACE_OUTER_BOUND('',#143,.T.);
#42=FACE_OUTER_BOUND('',#146,.T.);
#43=FACE_OUTER_BOUND('',#147,.T.);
#44=FACE_OUTER_BOUND('',#148,.T.);
#45=FACE_OUTER_BOUND('',#149,.T.);
#46=FACE_OUTER_BOUND('',#150,.T.);
#47=FACE_OUTER_BOUND('',#151,.T.);
#48=LINE('',#497,#56);
#49=LINE('',#501,#57);
#50=LINE('',#531,#58);
#51=LINE('',#532,#59);
#52=LINE('',#542,#60);
#53=LINE('',#544,#61);
#54=LINE('',#546,#62);
#55=LINE('',#548,#63);
#56=VECTOR('',#404,1.);
#57=VECTOR('',#407,1.);
#58=VECTOR('',#448,1.);
#59=VECTOR('',#449,1.);
#60=VECTOR('',#464,1.);
#61=VECTOR('',#465,1.);
#62=VECTOR('',#466,1.);
#63=VECTOR('',#467,1.);
#64=CONICAL_SURFACE('',#338,29.29703582746,60.125);
#65=CONICAL_SURFACE('',#346,29.29703582746,60.125);
#66=CONICAL_SURFACE('',#367,17.51867021387,8.2971);
#67=TOROIDAL_SURFACE('',#333,27.,0.5);
#68=TOROIDAL_SURFACE('',#342,27.,0.5);
#69=TOROIDAL_SURFACE('',#356,22.,2.);
#70=TOROIDAL_SURFACE('',#358,22.,2.);
#71=CYLINDRICAL_SURFACE('',#331,26.5);
#72=CYLINDRICAL_SURFACE('',#340,31.5);
#73=CYLINDRICAL_SURFACE('',#344,31.5);
#74=CYLINDRICAL_SURFACE('',#349,31.5);
#75=CYLINDRICAL_SURFACE('',#360,20.);
#76=CYLINDRICAL_SURFACE('',#362,20.);
#77=ADVANCED_FACE('',(#102,#103),#96,.F.);
#78=ADVANCED_FACE('',(#104,#105),#71,.T.);
#79=ADVANCED_FACE('',(#106,#107),#67,.F.);
#80=ADVANCED_FACE('',(#108,#109),#97,.F.);
#81=ADVANCED_FACE('',(#110,#111),#64,.T.);
#82=ADVANCED_FACE('',(#40),#72,.T.);
#83=ADVANCED_FACE('',(#112,#113),#68,.F.);
#84=ADVANCED_FACE('',(#114,#115),#73,.T.);
#85=ADVANCED_FACE('',(#116,#117),#65,.T.);
#86=ADVANCED_FACE('',(#118,#119),#98,.T.);
#87=ADVANCED_FACE('',(#41),#74,.T.);
#88=ADVANCED_FACE('',(#120,#121),#99,.T.);
#89=ADVANCED_FACE('',(#42),#69,.F.);
#90=ADVANCED_FACE('',(#43),#70,.F.);
#91=ADVANCED_FACE('',(#44),#75,.T.);
#92=ADVANCED_FACE('',(#45),#76,.T.);
#93=ADVANCED_FACE('',(#46),#100,.T.);
#94=ADVANCED_FACE('',(#47),#101,.F.);
#95=ADVANCED_FACE('',(#122,#123),#66,.T.);
#96=PLANE('',#328);
#97=PLANE('',#335);
#98=PLANE('',#347);
#99=PLANE('',#352);
#100=PLANE('',#363);
#101=PLANE('',#366);
#102=FACE_BOUND('',#124,.T.);
#103=FACE_BOUND('',#125,.T.);
#104=FACE_BOUND('',#126,.T.);
#105=FACE_BOUND('',#127,.T.);
#106=FACE_BOUND('',#128,.T.);
#107=FACE_BOUND('',#129,.T.);
#108=FACE_BOUND('',#130,.T.);
#109=FACE_BOUND('',#131,.T.);
#110=FACE_BOUND('',#132,.T.);
#111=FACE_BOUND('',#133,.T.);
#112=FACE_BOUND('',#135,.T.);
#113=FACE_BOUND('',#136,.T.);
#114=FACE_BOUND('',#137,.T.);
#115=FACE_BOUND('',#138,.T.);
#116=FACE_BOUND('',#139,.T.);
#117=FACE_BOUND('',#140,.T.);
#118=FACE_BOUND('',#141,.T.);
#119=FACE_BOUND('',#142,.T.);
#120=FACE_BOUND('',#144,.T.);
#121=FACE_BOUND('',#145,.T.);
#122=FACE_BOUND('',#152,.T.);
#123=FACE_BOUND('',#153,.T.);
#124=EDGE_LOOP('',(#154));
#125=EDGE_LOOP('',(#155,#156));
#126=EDGE_LOOP('',(#157));
#127=EDGE_LOOP('',(#158));
#128=EDGE_LOOP('',(#159));
#129=EDGE_LOOP('',(#160));
#130=EDGE_LOOP('',(#161));
#131=EDGE_LOOP('',(#162));
#132=EDGE_LOOP('',(#163));
#133=EDGE_LOOP('',(#164,#165));
#134=EDGE_LOOP('',(#166,#167,#168,#169));
#135=EDGE_LOOP('',(#170));
#136=EDGE_LOOP('',(#171));
#137=EDGE_LOOP('',(#172));
#138=EDGE_LOOP('',(#173));
#139=EDGE_LOOP('',(#174));
#140=EDGE_LOOP('',(#175));
#141=EDGE_LOOP('',(#176));
#142=EDGE_LOOP('',(#177));
#143=EDGE_LOOP('',(#178,#179,#180,#181));
#144=EDGE_LOOP('',(#182,#183));
#145=EDGE_LOOP('',(#184,#185));
#146=EDGE_LOOP('',(#186,#187,#188,#189));
#147=EDGE_LOOP('',(#190,#191,#192,#193));
#148=EDGE_LOOP('',(#194,#195,#196,#197));
#149=EDGE_LOOP('',(#198,#199,#200,#201));
#150=EDGE_LOOP('',(#202,#203));
#151=EDGE_LOOP('',(#204,#205));
#152=EDGE_LOOP('',(#206,#207,#208,#209,#210,#211));
#153=EDGE_LOOP('',(#212,#213,#214,#215,#216,#217));
#154=ORIENTED_EDGE('',*,*,#244,.F.);
#155=ORIENTED_EDGE('',*,*,#245,.T.);
#156=ORIENTED_EDGE('',*,*,#246,.T.);
#157=ORIENTED_EDGE('',*,*,#247,.T.);
#158=ORIENTED_EDGE('',*,*,#248,.T.);
#159=ORIENTED_EDGE('',*,*,#248,.F.);
#160=ORIENTED_EDGE('',*,*,#249,.T.);
#161=ORIENTED_EDGE('',*,*,#249,.F.);
#162=ORIENTED_EDGE('',*,*,#250,.T.);
#163=ORIENTED_EDGE('',*,*,#250,.F.);
#164=ORIENTED_EDGE('',*,*,#251,.T.);
#165=ORIENTED_EDGE('',*,*,#252,.T.);
#166=ORIENTED_EDGE('',*,*,#253,.F.);
#167=ORIENTED_EDGE('',*,*,#254,.T.);
#168=ORIENTED_EDGE('',*,*,#255,.T.);
#169=ORIENTED_EDGE('',*,*,#252,.F.);
#170=ORIENTED_EDGE('',*,*,#256,.F.);
#171=ORIENTED_EDGE('',*,*,#247,.F.);
#172=ORIENTED_EDGE('',*,*,#244,.T.);
#173=ORIENTED_EDGE('',*,*,#257,.F.);
#174=ORIENTED_EDGE('',*,*,#257,.T.);
#175=ORIENTED_EDGE('',*,*,#258,.F.);
#176=ORIENTED_EDGE('',*,*,#258,.T.);
#177=ORIENTED_EDGE('',*,*,#256,.T.);
#178=ORIENTED_EDGE('',*,*,#255,.F.);
#179=ORIENTED_EDGE('',*,*,#259,.T.);
#180=ORIENTED_EDGE('',*,*,#253,.T.);
#181=ORIENTED_EDGE('',*,*,#251,.F.);
#182=ORIENTED_EDGE('',*,*,#259,.F.);
#183=ORIENTED_EDGE('',*,*,#254,.F.);
#184=ORIENTED_EDGE('',*,*,#260,.F.);
#185=ORIENTED_EDGE('',*,*,#261,.F.);
#186=ORIENTED_EDGE('',*,*,#262,.F.);
#187=ORIENTED_EDGE('',*,*,#263,.F.);
#188=ORIENTED_EDGE('',*,*,#264,.T.);
#189=ORIENTED_EDGE('',*,*,#261,.T.);
#190=ORIENTED_EDGE('',*,*,#264,.F.);
#191=ORIENTED_EDGE('',*,*,#265,.T.);
#192=ORIENTED_EDGE('',*,*,#262,.T.);
#193=ORIENTED_EDGE('',*,*,#260,.T.);
#194=ORIENTED_EDGE('',*,*,#266,.T.);
#195=ORIENTED_EDGE('',*,*,#267,.T.);
#196=ORIENTED_EDGE('',*,*,#265,.F.);
#197=ORIENTED_EDGE('',*,*,#268,.F.);
#198=ORIENTED_EDGE('',*,*,#263,.T.);
#199=ORIENTED_EDGE('',*,*,#267,.F.);
#200=ORIENTED_EDGE('',*,*,#269,.F.);
#201=ORIENTED_EDGE('',*,*,#268,.T.);
#202=ORIENTED_EDGE('',*,*,#269,.T.);
#203=ORIENTED_EDGE('',*,*,#266,.F.);
#204=ORIENTED_EDGE('',*,*,#270,.T.);
#205=ORIENTED_EDGE('',*,*,#271,.T.);
#206=ORIENTED_EDGE('',*,*,#272,.F.);
#207=ORIENTED_EDGE('',*,*,#272,.T.);
#208=ORIENTED_EDGE('',*,*,#245,.F.);
#209=ORIENTED_EDGE('',*,*,#273,.F.);
#210=ORIENTED_EDGE('',*,*,#273,.T.);
#211=ORIENTED_EDGE('',*,*,#246,.F.);
#212=ORIENTED_EDGE('',*,*,#274,.T.);
#213=ORIENTED_EDGE('',*,*,#274,.F.);
#214=ORIENTED_EDGE('',*,*,#270,.F.);
#215=ORIENTED_EDGE('',*,*,#275,.T.);
#216=ORIENTED_EDGE('',*,*,#275,.F.);
#217=ORIENTED_EDGE('',*,*,#271,.F.);
#218=VERTEX_POINT('',#475);
#219=VERTEX_POINT('',#477);
#220=VERTEX_POINT('',#478);
#221=VERTEX_POINT('',#482);
#222=VERTEX_POINT('',#484);
#223=VERTEX_POINT('',#487);
#224=VERTEX_POINT('',#490);
#225=VERTEX_POINT('',#493);
#226=VERTEX_POINT('',#494);
#227=VERTEX_POINT('',#498);
#228=VERTEX_POINT('',#500);
#229=VERTEX_POINT('',#504);
#230=VERTEX_POINT('',#507);
#231=VERTEX_POINT('',#510);
#232=VERTEX_POINT('',#516);
#233=VERTEX_POINT('',#517);
#234=VERTEX_POINT('',#521);
#235=VERTEX_POINT('',#523);
#236=VERTEX_POINT('',#529);
#237=VERTEX_POINT('',#530);
#238=VERTEX_POINT('',#538);
#239=VERTEX_POINT('',#539);
#240=VERTEX_POINT('',#543);
#241=VERTEX_POINT('',#545);
#242=VERTEX_POINT('',#547);
#243=VERTEX_POINT('',#549);
#244=EDGE_CURVE('',#218,#218,#276,.T.);
#245=EDGE_CURVE('',#219,#220,#277,.T.);
#246=EDGE_CURVE('',#220,#219,#278,.T.);
#247=EDGE_CURVE('',#221,#221,#279,.T.);
#248=EDGE_CURVE('',#222,#222,#280,.T.);
#249=EDGE_CURVE('',#223,#223,#281,.T.);
#250=EDGE_CURVE('',#224,#224,#282,.T.);
#251=EDGE_CURVE('',#225,#226,#283,.T.);
#252=EDGE_CURVE('',#226,#225,#284,.T.);
#253=EDGE_CURVE('',#227,#226,#48,.T.);
#254=EDGE_CURVE('',#227,#228,#285,.T.);
#255=EDGE_CURVE('',#228,#225,#49,.T.);
#256=EDGE_CURVE('',#229,#229,#286,.T.);
#257=EDGE_CURVE('',#230,#230,#287,.T.);
#258=EDGE_CURVE('',#231,#231,#288,.T.);
#259=EDGE_CURVE('',#228,#227,#289,.T.);
#260=EDGE_CURVE('',#232,#233,#290,.T.);
#261=EDGE_CURVE('',#233,#232,#291,.T.);
#262=EDGE_CURVE('',#234,#232,#292,.T.);
#263=EDGE_CURVE('',#235,#234,#293,.T.);
#264=EDGE_CURVE('',#235,#233,#294,.T.);
#265=EDGE_CURVE('',#235,#234,#295,.T.);
#266=EDGE_CURVE('',#236,#237,#296,.T.);
#267=EDGE_CURVE('',#237,#234,#50,.T.);
#268=EDGE_CURVE('',#236,#235,#51,.T.);
#269=EDGE_CURVE('',#236,#237,#297,.T.);
#270=EDGE_CURVE('',#238,#239,#298,.T.);
#271=EDGE_CURVE('',#239,#238,#299,.T.);
#272=EDGE_CURVE('',#240,#220,#52,.T.);
#273=EDGE_CURVE('',#241,#219,#53,.T.);
#274=EDGE_CURVE('',#239,#242,#54,.T.);
#275=EDGE_CURVE('',#238,#243,#55,.T.);
#276=CIRCLE('',#325,31.5);
#277=CIRCLE('',#326,22.5166650635425);
#278=CIRCLE('',#327,22.5166650635425);
#279=CIRCLE('',#329,26.5);
#280=CIRCLE('',#330,26.5);
#281=CIRCLE('',#332,27.);
#282=CIRCLE('',#334,27.09407165491);
#283=CIRCLE('',#336,31.5);
#284=CIRCLE('',#337,31.5);
#285=CIRCLE('',#339,31.5);
#286=CIRCLE('',#341,27.);
#287=CIRCLE('',#343,31.5);
#288=CIRCLE('',#345,27.09407165491);
#289=CIRCLE('',#348,31.5);
#290=CIRCLE('',#350,22.);
#291=CIRCLE('',#351,22.);
#292=CIRCLE('',#353,2.);
#293=CIRCLE('',#354,20.);
#294=CIRCLE('',#355,2.);
#295=CIRCLE('',#357,20.);
#296=CIRCLE('',#359,20.);
#297=CIRCLE('',#361,20.);
#298=CIRCLE('',#364,12.6875524222744);
#299=CIRCLE('',#365,12.6875524222744);
#300=INVISIBILITY((#301,#302,#303));
#301=PRESENTATION_LAYER_ASSIGNMENT('100','Layer 100',(#322));
#302=PRESENTATION_LAYER_ASSIGNMENT('101','Layer 101',(#323));
#303=PRESENTATION_LAYER_ASSIGNMENT('102','Layer 102',(#324));
#304=PRESENTATION_LAYER_ASSIGNMENT('98','Layer 98',(#38));
#305=STYLED_ITEM('',(#309),#322);
#306=STYLED_ITEM('',(#310),#323);
#307=STYLED_ITEM('',(#311),#324);
#308=STYLED_ITEM('',(#312),#38);
#309=PRESENTATION_STYLE_ASSIGNMENT((#313));
#310=PRESENTATION_STYLE_ASSIGNMENT((#314));
#311=PRESENTATION_STYLE_ASSIGNMENT((#315));
#312=PRESENTATION_STYLE_ASSIGNMENT((#33));
#313=CURVE_STYLE('',#318,POSITIVE_LENGTH_MEASURE(0.7),#316);
#314=CURVE_STYLE('',#319,POSITIVE_LENGTH_MEASURE(0.7),#316);
#315=CURVE_STYLE('',#320,POSITIVE_LENGTH_MEASURE(0.7),#316);
#316=COLOUR_RGB('Medium Maroon',0.6,0.4,0.4);
#317=COLOUR_RGB('Medium Gray',0.490196078431373,0.490196078431373,0.490196078431373);
#318=DRAUGHTING_PRE_DEFINED_CURVE_FONT('continuous');
#319=DRAUGHTING_PRE_DEFINED_CURVE_FONT('continuous');
#320=DRAUGHTING_PRE_DEFINED_CURVE_FONT('continuous');
#321=AXIS2_PLACEMENT_3D('',#470,#368,#369);
#322=AXIS2_PLACEMENT_3D('PCS',#471,#370,#371);
#323=AXIS2_PLACEMENT_3D('CSW',#472,#372,#373);
#324=AXIS2_PLACEMENT_3D('MCS',#473,#374,#375);
#325=AXIS2_PLACEMENT_3D('',#474,#376,#377);
#326=AXIS2_PLACEMENT_3D('',#476,#378,#379);
#327=AXIS2_PLACEMENT_3D('',#479,#380,#381);
#328=AXIS2_PLACEMENT_3D('',#480,#382,#383);
#329=AXIS2_PLACEMENT_3D('',#481,#384,#385);
#330=AXIS2_PLACEMENT_3D('',#483,#386,#387);
#331=AXIS2_PLACEMENT_3D('',#485,#388,#389);
#332=AXIS2_PLACEMENT_3D('',#486,#390,#391);
#333=AXIS2_PLACEMENT_3D('',#488,#392,#393);
#334=AXIS2_PLACEMENT_3D('',#489,#394,#395);
#335=AXIS2_PLACEMENT_3D('',#491,#396,#397);
#336=AXIS2_PLACEMENT_3D('',#492,#398,#399);
#337=AXIS2_PLACEMENT_3D('',#495,#400,#401);
#338=AXIS2_PLACEMENT_3D('',#496,#402,#403);
#339=AXIS2_PLACEMENT_3D('',#499,#405,#406);
#340=AXIS2_PLACEMENT_3D('',#502,#408,#409);
#341=AXIS2_PLACEMENT_3D('',#503,#410,#411);
#342=AXIS2_PLACEMENT_3D('',#505,#412,#413);
#343=AXIS2_PLACEMENT_3D('',#506,#414,#415);
#344=AXIS2_PLACEMENT_3D('',#508,#416,#417);
#345=AXIS2_PLACEMENT_3D('',#509,#418,#419);
#346=AXIS2_PLACEMENT_3D('',#511,#420,#421);
#347=AXIS2_PLACEMENT_3D('',#512,#422,#423);
#348=AXIS2_PLACEMENT_3D('',#513,#424,#425);
#349=AXIS2_PLACEMENT_3D('',#514,#426,#427);
#350=AXIS2_PLACEMENT_3D('',#515,#428,#429);
#351=AXIS2_PLACEMENT_3D('',#518,#430,#431);
#352=AXIS2_PLACEMENT_3D('',#519,#432,#433);
#353=AXIS2_PLACEMENT_3D('',#520,#434,#435);
#354=AXIS2_PLACEMENT_3D('',#522,#436,#437);
#355=AXIS2_PLACEMENT_3D('',#524,#438,#439);
#356=AXIS2_PLACEMENT_3D('',#525,#440,#441);
#357=AXIS2_PLACEMENT_3D('',#526,#442,#443);
#358=AXIS2_PLACEMENT_3D('',#527,#444,#445);
#359=AXIS2_PLACEMENT_3D('',#528,#446,#447);
#360=AXIS2_PLACEMENT_3D('',#533,#450,#451);
#361=AXIS2_PLACEMENT_3D('',#534,#452,#453);
#362=AXIS2_PLACEMENT_3D('',#535,#454,#455);
#363=AXIS2_PLACEMENT_3D('',#536,#456,#457);
#364=AXIS2_PLACEMENT_3D('',#537,#458,#459);
#365=AXIS2_PLACEMENT_3D('',#540,#460,#461);
#366=AXIS2_PLACEMENT_3D('',#541,#462,#463);
#367=AXIS2_PLACEMENT_3D('',#550,#468,#469);
#368=DIRECTION('',(0.,0.,1.));
#369=DIRECTION('',(1.,0.,0.));
#370=DIRECTION('',(0.,0.,1.));
#371=DIRECTION('',(1.,0.,0.));
#372=DIRECTION('',(0.,0.,1.));
#373=DIRECTION('',(1.,0.,0.));
#374=DIRECTION('',(0.,0.,1.));
#375=DIRECTION('',(1.,0.,0.));
#376=DIRECTION('',(0.,0.,-1.));
#377=DIRECTION('',(-1.,0.,0.));
#378=DIRECTION('',(0.,0.,-1.));
#379=DIRECTION('',(-1.,0.,0.));
#380=DIRECTION('',(0.,0.,-1.));
#381=DIRECTION('',(-1.,0.,0.));
#382=DIRECTION('',(0.,0.,-1.));
#383=DIRECTION('',(0.,1.,0.));
#384=DIRECTION('',(0.,0.,-1.));
#385=DIRECTION('',(0.952744251682231,-0.30377358490571,0.));
#386=DIRECTION('',(0.,0.,1.));
#387=DIRECTION('',(-0.960130820563129,-0.279551081923809,0.));
#388=DIRECTION('',(0.,0.,-1.));
#389=DIRECTION('',(0.,1.,0.));
#390=DIRECTION('',(0.,0.,1.));
#391=DIRECTION('',(-0.964044976154829,-0.265739127624508,0.));
#392=DIRECTION('',(0.,0.,-1.));
#393=DIRECTION('',(0.00438941531076905,-0.999990366470212,0.));
#394=DIRECTION('',(0.,0.,1.));
#395=DIRECTION('',(-0.964298831579577,-0.264816471191394,0.));
#396=DIRECTION('',(0.,0.,-1.));
#397=DIRECTION('',(0.,1.,0.));
#398=DIRECTION('',(0.,0.,1.));
#399=DIRECTION('',(0.,-1.,0.));
#400=DIRECTION('',(0.,0.,1.));
#401=DIRECTION('',(-0.986505988923997,-0.163725177712799,0.));
#402=DIRECTION('',(0.,0.,-1.));
#403=DIRECTION('',(0.,1.,-1.37201425506989E-17));
#404=DIRECTION('',(0.,0.,1.));
#405=DIRECTION('',(0.,0.,1.));
#406=DIRECTION('',(-1.,0.,0.));
#407=DIRECTION('',(0.,0.,1.));
#408=DIRECTION('',(0.,0.,-1.));
#409=DIRECTION('',(0.,1.,0.));
#410=DIRECTION('',(0.,0.,1.));
#411=DIRECTION('',(-0.954519607842528,-0.298148148148109,0.));
#412=DIRECTION('',(0.,0.,-1.));
#413=DIRECTION('',(0.00418746158650899,-0.999991232544297,0.));
#414=DIRECTION('',(0.,0.,-1.));
#415=DIRECTION('',(0.966794372151946,-0.255555555555586,0.));
#416=DIRECTION('',(0.,0.,-1.));
#417=DIRECTION('',(0.,1.,0.));
#418=DIRECTION('',(0.,0.,-1.));
#419=DIRECTION('',(0.954842335270237,-0.297112966354012,0.));
#420=DIRECTION('',(0.,0.,1.));
#421=DIRECTION('',(0.,-1.,9.80010182192779E-18));
#422=DIRECTION('',(0.,0.,-1.));
#423=DIRECTION('',(0.,1.,0.));
#424=DIRECTION('',(0.,0.,1.));
#425=DIRECTION('',(-1.,0.,0.));
#426=DIRECTION('',(0.,0.,-1.));
#427=DIRECTION('',(0.,1.,0.));
#428=DIRECTION('',(0.,0.,-1.));
#429=DIRECTION('',(0.,-1.,0.));
#430=DIRECTION('',(0.,0.,-1.));
#431=DIRECTION('',(0.,1.,0.));
#432=DIRECTION('',(0.,0.,-1.));
#433=DIRECTION('',(0.,1.,0.));
#434=DIRECTION('',(1.,0.,0.));
#435=DIRECTION('',(0.,1.,0.));
#436=DIRECTION('',(0.,0.,-1.));
#437=DIRECTION('',(0.,1.,0.));
#438=DIRECTION('',(-1.,0.,0.));
#439=DIRECTION('',(0.,-1.,0.));
#440=DIRECTION('',(0.,0.,-1.));
#441=DIRECTION('',(0.,1.,0.));
#442=DIRECTION('',(0.,0.,1.));
#443=DIRECTION('',(0.,1.,0.));
#444=DIRECTION('',(0.,0.,-1.));
#445=DIRECTION('',(0.,1.,0.));
#446=DIRECTION('',(0.,0.,1.));
#447=DIRECTION('',(-1.,0.,0.));
#448=DIRECTION('',(0.,0.,1.));
#449=DIRECTION('',(0.,0.,1.));
#450=DIRECTION('',(0.,0.,-1.));
#451=DIRECTION('',(0.,1.,0.));
#452=DIRECTION('',(0.,0.,-1.));
#453=DIRECTION('',(-1.,0.,0.));
#454=DIRECTION('',(0.,0.,-1.));
#455=DIRECTION('',(0.,1.,0.));
#456=DIRECTION('',(0.,0.,-1.));
#457=DIRECTION('',(0.,1.,0.));
#458=DIRECTION('',(0.,0.,1.));
#459=DIRECTION('',(-1.,0.,0.));
#460=DIRECTION('',(0.,0.,1.));
#461=DIRECTION('',(-1.,0.,0.));
#462=DIRECTION('',(0.,0.,-1.));
#463=DIRECTION('',(0.,1.,0.));
#464=DIRECTION('',(0.,-0.144306116415197,-0.989533094325381));
#465=DIRECTION('',(0.,0.144306116415197,-0.989533094325381));
#466=DIRECTION('',(-3.04919269273894E-13,0.144306116415197,-0.989533094325381));
#467=DIRECTION('',(3.15925528301494E-13,-0.144306116415197,-0.989533094325381));
#468=DIRECTION('',(0.,0.,-1.));
#469=DIRECTION('',(0.,1.,-2.54870260628185E-16));
#470=CARTESIAN_POINT('',(0.,0.,0.));
#471=CARTESIAN_POINT('',(0.,0.,0.));
#472=CARTESIAN_POINT('',(0.,0.,-70.));
#473=CARTESIAN_POINT('',(0.,0.,0.));
#474=CARTESIAN_POINT('',(0.,0.,-2.));
#475=CARTESIAN_POINT('',(-31.5,0.,-2.));
#476=CARTESIAN_POINT('',(0.,0.,-2.));
#477=CARTESIAN_POINT('',(0.,22.5166650635425,-2.));
#478=CARTESIAN_POINT('',(2.75749617975404E-15,-22.5166650635425,-2.));
#479=CARTESIAN_POINT('',(0.,0.,-2.));
#480=CARTESIAN_POINT('',(0.,0.,-2.));
#481=CARTESIAN_POINT('',(0.,0.,-14.6));
#482=CARTESIAN_POINT('',(25.2477226695791,-8.05000000000131,-14.6));
#483=CARTESIAN_POINT('',(0.,0.,-18.6));
#484=CARTESIAN_POINT('',(-25.4434667449229,-7.40810367098093,-18.6));
#485=CARTESIAN_POINT('',(0.,0.,70.02));
#486=CARTESIAN_POINT('',(0.,0.,-19.1));
#487=CARTESIAN_POINT('',(-26.0292143561804,-7.17495644586172,-19.1));
#488=CARTESIAN_POINT('',(0.,0.,-18.6));
#489=CARTESIAN_POINT('',(0.,0.,-19.1));
#490=CARTESIAN_POINT('',(-26.126781639563,-7.17495644586003,-19.1));
#491=CARTESIAN_POINT('',(0.,0.,-19.1));
#492=CARTESIAN_POINT('',(0.,0.,-21.630963692662));
#493=CARTESIAN_POINT('',(0.,-31.5,-21.630963692662));
#494=CARTESIAN_POINT('',(0.,31.5,-21.630963692662));
#495=CARTESIAN_POINT('',(0.,0.,-21.630963692662));
#496=CARTESIAN_POINT('',(0.,0.,-20.365481846331));
#497=CARTESIAN_POINT('',(-3.861860781882E-14,31.5,-26.));
#498=CARTESIAN_POINT('',(-3.861860781882E-14,31.5,-27.));
#499=CARTESIAN_POINT('',(0.,0.,-27.));
#500=CARTESIAN_POINT('',(3.76541984645E-14,-31.5,-27.));
#501=CARTESIAN_POINT('',(3.76541984645E-14,-31.5,-26.));
#502=CARTESIAN_POINT('',(0.,0.,70.02));
#503=CARTESIAN_POINT('',(0.,0.,-14.1));
#504=CARTESIAN_POINT('',(-25.7720294117483,-8.04999999999893,-14.1));
#505=CARTESIAN_POINT('',(0.,0.,-14.6));
#506=CARTESIAN_POINT('',(0.,0.,-11.56903630734));
#507=CARTESIAN_POINT('',(30.4540227227863,-8.05000000000095,-11.56903630734));
#508=CARTESIAN_POINT('',(0.,0.,70.02));
#509=CARTESIAN_POINT('',(0.,0.,-14.1));
#510=CARTESIAN_POINT('',(25.8705666509534,-8.04999999999845,-14.1));
#511=CARTESIAN_POINT('',(0.,0.,-12.83451815367));
#512=CARTESIAN_POINT('',(0.,0.,-14.1));
#513=CARTESIAN_POINT('',(0.,0.,-27.));
#514=CARTESIAN_POINT('',(0.,0.,70.02));
#515=CARTESIAN_POINT('',(0.,0.,-27.));
#516=CARTESIAN_POINT('',(0.,-22.,-27.));
#517=CARTESIAN_POINT('',(0.,22.,-27.));
#518=CARTESIAN_POINT('',(0.,0.,-27.));
#519=CARTESIAN_POINT('',(0.,0.,-27.));
#520=CARTESIAN_POINT('',(0.,-22.,-29.));
#521=CARTESIAN_POINT('',(0.,-20.,-29.));
#522=CARTESIAN_POINT('',(0.,0.,-29.));
#523=CARTESIAN_POINT('',(0.,20.,-29.));
#524=CARTESIAN_POINT('',(0.,22.,-29.));
#525=CARTESIAN_POINT('',(0.,0.,-29.));
#526=CARTESIAN_POINT('',(0.,0.,-29.));
#527=CARTESIAN_POINT('',(0.,0.,-29.));
#528=CARTESIAN_POINT('',(0.,0.,-70.));
#529=CARTESIAN_POINT('',(0.,20.,-70.));
#530=CARTESIAN_POINT('',(0.,-20.,-70.));
#531=CARTESIAN_POINT('',(0.,-20.,-68.));
#532=CARTESIAN_POINT('',(0.,20.,-68.));
#533=CARTESIAN_POINT('',(0.,0.,-24.85));
#534=CARTESIAN_POINT('',(0.,0.,-70.));
#535=CARTESIAN_POINT('',(0.,0.,-24.85));
#536=CARTESIAN_POINT('',(0.,0.,-70.));
#537=CARTESIAN_POINT('',(0.,0.,65.4));
#538=CARTESIAN_POINT('',(-9.67223974397271E-12,-12.6875524222766,65.4));
#539=CARTESIAN_POINT('',(9.66304110736561E-12,12.6875524222766,65.4));
#540=CARTESIAN_POINT('',(0.,0.,65.4));
#541=CARTESIAN_POINT('',(0.,0.,65.4));
#542=CARTESIAN_POINT('',(0.,-22.225,0.));
#543=CARTESIAN_POINT('',(1.22090308035621E-14,-21.0583397458454,8.));
#544=CARTESIAN_POINT('',(0.,22.225,0.));
#545=CARTESIAN_POINT('',(2.65676008532753E-14,21.0583397458454,8.));
#546=CARTESIAN_POINT('',(2.954455826844E-13,17.12086138807,35.));
#547=CARTESIAN_POINT('',(2.95445582684393E-13,17.1208613880689,35.));
#548=CARTESIAN_POINT('',(3.348522413772E-14,-17.12086138807,35.));
#549=CARTESIAN_POINT('',(3.34852241377192E-14,-17.1208613880689,35.));
#550=CARTESIAN_POINT('',(0.,0.,32.27215305821));
#551=MECHANICAL_DESIGN_GEOMETRIC_PRESENTATION_REPRESENTATION('',(#305,#306,
#307,#308),#552);
#552=(
GEOMETRIC_REPRESENTATION_CONTEXT(3)
GLOBAL_UNCERTAINTY_ASSIGNED_CONTEXT((#553))
GLOBAL_UNIT_ASSIGNED_CONTEXT((#559,#555,#554))
REPRESENTATION_CONTEXT('BT.40AD-MT.3','TOP_LEVEL_ASSEMBLY_PART')
);
#553=UNCERTAINTY_MEASURE_WITH_UNIT(LENGTH_MEASURE(2.E-5),#559,
'DISTANCE_ACCURACY_VALUE','Maximum Tolerance applied to model');
#554=(
NAMED_UNIT(*)
SI_UNIT($,.STERADIAN.)
SOLID_ANGLE_UNIT()
);
#555=(
CONVERSION_BASED_UNIT('DEGREE',#557)
NAMED_UNIT(#556)
PLANE_ANGLE_UNIT()
);
#556=DIMENSIONAL_EXPONENTS(0.,0.,0.,0.,0.,0.,0.);
#557=PLANE_ANGLE_MEASURE_WITH_UNIT(PLANE_ANGLE_MEASURE(0.0174532925),#558);
#558=(
NAMED_UNIT(*)
PLANE_ANGLE_UNIT()
SI_UNIT($,.RADIAN.)
);
#559=(
LENGTH_UNIT()
NAMED_UNIT(*)
SI_UNIT(.MILLI.,.METRE.)
);
ENDSEC;
END-ISO-10303-21;
