ISO-10303-21;
HEADER;
/* Generated by software containing ST-Developer
 * from STEP Tools, Inc. (www.steptools.com) 
 */
/* OPTION: using custom schema-name function */

FILE_DESCRIPTION(
/* description */ (''),
/* implementation_level */ '2;1');

FILE_NAME(
/* name */ 'BT.40AD-CC.ER40.100.stp',
/* time_stamp */ '2024-07-08T05:31:53+02:00',
/* author */ (''),
/* organization */ (''),
/* preprocessor_version */ 'ST-DEVELOPER v16.7',
/* originating_system */ 'SIEMENS PLM Software NX 12.0',
/* authorisation */ '');

FILE_SCHEMA (('AUTOMOTIVE_DESIGN { 1 0 10303 214 3 1 1 1 }'));
ENDSEC;

DATA;
#10=CONSTRUCTIVE_GEOMETRY_REPRESENTATION_RELATIONSHIP(
'supplemental geometry','',#32,#11);
#11=CONSTRUCTIVE_GEOMETRY_REPRESENTATION('supplemental geometry',(#377,
#378,#379),#652);
#12=PROPERTY_DEFINITION_REPRESENTATION(#16,#14);
#13=PROPERTY_DEFINITION_REPRESENTATION(#17,#15);
#14=REPRESENTATION('',(#18),#652);
#15=REPRESENTATION('',(#19),#652);
#16=PROPERTY_DEFINITION('pmi validation property','',#23);
#17=PROPERTY_DEFINITION('pmi validation property','',#23);
#18=VALUE_REPRESENTATION_ITEM('number of annotations',COUNT_MEASURE(0.));
#19=VALUE_REPRESENTATION_ITEM('number of views',COUNT_MEASURE(0.));
#20=SHAPE_REPRESENTATION_RELATIONSHIP('None',
'relationship between pf664004CBF9aba7-None and pf664004CBF9aba7-None',
#32,#21);
#21=ADVANCED_BREP_SHAPE_REPRESENTATION('pf664004CBF9aba7-None',(#38),#652);
#22=SHAPE_DEFINITION_REPRESENTATION(#23,#32);
#23=PRODUCT_DEFINITION_SHAPE('','',#24);
#24=PRODUCT_DEFINITION(' ','',#26,#25);
#25=PRODUCT_DEFINITION_CONTEXT('part definition',#31,'design');
#26=PRODUCT_DEFINITION_FORMATION_WITH_SPECIFIED_SOURCE(' ',' ',#28,
 .NOT_KNOWN.);
#27=PRODUCT_RELATED_PRODUCT_CATEGORY('part','',(#28));
#28=PRODUCT('pf664004CBF9aba7','pf664004CBF9aba7',' ',(#29));
#29=PRODUCT_CONTEXT(' ',#31,'mechanical');
#30=APPLICATION_PROTOCOL_DEFINITION('international standard',
'automotive_design',2010,#31);
#31=APPLICATION_CONTEXT(
'core data for automotive mechanical design processes');
#32=SHAPE_REPRESENTATION('pf664004CBF9aba7-None',(#376),#652);
#33=SURFACE_STYLE_USAGE(.BOTH.,#34);
#34=SURFACE_SIDE_STYLE('',(#35));
#35=SURFACE_STYLE_FILL_AREA(#36);
#36=FILL_AREA_STYLE('',(#37));
#37=FILL_AREA_STYLE_COLOUR('',#372);
#38=MANIFOLD_SOLID_BREP('',#39);
#39=CLOSED_SHELL('',(#86,#87,#88,#89,#90,#91,#92,#93,#94,#95,#96,#97,#98,
#99,#100,#101,#102,#103,#104,#105,#106,#107,#108));
#40=TOROIDAL_SURFACE('',#398,27.,0.5);
#41=TOROIDAL_SURFACE('',#407,27.,0.5);
#42=TOROIDAL_SURFACE('',#421,25.8,0.8);
#43=TOROIDAL_SURFACE('',#423,25.8,0.8);
#44=CYLINDRICAL_SURFACE('',#396,26.5);
#45=CYLINDRICAL_SURFACE('',#405,31.5);
#46=CYLINDRICAL_SURFACE('',#409,31.5);
#47=CYLINDRICAL_SURFACE('',#414,31.5);
#48=CYLINDRICAL_SURFACE('',#424,25.);
#49=CYLINDRICAL_SURFACE('',#425,25.);
#50=CYLINDRICAL_SURFACE('',#431,31.45);
#51=CONICAL_SURFACE('',#392,17.51867021387,8.2971);
#52=CONICAL_SURFACE('',#393,17.51867021387,8.2971);
#53=CONICAL_SURFACE('',#403,29.29703582746,60.125);
#54=CONICAL_SURFACE('',#411,29.29703582746,60.125);
#55=CONICAL_SURFACE('',#430,27.83205080757,60.);
#56=LINE('',#579,#66);
#57=LINE('',#580,#67);
#58=LINE('',#599,#68);
#59=LINE('',#603,#69);
#60=LINE('',#630,#70);
#61=LINE('',#631,#71);
#62=LINE('',#641,#72);
#63=LINE('',#643,#73);
#64=LINE('',#646,#74);
#65=LINE('',#648,#75);
#66=VECTOR('',#464,1.);
#67=VECTOR('',#465,1.);
#68=VECTOR('',#490,1.);
#69=VECTOR('',#493,1.);
#70=VECTOR('',#532,1.);
#71=VECTOR('',#533,1.);
#72=VECTOR('',#546,1.);
#73=VECTOR('',#547,1.);
#74=VECTOR('',#550,1.);
#75=VECTOR('',#551,1.);
#76=FACE_OUTER_BOUND('',#146,.T.);
#77=FACE_OUTER_BOUND('',#147,.T.);
#78=FACE_OUTER_BOUND('',#148,.T.);
#79=FACE_OUTER_BOUND('',#157,.T.);
#80=FACE_OUTER_BOUND('',#166,.T.);
#81=FACE_OUTER_BOUND('',#169,.T.);
#82=FACE_OUTER_BOUND('',#170,.T.);
#83=FACE_OUTER_BOUND('',#171,.T.);
#84=FACE_OUTER_BOUND('',#172,.T.);
#85=FACE_OUTER_BOUND('',#173,.T.);
#86=ADVANCED_FACE('',(#116,#117),#109,.T.);
#87=ADVANCED_FACE('',(#118,#119),#110,.F.);
#88=ADVANCED_FACE('',(#76),#111,.F.);
#89=ADVANCED_FACE('',(#77),#51,.T.);
#90=ADVANCED_FACE('',(#78),#52,.T.);
#91=ADVANCED_FACE('',(#120,#121),#44,.T.);
#92=ADVANCED_FACE('',(#122,#123),#40,.F.);
#93=ADVANCED_FACE('',(#124,#125),#112,.F.);
#94=ADVANCED_FACE('',(#126,#127),#53,.T.);
#95=ADVANCED_FACE('',(#79),#45,.T.);
#96=ADVANCED_FACE('',(#128,#129),#41,.F.);
#97=ADVANCED_FACE('',(#130,#131),#46,.T.);
#98=ADVANCED_FACE('',(#132,#133),#54,.T.);
#99=ADVANCED_FACE('',(#134,#135),#113,.T.);
#100=ADVANCED_FACE('',(#80),#47,.T.);
#101=ADVANCED_FACE('',(#136,#137),#114,.T.);
#102=ADVANCED_FACE('',(#81),#42,.F.);
#103=ADVANCED_FACE('',(#82),#43,.F.);
#104=ADVANCED_FACE('',(#83),#48,.T.);
#105=ADVANCED_FACE('',(#84),#49,.T.);
#106=ADVANCED_FACE('',(#85),#115,.F.);
#107=ADVANCED_FACE('',(#138,#139),#55,.T.);
#108=ADVANCED_FACE('',(#140,#141),#50,.T.);
#109=PLANE('',#384);
#110=PLANE('',#388);
#111=PLANE('',#391);
#112=PLANE('',#400);
#113=PLANE('',#412);
#114=PLANE('',#417);
#115=PLANE('',#428);
#116=FACE_BOUND('',#142,.T.);
#117=FACE_BOUND('',#143,.T.);
#118=FACE_BOUND('',#144,.T.);
#119=FACE_BOUND('',#145,.T.);
#120=FACE_BOUND('',#149,.T.);
#121=FACE_BOUND('',#150,.T.);
#122=FACE_BOUND('',#151,.T.);
#123=FACE_BOUND('',#152,.T.);
#124=FACE_BOUND('',#153,.T.);
#125=FACE_BOUND('',#154,.T.);
#126=FACE_BOUND('',#155,.T.);
#127=FACE_BOUND('',#156,.T.);
#128=FACE_BOUND('',#158,.T.);
#129=FACE_BOUND('',#159,.T.);
#130=FACE_BOUND('',#160,.T.);
#131=FACE_BOUND('',#161,.T.);
#132=FACE_BOUND('',#162,.T.);
#133=FACE_BOUND('',#163,.T.);
#134=FACE_BOUND('',#164,.T.);
#135=FACE_BOUND('',#165,.T.);
#136=FACE_BOUND('',#167,.T.);
#137=FACE_BOUND('',#168,.T.);
#138=FACE_BOUND('',#174,.T.);
#139=FACE_BOUND('',#175,.T.);
#140=FACE_BOUND('',#176,.T.);
#141=FACE_BOUND('',#177,.T.);
#142=EDGE_LOOP('',(#178,#179));
#143=EDGE_LOOP('',(#180,#181));
#144=EDGE_LOOP('',(#182));
#145=EDGE_LOOP('',(#183,#184));
#146=EDGE_LOOP('',(#185,#186));
#147=EDGE_LOOP('',(#187,#188,#189,#190));
#148=EDGE_LOOP('',(#191,#192,#193,#194));
#149=EDGE_LOOP('',(#195));
#150=EDGE_LOOP('',(#196));
#151=EDGE_LOOP('',(#197));
#152=EDGE_LOOP('',(#198));
#153=EDGE_LOOP('',(#199));
#154=EDGE_LOOP('',(#200));
#155=EDGE_LOOP('',(#201));
#156=EDGE_LOOP('',(#202,#203));
#157=EDGE_LOOP('',(#204,#205,#206,#207));
#158=EDGE_LOOP('',(#208));
#159=EDGE_LOOP('',(#209));
#160=EDGE_LOOP('',(#210));
#161=EDGE_LOOP('',(#211));
#162=EDGE_LOOP('',(#212));
#163=EDGE_LOOP('',(#213));
#164=EDGE_LOOP('',(#214));
#165=EDGE_LOOP('',(#215));
#166=EDGE_LOOP('',(#216,#217,#218,#219));
#167=EDGE_LOOP('',(#220,#221));
#168=EDGE_LOOP('',(#222,#223));
#169=EDGE_LOOP('',(#224,#225,#226,#227));
#170=EDGE_LOOP('',(#228,#229,#230,#231));
#171=EDGE_LOOP('',(#232,#233,#234,#235));
#172=EDGE_LOOP('',(#236,#237,#238,#239));
#173=EDGE_LOOP('',(#240,#241));
#174=EDGE_LOOP('',(#242));
#175=EDGE_LOOP('',(#243,#244,#245,#246,#247,#248));
#176=EDGE_LOOP('',(#249));
#177=EDGE_LOOP('',(#250,#251,#252,#253,#254,#255));
#178=ORIENTED_EDGE('',*,*,#287,.T.);
#179=ORIENTED_EDGE('',*,*,#288,.T.);
#180=ORIENTED_EDGE('',*,*,#289,.T.);
#181=ORIENTED_EDGE('',*,*,#290,.T.);
#182=ORIENTED_EDGE('',*,*,#291,.F.);
#183=ORIENTED_EDGE('',*,*,#292,.T.);
#184=ORIENTED_EDGE('',*,*,#293,.T.);
#185=ORIENTED_EDGE('',*,*,#294,.T.);
#186=ORIENTED_EDGE('',*,*,#295,.T.);
#187=ORIENTED_EDGE('',*,*,#296,.F.);
#188=ORIENTED_EDGE('',*,*,#292,.F.);
#189=ORIENTED_EDGE('',*,*,#297,.T.);
#190=ORIENTED_EDGE('',*,*,#294,.F.);
#191=ORIENTED_EDGE('',*,*,#297,.F.);
#192=ORIENTED_EDGE('',*,*,#293,.F.);
#193=ORIENTED_EDGE('',*,*,#296,.T.);
#194=ORIENTED_EDGE('',*,*,#295,.F.);
#195=ORIENTED_EDGE('',*,*,#298,.T.);
#196=ORIENTED_EDGE('',*,*,#299,.T.);
#197=ORIENTED_EDGE('',*,*,#299,.F.);
#198=ORIENTED_EDGE('',*,*,#300,.T.);
#199=ORIENTED_EDGE('',*,*,#300,.F.);
#200=ORIENTED_EDGE('',*,*,#301,.T.);
#201=ORIENTED_EDGE('',*,*,#301,.F.);
#202=ORIENTED_EDGE('',*,*,#302,.T.);
#203=ORIENTED_EDGE('',*,*,#303,.T.);
#204=ORIENTED_EDGE('',*,*,#304,.F.);
#205=ORIENTED_EDGE('',*,*,#305,.T.);
#206=ORIENTED_EDGE('',*,*,#306,.T.);
#207=ORIENTED_EDGE('',*,*,#303,.F.);
#208=ORIENTED_EDGE('',*,*,#307,.F.);
#209=ORIENTED_EDGE('',*,*,#298,.F.);
#210=ORIENTED_EDGE('',*,*,#291,.T.);
#211=ORIENTED_EDGE('',*,*,#308,.F.);
#212=ORIENTED_EDGE('',*,*,#308,.T.);
#213=ORIENTED_EDGE('',*,*,#309,.F.);
#214=ORIENTED_EDGE('',*,*,#309,.T.);
#215=ORIENTED_EDGE('',*,*,#307,.T.);
#216=ORIENTED_EDGE('',*,*,#306,.F.);
#217=ORIENTED_EDGE('',*,*,#310,.T.);
#218=ORIENTED_EDGE('',*,*,#304,.T.);
#219=ORIENTED_EDGE('',*,*,#302,.F.);
#220=ORIENTED_EDGE('',*,*,#310,.F.);
#221=ORIENTED_EDGE('',*,*,#305,.F.);
#222=ORIENTED_EDGE('',*,*,#311,.F.);
#223=ORIENTED_EDGE('',*,*,#312,.F.);
#224=ORIENTED_EDGE('',*,*,#313,.T.);
#225=ORIENTED_EDGE('',*,*,#314,.F.);
#226=ORIENTED_EDGE('',*,*,#315,.F.);
#227=ORIENTED_EDGE('',*,*,#312,.T.);
#228=ORIENTED_EDGE('',*,*,#315,.T.);
#229=ORIENTED_EDGE('',*,*,#316,.F.);
#230=ORIENTED_EDGE('',*,*,#313,.F.);
#231=ORIENTED_EDGE('',*,*,#311,.T.);
#232=ORIENTED_EDGE('',*,*,#289,.F.);
#233=ORIENTED_EDGE('',*,*,#317,.T.);
#234=ORIENTED_EDGE('',*,*,#316,.T.);
#235=ORIENTED_EDGE('',*,*,#318,.T.);
#236=ORIENTED_EDGE('',*,*,#290,.F.);
#237=ORIENTED_EDGE('',*,*,#318,.F.);
#238=ORIENTED_EDGE('',*,*,#314,.T.);
#239=ORIENTED_EDGE('',*,*,#317,.F.);
#240=ORIENTED_EDGE('',*,*,#319,.F.);
#241=ORIENTED_EDGE('',*,*,#320,.F.);
#242=ORIENTED_EDGE('',*,*,#321,.F.);
#243=ORIENTED_EDGE('',*,*,#322,.T.);
#244=ORIENTED_EDGE('',*,*,#322,.F.);
#245=ORIENTED_EDGE('',*,*,#319,.T.);
#246=ORIENTED_EDGE('',*,*,#323,.T.);
#247=ORIENTED_EDGE('',*,*,#323,.F.);
#248=ORIENTED_EDGE('',*,*,#320,.T.);
#249=ORIENTED_EDGE('',*,*,#321,.T.);
#250=ORIENTED_EDGE('',*,*,#324,.F.);
#251=ORIENTED_EDGE('',*,*,#324,.T.);
#252=ORIENTED_EDGE('',*,*,#287,.F.);
#253=ORIENTED_EDGE('',*,*,#325,.F.);
#254=ORIENTED_EDGE('',*,*,#325,.T.);
#255=ORIENTED_EDGE('',*,*,#288,.F.);
#256=VERTEX_POINT('',#559);
#257=VERTEX_POINT('',#560);
#258=VERTEX_POINT('',#563);
#259=VERTEX_POINT('',#564);
#260=VERTEX_POINT('',#568);
#261=VERTEX_POINT('',#570);
#262=VERTEX_POINT('',#571);
#263=VERTEX_POINT('',#575);
#264=VERTEX_POINT('',#576);
#265=VERTEX_POINT('',#584);
#266=VERTEX_POINT('',#586);
#267=VERTEX_POINT('',#589);
#268=VERTEX_POINT('',#592);
#269=VERTEX_POINT('',#595);
#270=VERTEX_POINT('',#596);
#271=VERTEX_POINT('',#600);
#272=VERTEX_POINT('',#602);
#273=VERTEX_POINT('',#606);
#274=VERTEX_POINT('',#609);
#275=VERTEX_POINT('',#612);
#276=VERTEX_POINT('',#618);
#277=VERTEX_POINT('',#619);
#278=VERTEX_POINT('',#623);
#279=VERTEX_POINT('',#625);
#280=VERTEX_POINT('',#635);
#281=VERTEX_POINT('',#636);
#282=VERTEX_POINT('',#640);
#283=VERTEX_POINT('',#642);
#284=VERTEX_POINT('',#644);
#285=VERTEX_POINT('',#647);
#286=VERTEX_POINT('',#649);
#287=EDGE_CURVE('',#256,#257,#326,.T.);
#288=EDGE_CURVE('',#257,#256,#327,.T.);
#289=EDGE_CURVE('',#258,#259,#328,.T.);
#290=EDGE_CURVE('',#259,#258,#329,.T.);
#291=EDGE_CURVE('',#260,#260,#330,.T.);
#292=EDGE_CURVE('',#261,#262,#331,.T.);
#293=EDGE_CURVE('',#262,#261,#332,.T.);
#294=EDGE_CURVE('',#263,#264,#333,.T.);
#295=EDGE_CURVE('',#264,#263,#334,.T.);
#296=EDGE_CURVE('',#262,#263,#56,.T.);
#297=EDGE_CURVE('',#261,#264,#57,.T.);
#298=EDGE_CURVE('',#265,#265,#335,.T.);
#299=EDGE_CURVE('',#266,#266,#336,.T.);
#300=EDGE_CURVE('',#267,#267,#337,.T.);
#301=EDGE_CURVE('',#268,#268,#338,.T.);
#302=EDGE_CURVE('',#269,#270,#339,.T.);
#303=EDGE_CURVE('',#270,#269,#340,.T.);
#304=EDGE_CURVE('',#271,#270,#58,.T.);
#305=EDGE_CURVE('',#271,#272,#341,.T.);
#306=EDGE_CURVE('',#272,#269,#59,.T.);
#307=EDGE_CURVE('',#273,#273,#342,.T.);
#308=EDGE_CURVE('',#274,#274,#343,.T.);
#309=EDGE_CURVE('',#275,#275,#344,.T.);
#310=EDGE_CURVE('',#272,#271,#345,.T.);
#311=EDGE_CURVE('',#276,#277,#346,.T.);
#312=EDGE_CURVE('',#277,#276,#347,.T.);
#313=EDGE_CURVE('',#276,#278,#348,.T.);
#314=EDGE_CURVE('',#279,#278,#349,.T.);
#315=EDGE_CURVE('',#277,#279,#350,.T.);
#316=EDGE_CURVE('',#278,#279,#351,.T.);
#317=EDGE_CURVE('',#258,#278,#60,.T.);
#318=EDGE_CURVE('',#279,#259,#61,.T.);
#319=EDGE_CURVE('',#280,#281,#352,.T.);
#320=EDGE_CURVE('',#281,#280,#353,.T.);
#321=EDGE_CURVE('',#282,#282,#354,.T.);
#322=EDGE_CURVE('',#280,#283,#62,.T.);
#323=EDGE_CURVE('',#281,#284,#63,.T.);
#324=EDGE_CURVE('',#285,#257,#64,.T.);
#325=EDGE_CURVE('',#286,#256,#65,.T.);
#326=CIRCLE('',#380,31.45);
#327=CIRCLE('',#381,31.45);
#328=CIRCLE('',#382,25.);
#329=CIRCLE('',#383,25.);
#330=CIRCLE('',#385,31.5);
#331=CIRCLE('',#386,22.5166650635425);
#332=CIRCLE('',#387,22.5166650635425);
#333=CIRCLE('',#389,12.6875524222744);
#334=CIRCLE('',#390,12.6875524222744);
#335=CIRCLE('',#394,26.5);
#336=CIRCLE('',#395,26.5);
#337=CIRCLE('',#397,27.);
#338=CIRCLE('',#399,27.09407165491);
#339=CIRCLE('',#401,31.5);
#340=CIRCLE('',#402,31.5);
#341=CIRCLE('',#404,31.5);
#342=CIRCLE('',#406,27.);
#343=CIRCLE('',#408,31.5);
#344=CIRCLE('',#410,27.09407165491);
#345=CIRCLE('',#413,31.5);
#346=CIRCLE('',#415,25.8);
#347=CIRCLE('',#416,25.8);
#348=CIRCLE('',#418,0.8);
#349=CIRCLE('',#419,25.);
#350=CIRCLE('',#420,0.8);
#351=CIRCLE('',#422,25.);
#352=CIRCLE('',#426,24.7499999999942);
#353=CIRCLE('',#427,24.7499999999942);
#354=CIRCLE('',#429,31.45);
#355=INVISIBILITY((#356,#357,#358));
#356=PRESENTATION_LAYER_ASSIGNMENT('100','Layer 100',(#377));
#357=PRESENTATION_LAYER_ASSIGNMENT('101','Layer 101',(#378));
#358=PRESENTATION_LAYER_ASSIGNMENT('102','Layer 102',(#379));
#359=PRESENTATION_LAYER_ASSIGNMENT('98','Layer 98',(#38));
#360=STYLED_ITEM('',(#364),#377);
#361=STYLED_ITEM('',(#365),#378);
#362=STYLED_ITEM('',(#366),#379);
#363=STYLED_ITEM('',(#367),#38);
#364=PRESENTATION_STYLE_ASSIGNMENT((#368));
#365=PRESENTATION_STYLE_ASSIGNMENT((#369));
#366=PRESENTATION_STYLE_ASSIGNMENT((#370));
#367=PRESENTATION_STYLE_ASSIGNMENT((#33));
#368=CURVE_STYLE('',#373,POSITIVE_LENGTH_MEASURE(0.7),#371);
#369=CURVE_STYLE('',#374,POSITIVE_LENGTH_MEASURE(0.7),#371);
#370=CURVE_STYLE('',#375,POSITIVE_LENGTH_MEASURE(0.7),#371);
#371=COLOUR_RGB('Medium Maroon',0.6,0.4,0.4);
#372=COLOUR_RGB('Medium Gray',0.490196078431373,0.490196078431373,0.490196078431373);
#373=DRAUGHTING_PRE_DEFINED_CURVE_FONT('continuous');
#374=DRAUGHTING_PRE_DEFINED_CURVE_FONT('continuous');
#375=DRAUGHTING_PRE_DEFINED_CURVE_FONT('continuous');
#376=AXIS2_PLACEMENT_3D('',#554,#432,#433);
#377=AXIS2_PLACEMENT_3D('PCS',#555,#434,#435);
#378=AXIS2_PLACEMENT_3D('CSW',#556,#436,#437);
#379=AXIS2_PLACEMENT_3D('MCS',#557,#438,#439);
#380=AXIS2_PLACEMENT_3D('',#558,#440,#441);
#381=AXIS2_PLACEMENT_3D('',#561,#442,#443);
#382=AXIS2_PLACEMENT_3D('',#562,#444,#445);
#383=AXIS2_PLACEMENT_3D('',#565,#446,#447);
#384=AXIS2_PLACEMENT_3D('',#566,#448,#449);
#385=AXIS2_PLACEMENT_3D('',#567,#450,#451);
#386=AXIS2_PLACEMENT_3D('',#569,#452,#453);
#387=AXIS2_PLACEMENT_3D('',#572,#454,#455);
#388=AXIS2_PLACEMENT_3D('',#573,#456,#457);
#389=AXIS2_PLACEMENT_3D('',#574,#458,#459);
#390=AXIS2_PLACEMENT_3D('',#577,#460,#461);
#391=AXIS2_PLACEMENT_3D('',#578,#462,#463);
#392=AXIS2_PLACEMENT_3D('',#581,#466,#467);
#393=AXIS2_PLACEMENT_3D('',#582,#468,#469);
#394=AXIS2_PLACEMENT_3D('',#583,#470,#471);
#395=AXIS2_PLACEMENT_3D('',#585,#472,#473);
#396=AXIS2_PLACEMENT_3D('',#587,#474,#475);
#397=AXIS2_PLACEMENT_3D('',#588,#476,#477);
#398=AXIS2_PLACEMENT_3D('',#590,#478,#479);
#399=AXIS2_PLACEMENT_3D('',#591,#480,#481);
#400=AXIS2_PLACEMENT_3D('',#593,#482,#483);
#401=AXIS2_PLACEMENT_3D('',#594,#484,#485);
#402=AXIS2_PLACEMENT_3D('',#597,#486,#487);
#403=AXIS2_PLACEMENT_3D('',#598,#488,#489);
#404=AXIS2_PLACEMENT_3D('',#601,#491,#492);
#405=AXIS2_PLACEMENT_3D('',#604,#494,#495);
#406=AXIS2_PLACEMENT_3D('',#605,#496,#497);
#407=AXIS2_PLACEMENT_3D('',#607,#498,#499);
#408=AXIS2_PLACEMENT_3D('',#608,#500,#501);
#409=AXIS2_PLACEMENT_3D('',#610,#502,#503);
#410=AXIS2_PLACEMENT_3D('',#611,#504,#505);
#411=AXIS2_PLACEMENT_3D('',#613,#506,#507);
#412=AXIS2_PLACEMENT_3D('',#614,#508,#509);
#413=AXIS2_PLACEMENT_3D('',#615,#510,#511);
#414=AXIS2_PLACEMENT_3D('',#616,#512,#513);
#415=AXIS2_PLACEMENT_3D('',#617,#514,#515);
#416=AXIS2_PLACEMENT_3D('',#620,#516,#517);
#417=AXIS2_PLACEMENT_3D('',#621,#518,#519);
#418=AXIS2_PLACEMENT_3D('',#622,#520,#521);
#419=AXIS2_PLACEMENT_3D('',#624,#522,#523);
#420=AXIS2_PLACEMENT_3D('',#626,#524,#525);
#421=AXIS2_PLACEMENT_3D('',#627,#526,#527);
#422=AXIS2_PLACEMENT_3D('',#628,#528,#529);
#423=AXIS2_PLACEMENT_3D('',#629,#530,#531);
#424=AXIS2_PLACEMENT_3D('',#632,#534,#535);
#425=AXIS2_PLACEMENT_3D('',#633,#536,#537);
#426=AXIS2_PLACEMENT_3D('',#634,#538,#539);
#427=AXIS2_PLACEMENT_3D('',#637,#540,#541);
#428=AXIS2_PLACEMENT_3D('',#638,#542,#543);
#429=AXIS2_PLACEMENT_3D('',#639,#544,#545);
#430=AXIS2_PLACEMENT_3D('',#645,#548,#549);
#431=AXIS2_PLACEMENT_3D('',#650,#552,#553);
#432=DIRECTION('',(0.,0.,1.));
#433=DIRECTION('',(1.,0.,0.));
#434=DIRECTION('',(0.,0.,1.));
#435=DIRECTION('',(1.,0.,0.));
#436=DIRECTION('',(0.,0.,1.));
#437=DIRECTION('',(1.,0.,0.));
#438=DIRECTION('',(0.,0.,1.));
#439=DIRECTION('',(1.,0.,0.));
#440=DIRECTION('',(0.,0.,1.));
#441=DIRECTION('',(1.,0.,0.));
#442=DIRECTION('',(0.,0.,1.));
#443=DIRECTION('',(1.,0.,0.));
#444=DIRECTION('',(0.,0.,-1.));
#445=DIRECTION('',(1.,0.,0.));
#446=DIRECTION('',(0.,0.,-1.));
#447=DIRECTION('',(1.,0.,0.));
#448=DIRECTION('',(0.,0.,1.));
#449=DIRECTION('',(1.,0.,0.));
#450=DIRECTION('',(0.,0.,-1.));
#451=DIRECTION('',(-1.,0.,0.));
#452=DIRECTION('',(0.,0.,-1.));
#453=DIRECTION('',(-1.,0.,0.));
#454=DIRECTION('',(0.,0.,-1.));
#455=DIRECTION('',(-1.,0.,0.));
#456=DIRECTION('',(0.,0.,-1.));
#457=DIRECTION('',(0.,1.,0.));
#458=DIRECTION('',(0.,0.,1.));
#459=DIRECTION('',(-1.,0.,0.));
#460=DIRECTION('',(0.,0.,1.));
#461=DIRECTION('',(-1.,0.,0.));
#462=DIRECTION('',(0.,0.,-1.));
#463=DIRECTION('',(0.,1.,0.));
#464=DIRECTION('',(-1.44055658061997E-13,0.144306116415197,0.989533094325381));
#465=DIRECTION('',(1.44060548240597E-13,-0.144306116415197,0.989533094325381));
#466=DIRECTION('',(0.,0.,-1.));
#467=DIRECTION('',(0.,1.,-2.54870260628185E-16));
#468=DIRECTION('',(0.,0.,-1.));
#469=DIRECTION('',(0.,1.,-2.54870260628185E-16));
#470=DIRECTION('',(0.,0.,-1.));
#471=DIRECTION('',(0.952744251682231,-0.30377358490571,0.));
#472=DIRECTION('',(0.,0.,1.));
#473=DIRECTION('',(-0.960130820563129,-0.279551081923809,0.));
#474=DIRECTION('',(0.,0.,-1.));
#475=DIRECTION('',(0.,1.,0.));
#476=DIRECTION('',(0.,0.,1.));
#477=DIRECTION('',(-0.964044976154829,-0.265739127624508,0.));
#478=DIRECTION('',(0.,0.,-1.));
#479=DIRECTION('',(0.00438941531076905,-0.999990366470212,0.));
#480=DIRECTION('',(0.,0.,1.));
#481=DIRECTION('',(-0.964298831579577,-0.264816471191394,0.));
#482=DIRECTION('',(0.,0.,-1.));
#483=DIRECTION('',(0.,1.,0.));
#484=DIRECTION('',(0.,0.,1.));
#485=DIRECTION('',(0.,-1.,0.));
#486=DIRECTION('',(0.,0.,1.));
#487=DIRECTION('',(-0.986505988923997,-0.163725177712799,0.));
#488=DIRECTION('',(0.,0.,-1.));
#489=DIRECTION('',(0.,1.,-1.37201425506989E-17));
#490=DIRECTION('',(0.,0.,1.));
#491=DIRECTION('',(0.,0.,1.));
#492=DIRECTION('',(-1.,0.,0.));
#493=DIRECTION('',(0.,0.,1.));
#494=DIRECTION('',(0.,0.,-1.));
#495=DIRECTION('',(0.,1.,0.));
#496=DIRECTION('',(0.,0.,1.));
#497=DIRECTION('',(-0.954519607842528,-0.298148148148109,0.));
#498=DIRECTION('',(0.,0.,-1.));
#499=DIRECTION('',(0.00418746158650899,-0.999991232544297,0.));
#500=DIRECTION('',(0.,0.,-1.));
#501=DIRECTION('',(0.966794372151946,-0.255555555555586,0.));
#502=DIRECTION('',(0.,0.,-1.));
#503=DIRECTION('',(0.,1.,0.));
#504=DIRECTION('',(0.,0.,-1.));
#505=DIRECTION('',(0.954842335270237,-0.297112966354012,0.));
#506=DIRECTION('',(0.,0.,1.));
#507=DIRECTION('',(0.,-1.,9.80010182192779E-18));
#508=DIRECTION('',(0.,0.,-1.));
#509=DIRECTION('',(0.,1.,0.));
#510=DIRECTION('',(0.,0.,1.));
#511=DIRECTION('',(-1.,0.,0.));
#512=DIRECTION('',(0.,0.,-1.));
#513=DIRECTION('',(0.,1.,0.));
#514=DIRECTION('',(0.,0.,-1.));
#515=DIRECTION('',(0.,1.,0.));
#516=DIRECTION('',(0.,0.,-1.));
#517=DIRECTION('',(0.,-1.,0.));
#518=DIRECTION('',(0.,0.,-1.));
#519=DIRECTION('',(0.,1.,0.));
#520=DIRECTION('',(1.,0.,0.));
#521=DIRECTION('',(0.,-6.07153216591882E-14,0.999999999999998));
#522=DIRECTION('',(0.,0.,-1.));
#523=DIRECTION('',(0.,-1.,0.));
#524=DIRECTION('',(-1.,0.,0.));
#525=DIRECTION('',(0.,6.07153216591882E-14,0.999999999999998));
#526=DIRECTION('',(0.,0.,-1.));
#527=DIRECTION('',(-0.00443870767834778,0.999990148888551,0.));
#528=DIRECTION('',(0.,0.,-1.));
#529=DIRECTION('',(0.,1.,0.));
#530=DIRECTION('',(0.,0.,-1.));
#531=DIRECTION('',(0.00443870767834878,-0.999990148888551,0.));
#532=DIRECTION('',(5.608569778246E-14,0.,1.));
#533=DIRECTION('',(5.613478435561E-14,0.,-1.));
#534=DIRECTION('',(0.,0.,-1.));
#535=DIRECTION('',(0.,1.,0.));
#536=DIRECTION('',(0.,0.,-1.));
#537=DIRECTION('',(0.,1.,0.));
#538=DIRECTION('',(0.,0.,1.));
#539=DIRECTION('',(1.,0.,0.));
#540=DIRECTION('',(0.,0.,1.));
#541=DIRECTION('',(1.,0.,0.));
#542=DIRECTION('',(0.,0.,1.));
#543=DIRECTION('',(1.,0.,0.));
#544=DIRECTION('',(0.,0.,1.));
#545=DIRECTION('',(1.,0.,0.));
#546=DIRECTION('',(0.866025403784429,0.,0.500000000000017));
#547=DIRECTION('',(-0.866025403784429,0.,0.500000000000017));
#548=DIRECTION('',(0.,0.,1.));
#549=DIRECTION('',(1.,0.,-3.15425262352227E-17));
#550=DIRECTION('',(0.,1.716326526444E-14,1.));
#551=DIRECTION('',(0.,0.,1.));
#552=DIRECTION('',(0.,0.,1.));
#553=DIRECTION('',(1.,0.,0.));
#554=CARTESIAN_POINT('',(0.,0.,0.));
#555=CARTESIAN_POINT('',(0.,0.,0.));
#556=CARTESIAN_POINT('',(0.,0.,-85.));
#557=CARTESIAN_POINT('',(0.,0.,0.));
#558=CARTESIAN_POINT('',(0.,0.,-74.1));
#559=CARTESIAN_POINT('',(-31.45,0.,-74.1));
#560=CARTESIAN_POINT('',(31.45,3.8178044712202E-14,-74.1));
#561=CARTESIAN_POINT('',(0.,0.,-74.1));
#562=CARTESIAN_POINT('',(0.,0.,-74.1));
#563=CARTESIAN_POINT('',(2.24553180977164E-14,25.,-74.1));
#564=CARTESIAN_POINT('',(-2.43761427082566E-14,-25.,-74.1));
#565=CARTESIAN_POINT('',(0.,0.,-74.1));
#566=CARTESIAN_POINT('',(0.,0.,-74.1));
#567=CARTESIAN_POINT('',(0.,0.,-2.));
#568=CARTESIAN_POINT('',(-31.5,0.,-2.));
#569=CARTESIAN_POINT('',(0.,0.,-2.));
#570=CARTESIAN_POINT('',(0.,22.5166650635425,-2.));
#571=CARTESIAN_POINT('',(-6.13687901368789E-12,-22.5166650635425,-2.));
#572=CARTESIAN_POINT('',(0.,0.,-2.));
#573=CARTESIAN_POINT('',(0.,0.,-2.));
#574=CARTESIAN_POINT('',(0.,0.,65.4));
#575=CARTESIAN_POINT('',(-9.52089434025205E-12,-12.6875524222734,65.4));
#576=CARTESIAN_POINT('',(9.52121754084259E-12,12.6875524222734,65.4));
#577=CARTESIAN_POINT('',(0.,0.,65.4));
#578=CARTESIAN_POINT('',(0.,0.,65.4));
#579=CARTESIAN_POINT('',(0.,-22.225,0.));
#580=CARTESIAN_POINT('',(0.,22.225,0.));
#581=CARTESIAN_POINT('',(0.,0.,32.27215305821));
#582=CARTESIAN_POINT('',(0.,0.,32.27215305821));
#583=CARTESIAN_POINT('',(0.,0.,-14.6));
#584=CARTESIAN_POINT('',(25.2477226695791,-8.05000000000131,-14.6));
#585=CARTESIAN_POINT('',(0.,0.,-18.6));
#586=CARTESIAN_POINT('',(-25.4434667449229,-7.40810367098093,-18.6));
#587=CARTESIAN_POINT('',(0.,0.,70.02));
#588=CARTESIAN_POINT('',(0.,0.,-19.1));
#589=CARTESIAN_POINT('',(-26.0292143561804,-7.17495644586172,-19.1));
#590=CARTESIAN_POINT('',(0.,0.,-18.6));
#591=CARTESIAN_POINT('',(0.,0.,-19.1));
#592=CARTESIAN_POINT('',(-26.126781639563,-7.17495644586003,-19.1));
#593=CARTESIAN_POINT('',(0.,0.,-19.1));
#594=CARTESIAN_POINT('',(0.,0.,-21.630963692662));
#595=CARTESIAN_POINT('',(0.,-31.5,-21.630963692662));
#596=CARTESIAN_POINT('',(0.,31.5,-21.630963692662));
#597=CARTESIAN_POINT('',(0.,0.,-21.630963692662));
#598=CARTESIAN_POINT('',(0.,0.,-20.365481846331));
#599=CARTESIAN_POINT('',(-3.861860781882E-14,31.5,-26.));
#600=CARTESIAN_POINT('',(-3.861860781882E-14,31.5,-27.));
#601=CARTESIAN_POINT('',(0.,0.,-27.));
#602=CARTESIAN_POINT('',(3.76541984645E-14,-31.5,-27.));
#603=CARTESIAN_POINT('',(3.76541984645E-14,-31.5,-26.));
#604=CARTESIAN_POINT('',(0.,0.,70.02));
#605=CARTESIAN_POINT('',(0.,0.,-14.1));
#606=CARTESIAN_POINT('',(-25.7720294117483,-8.04999999999893,-14.1));
#607=CARTESIAN_POINT('',(0.,0.,-14.6));
#608=CARTESIAN_POINT('',(0.,0.,-11.56903630734));
#609=CARTESIAN_POINT('',(30.4540227227863,-8.05000000000095,-11.56903630734));
#610=CARTESIAN_POINT('',(0.,0.,70.02));
#611=CARTESIAN_POINT('',(0.,0.,-14.1));
#612=CARTESIAN_POINT('',(25.8705666509534,-8.04999999999845,-14.1));
#613=CARTESIAN_POINT('',(0.,0.,-12.83451815367));
#614=CARTESIAN_POINT('',(0.,0.,-14.1));
#615=CARTESIAN_POINT('',(0.,0.,-27.));
#616=CARTESIAN_POINT('',(0.,0.,70.02));
#617=CARTESIAN_POINT('',(0.,0.,-27.));
#618=CARTESIAN_POINT('',(0.,25.8,-27.));
#619=CARTESIAN_POINT('',(0.,-25.8,-27.));
#620=CARTESIAN_POINT('',(0.,0.,-27.));
#621=CARTESIAN_POINT('',(0.,0.,-27.));
#622=CARTESIAN_POINT('',(-1.619537837172E-14,25.8,-27.8));
#623=CARTESIAN_POINT('',(0.,25.,-27.8));
#624=CARTESIAN_POINT('',(0.,0.,-27.8));
#625=CARTESIAN_POINT('',(0.,-25.,-27.8));
#626=CARTESIAN_POINT('',(1.250388681484E-14,-25.8,-27.8));
#627=CARTESIAN_POINT('',(0.,0.,-27.8));
#628=CARTESIAN_POINT('',(0.,0.,-27.8));
#629=CARTESIAN_POINT('',(0.,0.,-27.8));
#630=CARTESIAN_POINT('',(0.,25.,-74.5003751221));
#631=CARTESIAN_POINT('',(-2.623416658373E-12,-25.,-27.8));
#632=CARTESIAN_POINT('',(0.,0.,-50.35));
#633=CARTESIAN_POINT('',(0.,0.,-50.35));
#634=CARTESIAN_POINT('',(0.,0.,-100.));
#635=CARTESIAN_POINT('',(24.7500000000042,0.,-100.));
#636=CARTESIAN_POINT('',(-24.7500000000042,0.,-100.));
#637=CARTESIAN_POINT('',(0.,0.,-100.));
#638=CARTESIAN_POINT('',(0.,0.,-100.));
#639=CARTESIAN_POINT('',(0.,0.,-96.1317531964261));
#640=CARTESIAN_POINT('',(31.45,0.,-96.1317531964261));
#641=CARTESIAN_POINT('',(25.21410161514,0.,-99.73205080757));
#642=CARTESIAN_POINT('',(28.29551270189,1.803635163934E-14,-97.95299728715));
#643=CARTESIAN_POINT('',(-25.21410161514,0.,-99.73205080757));
#644=CARTESIAN_POINT('',(-28.29551270189,-2.052554870943E-14,-97.95299728715));
#645=CARTESIAN_POINT('',(0.,0.,-98.22057713659));
#646=CARTESIAN_POINT('',(31.45,-3.562399592489E-14,-78.4));
#647=CARTESIAN_POINT('',(31.45,-1.145750161413E-13,-78.4));
#648=CARTESIAN_POINT('',(-31.45,0.,-85.1));
#649=CARTESIAN_POINT('',(-31.45,0.,-85.1));
#650=CARTESIAN_POINT('',(0.,0.,-108.12));
#651=MECHANICAL_DESIGN_GEOMETRIC_PRESENTATION_REPRESENTATION('',(#360,#361,
#362,#363),#652);
#652=(
GEOMETRIC_REPRESENTATION_CONTEXT(3)
GLOBAL_UNCERTAINTY_ASSIGNED_CONTEXT((#653))
GLOBAL_UNIT_ASSIGNED_CONTEXT((#659,#655,#654))
REPRESENTATION_CONTEXT('BT.40AD-CC.ER40','TOP_LEVEL_ASSEMBLY_PART')
);
#653=UNCERTAINTY_MEASURE_WITH_UNIT(LENGTH_MEASURE(2.E-5),#659,
'DISTANCE_ACCURACY_VALUE','Maximum Tolerance applied to model');
#654=(
NAMED_UNIT(*)
SI_UNIT($,.STERADIAN.)
SOLID_ANGLE_UNIT()
);
#655=(
CONVERSION_BASED_UNIT('DEGREE',#657)
NAMED_UNIT(#656)
PLANE_ANGLE_UNIT()
);
#656=DIMENSIONAL_EXPONENTS(0.,0.,0.,0.,0.,0.,0.);
#657=PLANE_ANGLE_MEASURE_WITH_UNIT(PLANE_ANGLE_MEASURE(0.0174532925),#658);
#658=(
NAMED_UNIT(*)
PLANE_ANGLE_UNIT()
SI_UNIT($,.RADIAN.)
);
#659=(
LENGTH_UNIT()
NAMED_UNIT(*)
SI_UNIT(.MILLI.,.METRE.)
);
ENDSEC;
END-ISO-10303-21;
