ISO-10303-21;
HEADER;
/* Generated by software containing ST-Developer
 * from STEP Tools, Inc. (www.steptools.com) 
 */
/* OPTION: using custom schema-name function */

FILE_DESCRIPTION(
/* description */ (''),
/* implementation_level */ '2;1');

FILE_NAME(
/* name */ 'BT.40AD-CC.ER25.100.stp',
/* time_stamp */ '2024-07-08T05:26:23+02:00',
/* author */ (''),
/* organization */ (''),
/* preprocessor_version */ 'ST-DEVELOPER v16.7',
/* originating_system */ 'SIEMENS PLM Software NX 12.0',
/* authorisation */ '');

FILE_SCHEMA (('AUTOMOTIVE_DESIGN { 1 0 10303 214 3 1 1 1 }'));
ENDSEC;

DATA;
#10=CONSTRUCTIVE_GEOMETRY_REPRESENTATION_RELATIONSHIP(
'supplemental geometry','',#32,#11);
#11=CONSTRUCTIVE_GEOMETRY_REPRESENTATION('supplemental geometry',(#377,
#378,#379),#652);
#12=PROPERTY_DEFINITION_REPRESENTATION(#16,#14);
#13=PROPERTY_DEFINITION_REPRESENTATION(#17,#15);
#14=REPRESENTATION('',(#18),#652);
#15=REPRESENTATION('',(#19),#652);
#16=PROPERTY_DEFINITION('pmi validation property','',#23);
#17=PROPERTY_DEFINITION('pmi validation property','',#23);
#18=VALUE_REPRESENTATION_ITEM('number of annotations',COUNT_MEASURE(0.));
#19=VALUE_REPRESENTATION_ITEM('number of views',COUNT_MEASURE(0.));
#20=SHAPE_REPRESENTATION_RELATIONSHIP('None',
'relationship between pf664004CBF9ab97-None and pf664004CBF9ab97-None',
#32,#21);
#21=ADVANCED_BREP_SHAPE_REPRESENTATION('pf664004CBF9ab97-None',(#38),#652);
#22=SHAPE_DEFINITION_REPRESENTATION(#23,#32);
#23=PRODUCT_DEFINITION_SHAPE('','',#24);
#24=PRODUCT_DEFINITION(' ','',#26,#25);
#25=PRODUCT_DEFINITION_CONTEXT('part definition',#31,'design');
#26=PRODUCT_DEFINITION_FORMATION_WITH_SPECIFIED_SOURCE(' ',' ',#28,
 .NOT_KNOWN.);
#27=PRODUCT_RELATED_PRODUCT_CATEGORY('part','',(#28));
#28=PRODUCT('pf664004CBF9ab97','pf664004CBF9ab97',' ',(#29));
#29=PRODUCT_CONTEXT(' ',#31,'mechanical');
#30=APPLICATION_PROTOCOL_DEFINITION('international standard',
'automotive_design',2010,#31);
#31=APPLICATION_CONTEXT(
'core data for automotive mechanical design processes');
#32=SHAPE_REPRESENTATION('pf664004CBF9ab97-None',(#376),#652);
#33=SURFACE_STYLE_USAGE(.BOTH.,#34);
#34=SURFACE_SIDE_STYLE('',(#35));
#35=SURFACE_STYLE_FILL_AREA(#36);
#36=FILL_AREA_STYLE('',(#37));
#37=FILL_AREA_STYLE_COLOUR('',#372);
#38=MANIFOLD_SOLID_BREP('',#39);
#39=CLOSED_SHELL('',(#86,#87,#88,#89,#90,#91,#92,#93,#94,#95,#96,#97,#98,
#99,#100,#101,#102,#103,#104,#105,#106,#107,#108));
#40=CONICAL_SURFACE('',#405,29.29703582746,60.125);
#41=CONICAL_SURFACE('',#417,29.29703582746,60.125);
#42=CONICAL_SURFACE('',#420,17.51867021387,8.2971);
#43=CONICAL_SURFACE('',#423,17.51867021387,8.2971);
#44=CONICAL_SURFACE('',#430,17.83205080757,60.);
#45=TOROIDAL_SURFACE('',#396,19.,3.);
#46=TOROIDAL_SURFACE('',#410,27.,0.5);
#47=TOROIDAL_SURFACE('',#413,27.,0.5);
#48=TOROIDAL_SURFACE('',#425,19.,3.);
#49=CYLINDRICAL_SURFACE('',#390,16.);
#50=CYLINDRICAL_SURFACE('',#392,16.);
#51=CYLINDRICAL_SURFACE('',#402,31.5);
#52=CYLINDRICAL_SURFACE('',#408,26.5);
#53=CYLINDRICAL_SURFACE('',#415,31.5);
#54=CYLINDRICAL_SURFACE('',#424,31.5);
#55=CYLINDRICAL_SURFACE('',#431,20.95);
#56=FACE_OUTER_BOUND('',#146,.T.);
#57=FACE_OUTER_BOUND('',#147,.T.);
#58=FACE_OUTER_BOUND('',#148,.T.);
#59=FACE_OUTER_BOUND('',#151,.T.);
#60=FACE_OUTER_BOUND('',#168,.T.);
#61=FACE_OUTER_BOUND('',#169,.T.);
#62=FACE_OUTER_BOUND('',#170,.T.);
#63=FACE_OUTER_BOUND('',#171,.T.);
#64=FACE_OUTER_BOUND('',#172,.T.);
#65=FACE_OUTER_BOUND('',#173,.T.);
#66=LINE('',#574,#76);
#67=LINE('',#578,#77);
#68=LINE('',#594,#78);
#69=LINE('',#596,#79);
#70=LINE('',#623,#80);
#71=LINE('',#625,#81);
#72=LINE('',#641,#82);
#73=LINE('',#643,#83);
#74=LINE('',#646,#84);
#75=LINE('',#648,#85);
#76=VECTOR('',#458,1.);
#77=VECTOR('',#461,1.);
#78=VECTOR('',#484,1.);
#79=VECTOR('',#485,1.);
#80=VECTOR('',#522,1.);
#81=VECTOR('',#523,1.);
#82=VECTOR('',#546,1.);
#83=VECTOR('',#547,1.);
#84=VECTOR('',#550,1.);
#85=VECTOR('',#551,1.);
#86=ADVANCED_FACE('',(#116,#117),#109,.T.);
#87=ADVANCED_FACE('',(#118,#119),#110,.F.);
#88=ADVANCED_FACE('',(#56),#49,.T.);
#89=ADVANCED_FACE('',(#57),#50,.T.);
#90=ADVANCED_FACE('',(#58),#45,.F.);
#91=ADVANCED_FACE('',(#120,#121),#111,.T.);
#92=ADVANCED_FACE('',(#59),#51,.T.);
#93=ADVANCED_FACE('',(#122,#123),#40,.T.);
#94=ADVANCED_FACE('',(#124,#125),#52,.T.);
#95=ADVANCED_FACE('',(#126,#127),#46,.F.);
#96=ADVANCED_FACE('',(#128,#129),#112,.F.);
#97=ADVANCED_FACE('',(#130,#131),#47,.F.);
#98=ADVANCED_FACE('',(#132,#133),#53,.T.);
#99=ADVANCED_FACE('',(#134,#135),#41,.T.);
#100=ADVANCED_FACE('',(#136,#137),#113,.T.);
#101=ADVANCED_FACE('',(#60),#42,.T.);
#102=ADVANCED_FACE('',(#61),#114,.F.);
#103=ADVANCED_FACE('',(#62),#43,.T.);
#104=ADVANCED_FACE('',(#63),#54,.T.);
#105=ADVANCED_FACE('',(#64),#48,.F.);
#106=ADVANCED_FACE('',(#65),#115,.F.);
#107=ADVANCED_FACE('',(#138,#139),#44,.T.);
#108=ADVANCED_FACE('',(#140,#141),#55,.T.);
#109=PLANE('',#384);
#110=PLANE('',#388);
#111=PLANE('',#400);
#112=PLANE('',#411);
#113=PLANE('',#418);
#114=PLANE('',#422);
#115=PLANE('',#428);
#116=FACE_BOUND('',#142,.T.);
#117=FACE_BOUND('',#143,.T.);
#118=FACE_BOUND('',#144,.T.);
#119=FACE_BOUND('',#145,.T.);
#120=FACE_BOUND('',#149,.T.);
#121=FACE_BOUND('',#150,.T.);
#122=FACE_BOUND('',#152,.T.);
#123=FACE_BOUND('',#153,.T.);
#124=FACE_BOUND('',#154,.T.);
#125=FACE_BOUND('',#155,.T.);
#126=FACE_BOUND('',#156,.T.);
#127=FACE_BOUND('',#157,.T.);
#128=FACE_BOUND('',#158,.T.);
#129=FACE_BOUND('',#159,.T.);
#130=FACE_BOUND('',#160,.T.);
#131=FACE_BOUND('',#161,.T.);
#132=FACE_BOUND('',#162,.T.);
#133=FACE_BOUND('',#163,.T.);
#134=FACE_BOUND('',#164,.T.);
#135=FACE_BOUND('',#165,.T.);
#136=FACE_BOUND('',#166,.T.);
#137=FACE_BOUND('',#167,.T.);
#138=FACE_BOUND('',#174,.T.);
#139=FACE_BOUND('',#175,.T.);
#140=FACE_BOUND('',#176,.T.);
#141=FACE_BOUND('',#177,.T.);
#142=EDGE_LOOP('',(#178,#179));
#143=EDGE_LOOP('',(#180,#181));
#144=EDGE_LOOP('',(#182));
#145=EDGE_LOOP('',(#183,#184));
#146=EDGE_LOOP('',(#185,#186,#187,#188));
#147=EDGE_LOOP('',(#189,#190,#191,#192));
#148=EDGE_LOOP('',(#193,#194,#195,#196));
#149=EDGE_LOOP('',(#197,#198));
#150=EDGE_LOOP('',(#199,#200));
#151=EDGE_LOOP('',(#201,#202,#203,#204));
#152=EDGE_LOOP('',(#205));
#153=EDGE_LOOP('',(#206,#207));
#154=EDGE_LOOP('',(#208));
#155=EDGE_LOOP('',(#209));
#156=EDGE_LOOP('',(#210));
#157=EDGE_LOOP('',(#211));
#158=EDGE_LOOP('',(#212));
#159=EDGE_LOOP('',(#213));
#160=EDGE_LOOP('',(#214));
#161=EDGE_LOOP('',(#215));
#162=EDGE_LOOP('',(#216));
#163=EDGE_LOOP('',(#217));
#164=EDGE_LOOP('',(#218));
#165=EDGE_LOOP('',(#219));
#166=EDGE_LOOP('',(#220));
#167=EDGE_LOOP('',(#221));
#168=EDGE_LOOP('',(#222,#223,#224,#225));
#169=EDGE_LOOP('',(#226,#227));
#170=EDGE_LOOP('',(#228,#229,#230,#231));
#171=EDGE_LOOP('',(#232,#233,#234,#235));
#172=EDGE_LOOP('',(#236,#237,#238,#239));
#173=EDGE_LOOP('',(#240,#241));
#174=EDGE_LOOP('',(#242));
#175=EDGE_LOOP('',(#243,#244,#245,#246,#247,#248));
#176=EDGE_LOOP('',(#249));
#177=EDGE_LOOP('',(#250,#251,#252,#253,#254,#255));
#178=ORIENTED_EDGE('',*,*,#287,.T.);
#179=ORIENTED_EDGE('',*,*,#288,.T.);
#180=ORIENTED_EDGE('',*,*,#289,.T.);
#181=ORIENTED_EDGE('',*,*,#290,.T.);
#182=ORIENTED_EDGE('',*,*,#291,.F.);
#183=ORIENTED_EDGE('',*,*,#292,.T.);
#184=ORIENTED_EDGE('',*,*,#293,.T.);
#185=ORIENTED_EDGE('',*,*,#289,.F.);
#186=ORIENTED_EDGE('',*,*,#294,.T.);
#187=ORIENTED_EDGE('',*,*,#295,.T.);
#188=ORIENTED_EDGE('',*,*,#296,.T.);
#189=ORIENTED_EDGE('',*,*,#290,.F.);
#190=ORIENTED_EDGE('',*,*,#296,.F.);
#191=ORIENTED_EDGE('',*,*,#297,.T.);
#192=ORIENTED_EDGE('',*,*,#294,.F.);
#193=ORIENTED_EDGE('',*,*,#298,.T.);
#194=ORIENTED_EDGE('',*,*,#297,.F.);
#195=ORIENTED_EDGE('',*,*,#299,.F.);
#196=ORIENTED_EDGE('',*,*,#300,.T.);
#197=ORIENTED_EDGE('',*,*,#301,.F.);
#198=ORIENTED_EDGE('',*,*,#302,.F.);
#199=ORIENTED_EDGE('',*,*,#303,.F.);
#200=ORIENTED_EDGE('',*,*,#300,.F.);
#201=ORIENTED_EDGE('',*,*,#304,.F.);
#202=ORIENTED_EDGE('',*,*,#302,.T.);
#203=ORIENTED_EDGE('',*,*,#305,.T.);
#204=ORIENTED_EDGE('',*,*,#306,.F.);
#205=ORIENTED_EDGE('',*,*,#307,.F.);
#206=ORIENTED_EDGE('',*,*,#308,.T.);
#207=ORIENTED_EDGE('',*,*,#306,.T.);
#208=ORIENTED_EDGE('',*,*,#309,.T.);
#209=ORIENTED_EDGE('',*,*,#310,.T.);
#210=ORIENTED_EDGE('',*,*,#310,.F.);
#211=ORIENTED_EDGE('',*,*,#311,.T.);
#212=ORIENTED_EDGE('',*,*,#311,.F.);
#213=ORIENTED_EDGE('',*,*,#307,.T.);
#214=ORIENTED_EDGE('',*,*,#312,.F.);
#215=ORIENTED_EDGE('',*,*,#309,.F.);
#216=ORIENTED_EDGE('',*,*,#291,.T.);
#217=ORIENTED_EDGE('',*,*,#313,.F.);
#218=ORIENTED_EDGE('',*,*,#313,.T.);
#219=ORIENTED_EDGE('',*,*,#314,.F.);
#220=ORIENTED_EDGE('',*,*,#314,.T.);
#221=ORIENTED_EDGE('',*,*,#312,.T.);
#222=ORIENTED_EDGE('',*,*,#315,.F.);
#223=ORIENTED_EDGE('',*,*,#293,.F.);
#224=ORIENTED_EDGE('',*,*,#316,.T.);
#225=ORIENTED_EDGE('',*,*,#317,.F.);
#226=ORIENTED_EDGE('',*,*,#318,.T.);
#227=ORIENTED_EDGE('',*,*,#317,.T.);
#228=ORIENTED_EDGE('',*,*,#316,.F.);
#229=ORIENTED_EDGE('',*,*,#292,.F.);
#230=ORIENTED_EDGE('',*,*,#315,.T.);
#231=ORIENTED_EDGE('',*,*,#318,.F.);
#232=ORIENTED_EDGE('',*,*,#305,.F.);
#233=ORIENTED_EDGE('',*,*,#301,.T.);
#234=ORIENTED_EDGE('',*,*,#304,.T.);
#235=ORIENTED_EDGE('',*,*,#308,.F.);
#236=ORIENTED_EDGE('',*,*,#299,.T.);
#237=ORIENTED_EDGE('',*,*,#295,.F.);
#238=ORIENTED_EDGE('',*,*,#298,.F.);
#239=ORIENTED_EDGE('',*,*,#303,.T.);
#240=ORIENTED_EDGE('',*,*,#319,.T.);
#241=ORIENTED_EDGE('',*,*,#320,.T.);
#242=ORIENTED_EDGE('',*,*,#321,.F.);
#243=ORIENTED_EDGE('',*,*,#322,.T.);
#244=ORIENTED_EDGE('',*,*,#322,.F.);
#245=ORIENTED_EDGE('',*,*,#319,.F.);
#246=ORIENTED_EDGE('',*,*,#323,.T.);
#247=ORIENTED_EDGE('',*,*,#323,.F.);
#248=ORIENTED_EDGE('',*,*,#320,.F.);
#249=ORIENTED_EDGE('',*,*,#321,.T.);
#250=ORIENTED_EDGE('',*,*,#324,.T.);
#251=ORIENTED_EDGE('',*,*,#324,.F.);
#252=ORIENTED_EDGE('',*,*,#287,.F.);
#253=ORIENTED_EDGE('',*,*,#325,.T.);
#254=ORIENTED_EDGE('',*,*,#325,.F.);
#255=ORIENTED_EDGE('',*,*,#288,.F.);
#256=VERTEX_POINT('',#559);
#257=VERTEX_POINT('',#560);
#258=VERTEX_POINT('',#563);
#259=VERTEX_POINT('',#564);
#260=VERTEX_POINT('',#568);
#261=VERTEX_POINT('',#570);
#262=VERTEX_POINT('',#571);
#263=VERTEX_POINT('',#575);
#264=VERTEX_POINT('',#577);
#265=VERTEX_POINT('',#583);
#266=VERTEX_POINT('',#585);
#267=VERTEX_POINT('',#589);
#268=VERTEX_POINT('',#590);
#269=VERTEX_POINT('',#595);
#270=VERTEX_POINT('',#597);
#271=VERTEX_POINT('',#601);
#272=VERTEX_POINT('',#605);
#273=VERTEX_POINT('',#607);
#274=VERTEX_POINT('',#610);
#275=VERTEX_POINT('',#614);
#276=VERTEX_POINT('',#617);
#277=VERTEX_POINT('',#620);
#278=VERTEX_POINT('',#624);
#279=VERTEX_POINT('',#626);
#280=VERTEX_POINT('',#635);
#281=VERTEX_POINT('',#636);
#282=VERTEX_POINT('',#640);
#283=VERTEX_POINT('',#642);
#284=VERTEX_POINT('',#644);
#285=VERTEX_POINT('',#647);
#286=VERTEX_POINT('',#649);
#287=EDGE_CURVE('',#256,#257,#326,.T.);
#288=EDGE_CURVE('',#257,#256,#327,.T.);
#289=EDGE_CURVE('',#258,#259,#328,.T.);
#290=EDGE_CURVE('',#259,#258,#329,.T.);
#291=EDGE_CURVE('',#260,#260,#330,.T.);
#292=EDGE_CURVE('',#261,#262,#331,.T.);
#293=EDGE_CURVE('',#262,#261,#332,.T.);
#294=EDGE_CURVE('',#258,#263,#66,.T.);
#295=EDGE_CURVE('',#263,#264,#333,.T.);
#296=EDGE_CURVE('',#264,#259,#67,.T.);
#297=EDGE_CURVE('',#264,#263,#334,.T.);
#298=EDGE_CURVE('',#265,#263,#335,.T.);
#299=EDGE_CURVE('',#266,#264,#336,.T.);
#300=EDGE_CURVE('',#266,#265,#337,.T.);
#301=EDGE_CURVE('',#267,#268,#338,.T.);
#302=EDGE_CURVE('',#268,#267,#339,.T.);
#303=EDGE_CURVE('',#265,#266,#340,.T.);
#304=EDGE_CURVE('',#268,#269,#68,.T.);
#305=EDGE_CURVE('',#267,#270,#69,.T.);
#306=EDGE_CURVE('',#269,#270,#341,.T.);
#307=EDGE_CURVE('',#271,#271,#342,.T.);
#308=EDGE_CURVE('',#270,#269,#343,.T.);
#309=EDGE_CURVE('',#272,#272,#344,.T.);
#310=EDGE_CURVE('',#273,#273,#345,.T.);
#311=EDGE_CURVE('',#274,#274,#346,.T.);
#312=EDGE_CURVE('',#275,#275,#347,.T.);
#313=EDGE_CURVE('',#276,#276,#348,.T.);
#314=EDGE_CURVE('',#277,#277,#349,.T.);
#315=EDGE_CURVE('',#261,#278,#70,.T.);
#316=EDGE_CURVE('',#262,#279,#71,.T.);
#317=EDGE_CURVE('',#278,#279,#350,.T.);
#318=EDGE_CURVE('',#279,#278,#351,.T.);
#319=EDGE_CURVE('',#280,#281,#352,.T.);
#320=EDGE_CURVE('',#281,#280,#353,.T.);
#321=EDGE_CURVE('',#282,#282,#354,.T.);
#322=EDGE_CURVE('',#281,#283,#72,.T.);
#323=EDGE_CURVE('',#280,#284,#73,.T.);
#324=EDGE_CURVE('',#257,#285,#74,.T.);
#325=EDGE_CURVE('',#256,#286,#75,.T.);
#326=CIRCLE('',#380,20.95);
#327=CIRCLE('',#381,20.95);
#328=CIRCLE('',#382,16.);
#329=CIRCLE('',#383,16.);
#330=CIRCLE('',#385,31.5);
#331=CIRCLE('',#386,22.5166650635425);
#332=CIRCLE('',#387,22.5166650635425);
#333=CIRCLE('',#389,16.);
#334=CIRCLE('',#391,16.);
#335=CIRCLE('',#393,3.);
#336=CIRCLE('',#394,3.);
#337=CIRCLE('',#395,19.);
#338=CIRCLE('',#397,31.5);
#339=CIRCLE('',#398,31.5);
#340=CIRCLE('',#399,19.);
#341=CIRCLE('',#401,31.5);
#342=CIRCLE('',#403,27.09407165491);
#343=CIRCLE('',#404,31.5);
#344=CIRCLE('',#406,26.5);
#345=CIRCLE('',#407,26.5);
#346=CIRCLE('',#409,27.);
#347=CIRCLE('',#412,27.);
#348=CIRCLE('',#414,31.5);
#349=CIRCLE('',#416,27.09407165491);
#350=CIRCLE('',#419,12.6875524222744);
#351=CIRCLE('',#421,12.6875524222744);
#352=CIRCLE('',#426,15.2500000000032);
#353=CIRCLE('',#427,15.2500000000032);
#354=CIRCLE('',#429,20.95);
#355=INVISIBILITY((#356,#357,#358));
#356=PRESENTATION_LAYER_ASSIGNMENT('100','Layer 100',(#377));
#357=PRESENTATION_LAYER_ASSIGNMENT('101','Layer 101',(#378));
#358=PRESENTATION_LAYER_ASSIGNMENT('102','Layer 102',(#379));
#359=PRESENTATION_LAYER_ASSIGNMENT('98','Layer 98',(#38));
#360=STYLED_ITEM('',(#364),#377);
#361=STYLED_ITEM('',(#365),#378);
#362=STYLED_ITEM('',(#366),#379);
#363=STYLED_ITEM('',(#367),#38);
#364=PRESENTATION_STYLE_ASSIGNMENT((#368));
#365=PRESENTATION_STYLE_ASSIGNMENT((#369));
#366=PRESENTATION_STYLE_ASSIGNMENT((#370));
#367=PRESENTATION_STYLE_ASSIGNMENT((#33));
#368=CURVE_STYLE('',#373,POSITIVE_LENGTH_MEASURE(0.7),#371);
#369=CURVE_STYLE('',#374,POSITIVE_LENGTH_MEASURE(0.7),#371);
#370=CURVE_STYLE('',#375,POSITIVE_LENGTH_MEASURE(0.7),#371);
#371=COLOUR_RGB('Medium Maroon',0.6,0.4,0.4);
#372=COLOUR_RGB('Medium Gray',0.490196078431373,0.490196078431373,0.490196078431373);
#373=DRAUGHTING_PRE_DEFINED_CURVE_FONT('continuous');
#374=DRAUGHTING_PRE_DEFINED_CURVE_FONT('continuous');
#375=DRAUGHTING_PRE_DEFINED_CURVE_FONT('continuous');
#376=AXIS2_PLACEMENT_3D('',#554,#432,#433);
#377=AXIS2_PLACEMENT_3D('PCS',#555,#434,#435);
#378=AXIS2_PLACEMENT_3D('CSW',#556,#436,#437);
#379=AXIS2_PLACEMENT_3D('MCS',#557,#438,#439);
#380=AXIS2_PLACEMENT_3D('',#558,#440,#441);
#381=AXIS2_PLACEMENT_3D('',#561,#442,#443);
#382=AXIS2_PLACEMENT_3D('',#562,#444,#445);
#383=AXIS2_PLACEMENT_3D('',#565,#446,#447);
#384=AXIS2_PLACEMENT_3D('',#566,#448,#449);
#385=AXIS2_PLACEMENT_3D('',#567,#450,#451);
#386=AXIS2_PLACEMENT_3D('',#569,#452,#453);
#387=AXIS2_PLACEMENT_3D('',#572,#454,#455);
#388=AXIS2_PLACEMENT_3D('',#573,#456,#457);
#389=AXIS2_PLACEMENT_3D('',#576,#459,#460);
#390=AXIS2_PLACEMENT_3D('',#579,#462,#463);
#391=AXIS2_PLACEMENT_3D('',#580,#464,#465);
#392=AXIS2_PLACEMENT_3D('',#581,#466,#467);
#393=AXIS2_PLACEMENT_3D('',#582,#468,#469);
#394=AXIS2_PLACEMENT_3D('',#584,#470,#471);
#395=AXIS2_PLACEMENT_3D('',#586,#472,#473);
#396=AXIS2_PLACEMENT_3D('',#587,#474,#475);
#397=AXIS2_PLACEMENT_3D('',#588,#476,#477);
#398=AXIS2_PLACEMENT_3D('',#591,#478,#479);
#399=AXIS2_PLACEMENT_3D('',#592,#480,#481);
#400=AXIS2_PLACEMENT_3D('',#593,#482,#483);
#401=AXIS2_PLACEMENT_3D('',#598,#486,#487);
#402=AXIS2_PLACEMENT_3D('',#599,#488,#489);
#403=AXIS2_PLACEMENT_3D('',#600,#490,#491);
#404=AXIS2_PLACEMENT_3D('',#602,#492,#493);
#405=AXIS2_PLACEMENT_3D('',#603,#494,#495);
#406=AXIS2_PLACEMENT_3D('',#604,#496,#497);
#407=AXIS2_PLACEMENT_3D('',#606,#498,#499);
#408=AXIS2_PLACEMENT_3D('',#608,#500,#501);
#409=AXIS2_PLACEMENT_3D('',#609,#502,#503);
#410=AXIS2_PLACEMENT_3D('',#611,#504,#505);
#411=AXIS2_PLACEMENT_3D('',#612,#506,#507);
#412=AXIS2_PLACEMENT_3D('',#613,#508,#509);
#413=AXIS2_PLACEMENT_3D('',#615,#510,#511);
#414=AXIS2_PLACEMENT_3D('',#616,#512,#513);
#415=AXIS2_PLACEMENT_3D('',#618,#514,#515);
#416=AXIS2_PLACEMENT_3D('',#619,#516,#517);
#417=AXIS2_PLACEMENT_3D('',#621,#518,#519);
#418=AXIS2_PLACEMENT_3D('',#622,#520,#521);
#419=AXIS2_PLACEMENT_3D('',#627,#524,#525);
#420=AXIS2_PLACEMENT_3D('',#628,#526,#527);
#421=AXIS2_PLACEMENT_3D('',#629,#528,#529);
#422=AXIS2_PLACEMENT_3D('',#630,#530,#531);
#423=AXIS2_PLACEMENT_3D('',#631,#532,#533);
#424=AXIS2_PLACEMENT_3D('',#632,#534,#535);
#425=AXIS2_PLACEMENT_3D('',#633,#536,#537);
#426=AXIS2_PLACEMENT_3D('',#634,#538,#539);
#427=AXIS2_PLACEMENT_3D('',#637,#540,#541);
#428=AXIS2_PLACEMENT_3D('',#638,#542,#543);
#429=AXIS2_PLACEMENT_3D('',#639,#544,#545);
#430=AXIS2_PLACEMENT_3D('',#645,#548,#549);
#431=AXIS2_PLACEMENT_3D('',#650,#552,#553);
#432=DIRECTION('',(0.,0.,1.));
#433=DIRECTION('',(1.,0.,0.));
#434=DIRECTION('',(0.,0.,1.));
#435=DIRECTION('',(1.,0.,0.));
#436=DIRECTION('',(0.,0.,1.));
#437=DIRECTION('',(1.,0.,0.));
#438=DIRECTION('',(0.,0.,1.));
#439=DIRECTION('',(1.,0.,0.));
#440=DIRECTION('',(0.,0.,1.));
#441=DIRECTION('',(1.,0.,0.));
#442=DIRECTION('',(0.,0.,1.));
#443=DIRECTION('',(1.,0.,0.));
#444=DIRECTION('',(0.,0.,-1.));
#445=DIRECTION('',(1.,0.,0.));
#446=DIRECTION('',(0.,0.,-1.));
#447=DIRECTION('',(1.,0.,0.));
#448=DIRECTION('',(0.,0.,1.));
#449=DIRECTION('',(1.,0.,0.));
#450=DIRECTION('',(0.,0.,-1.));
#451=DIRECTION('',(-1.,0.,0.));
#452=DIRECTION('',(0.,0.,-1.));
#453=DIRECTION('',(-1.,0.,0.));
#454=DIRECTION('',(0.,0.,-1.));
#455=DIRECTION('',(-1.,0.,0.));
#456=DIRECTION('',(0.,0.,-1.));
#457=DIRECTION('',(0.,1.,0.));
#458=DIRECTION('',(1.263548991114E-13,0.,1.));
#459=DIRECTION('',(0.,0.,-1.));
#460=DIRECTION('',(0.,1.,0.));
#461=DIRECTION('',(1.263453709625E-13,0.,-1.));
#462=DIRECTION('',(0.,0.,-1.));
#463=DIRECTION('',(0.,1.,0.));
#464=DIRECTION('',(0.,0.,-1.));
#465=DIRECTION('',(0.,-1.,0.));
#466=DIRECTION('',(0.,0.,-1.));
#467=DIRECTION('',(0.,1.,0.));
#468=DIRECTION('',(1.,8.249130545313E-14,0.));
#469=DIRECTION('',(6.37662565053651E-27,-7.74843152602974E-14,1.));
#470=DIRECTION('',(-1.,-8.236900744807E-14,0.));
#471=DIRECTION('',(-6.44236405930493E-27,7.86407975776153E-14,1.));
#472=DIRECTION('',(0.,0.,-1.));
#473=DIRECTION('',(0.,-1.,0.));
#474=DIRECTION('',(0.,0.,-1.));
#475=DIRECTION('',(-0.0069354479206897,0.999975949491856,0.));
#476=DIRECTION('',(0.,0.,1.));
#477=DIRECTION('',(-1.,0.,0.));
#478=DIRECTION('',(0.,0.,1.));
#479=DIRECTION('',(-1.,0.,0.));
#480=DIRECTION('',(0.,0.,-1.));
#481=DIRECTION('',(0.,1.,0.));
#482=DIRECTION('',(0.,0.,-1.));
#483=DIRECTION('',(0.,1.,0.));
#484=DIRECTION('',(0.,0.,1.));
#485=DIRECTION('',(0.,0.,1.));
#486=DIRECTION('',(0.,0.,1.));
#487=DIRECTION('',(0.,1.,0.));
#488=DIRECTION('',(0.,0.,-1.));
#489=DIRECTION('',(0.,1.,0.));
#490=DIRECTION('',(0.,0.,1.));
#491=DIRECTION('',(-0.964298831579577,-0.264816471191394,0.));
#492=DIRECTION('',(0.,0.,1.));
#493=DIRECTION('',(0.,-1.,0.));
#494=DIRECTION('',(0.,0.,-1.));
#495=DIRECTION('',(0.,1.,-1.37201425506989E-17));
#496=DIRECTION('',(0.,0.,-1.));
#497=DIRECTION('',(0.952744251682231,-0.30377358490571,0.));
#498=DIRECTION('',(0.,0.,1.));
#499=DIRECTION('',(-0.960130820563129,-0.279551081923809,0.));
#500=DIRECTION('',(0.,0.,-1.));
#501=DIRECTION('',(0.,1.,0.));
#502=DIRECTION('',(0.,0.,1.));
#503=DIRECTION('',(-0.964044976154829,-0.265739127624508,0.));
#504=DIRECTION('',(0.,0.,-1.));
#505=DIRECTION('',(0.00438941531076905,-0.999990366470212,0.));
#506=DIRECTION('',(0.,0.,-1.));
#507=DIRECTION('',(0.,1.,0.));
#508=DIRECTION('',(0.,0.,1.));
#509=DIRECTION('',(-0.954519607842528,-0.298148148148109,0.));
#510=DIRECTION('',(0.,0.,-1.));
#511=DIRECTION('',(0.00418746158650899,-0.999991232544297,0.));
#512=DIRECTION('',(0.,0.,-1.));
#513=DIRECTION('',(0.966794372151946,-0.255555555555586,0.));
#514=DIRECTION('',(0.,0.,-1.));
#515=DIRECTION('',(0.,1.,0.));
#516=DIRECTION('',(0.,0.,-1.));
#517=DIRECTION('',(0.954842335270237,-0.297112966354012,0.));
#518=DIRECTION('',(0.,0.,1.));
#519=DIRECTION('',(0.,-1.,9.80010182192779E-18));
#520=DIRECTION('',(0.,0.,-1.));
#521=DIRECTION('',(0.,1.,0.));
#522=DIRECTION('',(1.44060548240597E-13,-0.144306116415197,0.989533094325381));
#523=DIRECTION('',(-1.44055658061997E-13,0.144306116415197,0.989533094325381));
#524=DIRECTION('',(0.,0.,1.));
#525=DIRECTION('',(-1.,0.,0.));
#526=DIRECTION('',(0.,0.,-1.));
#527=DIRECTION('',(0.,1.,-2.54870260628185E-16));
#528=DIRECTION('',(0.,0.,1.));
#529=DIRECTION('',(-1.,0.,0.));
#530=DIRECTION('',(0.,0.,-1.));
#531=DIRECTION('',(0.,1.,0.));
#532=DIRECTION('',(0.,0.,-1.));
#533=DIRECTION('',(0.,1.,-2.54870260628185E-16));
#534=DIRECTION('',(0.,0.,-1.));
#535=DIRECTION('',(0.,1.,0.));
#536=DIRECTION('',(0.,0.,-1.));
#537=DIRECTION('',(0.0069354479206907,-0.999975949491856,0.));
#538=DIRECTION('',(0.,0.,-1.));
#539=DIRECTION('',(1.,0.,0.));
#540=DIRECTION('',(0.,0.,-1.));
#541=DIRECTION('',(1.,0.,0.));
#542=DIRECTION('',(0.,0.,1.));
#543=DIRECTION('',(1.,0.,0.));
#544=DIRECTION('',(0.,0.,1.));
#545=DIRECTION('',(1.,0.,0.));
#546=DIRECTION('',(0.866025403784429,1.66258221628606E-13,0.500000000000017));
#547=DIRECTION('',(-0.866025403784429,-1.66779668786906E-13,0.500000000000017));
#548=DIRECTION('',(0.,0.,1.));
#549=DIRECTION('',(1.,0.,-7.93069532705198E-18));
#550=DIRECTION('',(0.,0.,-1.));
#551=DIRECTION('',(0.,0.,-1.));
#552=DIRECTION('',(0.,0.,1.));
#553=DIRECTION('',(1.,0.,0.));
#554=CARTESIAN_POINT('',(0.,0.,0.));
#555=CARTESIAN_POINT('',(0.,0.,0.));
#556=CARTESIAN_POINT('',(0.,0.,-100.));
#557=CARTESIAN_POINT('',(0.,0.,0.));
#558=CARTESIAN_POINT('',(0.,0.,-79.6));
#559=CARTESIAN_POINT('',(-20.95,0.,-79.6));
#560=CARTESIAN_POINT('',(20.95,0.,-79.6));
#561=CARTESIAN_POINT('',(0.,0.,-79.6));
#562=CARTESIAN_POINT('',(0.,0.,-79.6));
#563=CARTESIAN_POINT('',(5.05893581596606E-14,16.,-79.6));
#564=CARTESIAN_POINT('',(-5.18927803400003E-14,-16.,-79.6));
#565=CARTESIAN_POINT('',(0.,0.,-79.6));
#566=CARTESIAN_POINT('',(0.,0.,-79.6));
#567=CARTESIAN_POINT('',(0.,0.,-2.));
#568=CARTESIAN_POINT('',(-31.5,0.,-2.));
#569=CARTESIAN_POINT('',(0.,0.,-2.));
#570=CARTESIAN_POINT('',(0.,22.5166650635425,-2.));
#571=CARTESIAN_POINT('',(-6.13687901368789E-12,-22.5166650635425,-2.));
#572=CARTESIAN_POINT('',(0.,0.,-2.));
#573=CARTESIAN_POINT('',(0.,0.,-2.));
#574=CARTESIAN_POINT('',(0.,16.,-80.0003751221));
#575=CARTESIAN_POINT('',(0.,16.,-30.));
#576=CARTESIAN_POINT('',(0.,0.,-30.));
#577=CARTESIAN_POINT('',(0.,-16.,-30.));
#578=CARTESIAN_POINT('',(-6.31862318008E-12,-16.,-30.));
#579=CARTESIAN_POINT('',(0.,0.,-48.1));
#580=CARTESIAN_POINT('',(0.,0.,-30.));
#581=CARTESIAN_POINT('',(0.,0.,-48.1));
#582=CARTESIAN_POINT('',(-1.567357355015E-12,19.,-30.));
#583=CARTESIAN_POINT('',(0.,19.,-27.));
#584=CARTESIAN_POINT('',(1.565025886663E-12,-19.,-30.));
#585=CARTESIAN_POINT('',(0.,-19.,-27.));
#586=CARTESIAN_POINT('',(0.,0.,-27.));
#587=CARTESIAN_POINT('',(0.,0.,-30.));
#588=CARTESIAN_POINT('',(0.,0.,-27.));
#589=CARTESIAN_POINT('',(3.76541984645E-14,-31.5,-27.));
#590=CARTESIAN_POINT('',(-3.861860781882E-14,31.5,-27.));
#591=CARTESIAN_POINT('',(0.,0.,-27.));
#592=CARTESIAN_POINT('',(0.,0.,-27.));
#593=CARTESIAN_POINT('',(0.,0.,-27.));
#594=CARTESIAN_POINT('',(-3.861860781882E-14,31.5,-26.));
#595=CARTESIAN_POINT('',(0.,31.5,-21.630963692662));
#596=CARTESIAN_POINT('',(3.76541984645E-14,-31.5,-26.));
#597=CARTESIAN_POINT('',(0.,-31.5,-21.630963692662));
#598=CARTESIAN_POINT('',(0.,0.,-21.630963692662));
#599=CARTESIAN_POINT('',(0.,0.,70.02));
#600=CARTESIAN_POINT('',(0.,0.,-19.1));
#601=CARTESIAN_POINT('',(-26.126781639563,-7.17495644586003,-19.1));
#602=CARTESIAN_POINT('',(0.,0.,-21.630963692662));
#603=CARTESIAN_POINT('',(0.,0.,-20.365481846331));
#604=CARTESIAN_POINT('',(0.,0.,-14.6));
#605=CARTESIAN_POINT('',(25.2477226695791,-8.05000000000131,-14.6));
#606=CARTESIAN_POINT('',(0.,0.,-18.6));
#607=CARTESIAN_POINT('',(-25.4434667449229,-7.40810367098093,-18.6));
#608=CARTESIAN_POINT('',(0.,0.,70.02));
#609=CARTESIAN_POINT('',(0.,0.,-19.1));
#610=CARTESIAN_POINT('',(-26.0292143561804,-7.17495644586172,-19.1));
#611=CARTESIAN_POINT('',(0.,0.,-18.6));
#612=CARTESIAN_POINT('',(0.,0.,-19.1));
#613=CARTESIAN_POINT('',(0.,0.,-14.1));
#614=CARTESIAN_POINT('',(-25.7720294117483,-8.04999999999893,-14.1));
#615=CARTESIAN_POINT('',(0.,0.,-14.6));
#616=CARTESIAN_POINT('',(0.,0.,-11.56903630734));
#617=CARTESIAN_POINT('',(30.4540227227863,-8.05000000000095,-11.56903630734));
#618=CARTESIAN_POINT('',(0.,0.,70.02));
#619=CARTESIAN_POINT('',(0.,0.,-14.1));
#620=CARTESIAN_POINT('',(25.8705666509534,-8.04999999999845,-14.1));
#621=CARTESIAN_POINT('',(0.,0.,-12.83451815367));
#622=CARTESIAN_POINT('',(0.,0.,-14.1));
#623=CARTESIAN_POINT('',(0.,22.225,0.));
#624=CARTESIAN_POINT('',(9.52121754084259E-12,12.6875524222734,65.4));
#625=CARTESIAN_POINT('',(0.,-22.225,0.));
#626=CARTESIAN_POINT('',(-9.52089434025205E-12,-12.6875524222734,65.4));
#627=CARTESIAN_POINT('',(0.,0.,65.4));
#628=CARTESIAN_POINT('',(0.,0.,32.27215305821));
#629=CARTESIAN_POINT('',(0.,0.,65.4));
#630=CARTESIAN_POINT('',(0.,0.,65.4));
#631=CARTESIAN_POINT('',(0.,0.,32.27215305821));
#632=CARTESIAN_POINT('',(0.,0.,70.02));
#633=CARTESIAN_POINT('',(0.,0.,-30.));
#634=CARTESIAN_POINT('',(0.,0.,-100.));
#635=CARTESIAN_POINT('',(-15.2500000000042,8.93769551303828E-14,-100.));
#636=CARTESIAN_POINT('',(15.2500000000042,-8.909751244046E-14,-100.));
#637=CARTESIAN_POINT('',(0.,0.,-100.));
#638=CARTESIAN_POINT('',(0.,0.,-100.));
#639=CARTESIAN_POINT('',(0.,0.,-96.709103465621));
#640=CARTESIAN_POINT('',(20.95,0.,-96.709103465621));
#641=CARTESIAN_POINT('',(15.71410161514,0.,-99.73205080757));
#642=CARTESIAN_POINT('',(17.84801270189,4.11589382421E-13,-98.5000366672));
#643=CARTESIAN_POINT('',(-15.71410161514,0.,-99.73205080757));
#644=CARTESIAN_POINT('',(-17.84801270189,-4.128742429659E-13,-98.5000366672));
#645=CARTESIAN_POINT('',(0.,0.,-98.50925227119));
#646=CARTESIAN_POINT('',(20.95,0.,-83.7));
#647=CARTESIAN_POINT('',(20.95,0.,-83.7));
#648=CARTESIAN_POINT('',(-20.95,0.,-85.7));
#649=CARTESIAN_POINT('',(-20.95,0.,-85.7));
#650=CARTESIAN_POINT('',(0.,0.,-107.845));
#651=MECHANICAL_DESIGN_GEOMETRIC_PRESENTATION_REPRESENTATION('',(#360,#361,
#362,#363),#652);
#652=(
GEOMETRIC_REPRESENTATION_CONTEXT(3)
GLOBAL_UNCERTAINTY_ASSIGNED_CONTEXT((#653))
GLOBAL_UNIT_ASSIGNED_CONTEXT((#659,#655,#654))
REPRESENTATION_CONTEXT('BT.40AD-CC.ER25','TOP_LEVEL_ASSEMBLY_PART')
);
#653=UNCERTAINTY_MEASURE_WITH_UNIT(LENGTH_MEASURE(2.E-5),#659,
'DISTANCE_ACCURACY_VALUE','Maximum Tolerance applied to model');
#654=(
NAMED_UNIT(*)
SI_UNIT($,.STERADIAN.)
SOLID_ANGLE_UNIT()
);
#655=(
CONVERSION_BASED_UNIT('DEGREE',#657)
NAMED_UNIT(#656)
PLANE_ANGLE_UNIT()
);
#656=DIMENSIONAL_EXPONENTS(0.,0.,0.,0.,0.,0.,0.);
#657=PLANE_ANGLE_MEASURE_WITH_UNIT(PLANE_ANGLE_MEASURE(0.0174532925),#658);
#658=(
NAMED_UNIT(*)
PLANE_ANGLE_UNIT()
SI_UNIT($,.RADIAN.)
);
#659=(
LENGTH_UNIT()
NAMED_UNIT(*)
SI_UNIT(.MILLI.,.METRE.)
);
ENDSEC;
END-ISO-10303-21;
