ISO-10303-21;
HEADER;
/* Generated by software containing ST-Developer
 * from STEP Tools, Inc. (www.steptools.com) 
 */
/* OPTION: using custom schema-name function */

FILE_DESCRIPTION(
/* description */ (''),
/* implementation_level */ '2;1');

FILE_NAME(
/* name */ 'BT.40A-QTCC.M3.M14.stp',
/* time_stamp */ '2024-07-08T05:15:43+02:00',
/* author */ (''),
/* organization */ (''),
/* preprocessor_version */ 'ST-DEVELOPER v16.7',
/* originating_system */ 'SIEMENS PLM Software NX 12.0',
/* authorisation */ '');

FILE_SCHEMA (('AUTOMOTIVE_DESIGN { 1 0 10303 214 3 1 1 1 }'));
ENDSEC;

DATA;
#10=CONSTRUCTIVE_GEOMETRY_REPRESENTATION_RELATIONSHIP(
'supplemental geometry','',#32,#11);
#11=CONSTRUCTIVE_GEOMETRY_REPRESENTATION('supplemental geometry',(#340,
#341,#342),#580);
#12=PROPERTY_DEFINITION_REPRESENTATION(#16,#14);
#13=PROPERTY_DEFINITION_REPRESENTATION(#17,#15);
#14=REPRESENTATION('',(#18),#580);
#15=REPRESENTATION('',(#19),#580);
#16=PROPERTY_DEFINITION('pmi validation property','',#23);
#17=PROPERTY_DEFINITION('pmi validation property','',#23);
#18=VALUE_REPRESENTATION_ITEM('number of annotations',COUNT_MEASURE(0.));
#19=VALUE_REPRESENTATION_ITEM('number of views',COUNT_MEASURE(0.));
#20=SHAPE_REPRESENTATION_RELATIONSHIP('None',
'relationship between pf664004CBF9ab7j-None and pf664004CBF9ab7j-None',
#32,#21);
#21=ADVANCED_BREP_SHAPE_REPRESENTATION('pf664004CBF9ab7j-None',(#38),#580);
#22=SHAPE_DEFINITION_REPRESENTATION(#23,#32);
#23=PRODUCT_DEFINITION_SHAPE('','',#24);
#24=PRODUCT_DEFINITION(' ','',#26,#25);
#25=PRODUCT_DEFINITION_CONTEXT('part definition',#31,'design');
#26=PRODUCT_DEFINITION_FORMATION_WITH_SPECIFIED_SOURCE(' ',' ',#28,
 .NOT_KNOWN.);
#27=PRODUCT_RELATED_PRODUCT_CATEGORY('part','',(#28));
#28=PRODUCT('pf664004CBF9ab7j','pf664004CBF9ab7j',' ',(#29));
#29=PRODUCT_CONTEXT(' ',#31,'mechanical');
#30=APPLICATION_PROTOCOL_DEFINITION('international standard',
'automotive_design',2010,#31);
#31=APPLICATION_CONTEXT(
'core data for automotive mechanical design processes');
#32=SHAPE_REPRESENTATION('pf664004CBF9ab7j-None',(#339),#580);
#33=SURFACE_STYLE_USAGE(.BOTH.,#34);
#34=SURFACE_SIDE_STYLE('',(#35));
#35=SURFACE_STYLE_FILL_AREA(#36);
#36=FILL_AREA_STYLE('',(#37));
#37=FILL_AREA_STYLE_COLOUR('',#335);
#38=MANIFOLD_SOLID_BREP('',#39);
#39=CLOSED_SHELL('',(#81,#82,#83,#84,#85,#86,#87,#88,#89,#90,#91,#92,#93,
#94,#95,#96,#97,#98,#99,#100));
#40=FACE_OUTER_BOUND('',#150,.T.);
#41=FACE_OUTER_BOUND('',#151,.T.);
#42=FACE_OUTER_BOUND('',#158,.T.);
#43=FACE_OUTER_BOUND('',#159,.T.);
#44=FACE_OUTER_BOUND('',#160,.T.);
#45=FACE_OUTER_BOUND('',#161,.T.);
#46=FACE_OUTER_BOUND('',#162,.T.);
#47=FACE_OUTER_BOUND('',#163,.T.);
#48=LINE('',#530,#58);
#49=LINE('',#534,#59);
#50=LINE('',#543,#60);
#51=LINE('',#545,#61);
#52=LINE('',#547,#62);
#53=LINE('',#552,#63);
#54=LINE('',#561,#64);
#55=LINE('',#565,#65);
#56=LINE('',#575,#66);
#57=LINE('',#576,#67);
#58=VECTOR('',#437,1.);
#59=VECTOR('',#440,1.);
#60=VECTOR('',#453,1.);
#61=VECTOR('',#454,1.);
#62=VECTOR('',#455,1.);
#63=VECTOR('',#458,1.);
#64=VECTOR('',#469,1.);
#65=VECTOR('',#472,1.);
#66=VECTOR('',#487,1.);
#67=VECTOR('',#488,1.);
#68=TOROIDAL_SURFACE('',#354,27.,0.5);
#69=TOROIDAL_SURFACE('',#359,27.,0.5);
#70=CYLINDRICAL_SURFACE('',#352,31.5);
#71=CYLINDRICAL_SURFACE('',#360,26.5);
#72=CYLINDRICAL_SURFACE('',#365,31.5);
#73=CYLINDRICAL_SURFACE('',#367,31.5);
#74=CYLINDRICAL_SURFACE('',#373,17.5);
#75=CYLINDRICAL_SURFACE('',#378,19.25);
#76=CYLINDRICAL_SURFACE('',#380,19.25);
#77=CONICAL_SURFACE('',#351,29.29703582746,60.125);
#78=CONICAL_SURFACE('',#363,29.29703582746,60.125);
#79=CONICAL_SURFACE('',#385,17.51867021387,8.2971);
#80=CONICAL_SURFACE('',#386,17.51867021387,8.2971);
#81=ADVANCED_FACE('',(#108,#109),#101,.F.);
#82=ADVANCED_FACE('',(#110,#111),#102,.T.);
#83=ADVANCED_FACE('',(#112,#113),#77,.T.);
#84=ADVANCED_FACE('',(#114,#115),#70,.T.);
#85=ADVANCED_FACE('',(#116,#117),#68,.F.);
#86=ADVANCED_FACE('',(#118,#119),#103,.F.);
#87=ADVANCED_FACE('',(#120,#121),#69,.F.);
#88=ADVANCED_FACE('',(#122,#123),#71,.T.);
#89=ADVANCED_FACE('',(#124,#125),#78,.T.);
#90=ADVANCED_FACE('',(#40),#72,.T.);
#91=ADVANCED_FACE('',(#41),#73,.T.);
#92=ADVANCED_FACE('',(#126,#127),#104,.T.);
#93=ADVANCED_FACE('',(#128,#129),#74,.T.);
#94=ADVANCED_FACE('',(#130,#131),#105,.F.);
#95=ADVANCED_FACE('',(#42),#75,.T.);
#96=ADVANCED_FACE('',(#43),#76,.T.);
#97=ADVANCED_FACE('',(#44),#106,.T.);
#98=ADVANCED_FACE('',(#45),#107,.F.);
#99=ADVANCED_FACE('',(#46),#79,.T.);
#100=ADVANCED_FACE('',(#47),#80,.T.);
#101=PLANE('',#346);
#102=PLANE('',#349);
#103=PLANE('',#357);
#104=PLANE('',#370);
#105=PLANE('',#376);
#106=PLANE('',#381);
#107=PLANE('',#384);
#108=FACE_BOUND('',#132,.T.);
#109=FACE_BOUND('',#133,.T.);
#110=FACE_BOUND('',#134,.T.);
#111=FACE_BOUND('',#135,.T.);
#112=FACE_BOUND('',#136,.T.);
#113=FACE_BOUND('',#137,.T.);
#114=FACE_BOUND('',#138,.T.);
#115=FACE_BOUND('',#139,.T.);
#116=FACE_BOUND('',#140,.T.);
#117=FACE_BOUND('',#141,.T.);
#118=FACE_BOUND('',#142,.T.);
#119=FACE_BOUND('',#143,.T.);
#120=FACE_BOUND('',#144,.T.);
#121=FACE_BOUND('',#145,.T.);
#122=FACE_BOUND('',#146,.T.);
#123=FACE_BOUND('',#147,.T.);
#124=FACE_BOUND('',#148,.T.);
#125=FACE_BOUND('',#149,.T.);
#126=FACE_BOUND('',#152,.T.);
#127=FACE_BOUND('',#153,.T.);
#128=FACE_BOUND('',#154,.T.);
#129=FACE_BOUND('',#155,.T.);
#130=FACE_BOUND('',#156,.T.);
#131=FACE_BOUND('',#157,.T.);
#132=EDGE_LOOP('',(#164));
#133=EDGE_LOOP('',(#165,#166));
#134=EDGE_LOOP('',(#167));
#135=EDGE_LOOP('',(#168));
#136=EDGE_LOOP('',(#169));
#137=EDGE_LOOP('',(#170));
#138=EDGE_LOOP('',(#171));
#139=EDGE_LOOP('',(#172));
#140=EDGE_LOOP('',(#173));
#141=EDGE_LOOP('',(#174));
#142=EDGE_LOOP('',(#175));
#143=EDGE_LOOP('',(#176));
#144=EDGE_LOOP('',(#177));
#145=EDGE_LOOP('',(#178));
#146=EDGE_LOOP('',(#179));
#147=EDGE_LOOP('',(#180));
#148=EDGE_LOOP('',(#181));
#149=EDGE_LOOP('',(#182,#183));
#150=EDGE_LOOP('',(#184,#185,#186,#187));
#151=EDGE_LOOP('',(#188,#189,#190,#191));
#152=EDGE_LOOP('',(#192,#193));
#153=EDGE_LOOP('',(#194,#195));
#154=EDGE_LOOP('',(#196,#197,#198,#199,#200,#201));
#155=EDGE_LOOP('',(#202,#203,#204,#205,#206,#207));
#156=EDGE_LOOP('',(#208,#209));
#157=EDGE_LOOP('',(#210,#211));
#158=EDGE_LOOP('',(#212,#213,#214,#215));
#159=EDGE_LOOP('',(#216,#217,#218,#219));
#160=EDGE_LOOP('',(#220,#221));
#161=EDGE_LOOP('',(#222,#223));
#162=EDGE_LOOP('',(#224,#225,#226,#227));
#163=EDGE_LOOP('',(#228,#229,#230,#231));
#164=ORIENTED_EDGE('',*,*,#260,.F.);
#165=ORIENTED_EDGE('',*,*,#261,.T.);
#166=ORIENTED_EDGE('',*,*,#262,.T.);
#167=ORIENTED_EDGE('',*,*,#263,.T.);
#168=ORIENTED_EDGE('',*,*,#264,.T.);
#169=ORIENTED_EDGE('',*,*,#265,.T.);
#170=ORIENTED_EDGE('',*,*,#263,.F.);
#171=ORIENTED_EDGE('',*,*,#260,.T.);
#172=ORIENTED_EDGE('',*,*,#265,.F.);
#173=ORIENTED_EDGE('',*,*,#264,.F.);
#174=ORIENTED_EDGE('',*,*,#266,.F.);
#175=ORIENTED_EDGE('',*,*,#267,.F.);
#176=ORIENTED_EDGE('',*,*,#268,.T.);
#177=ORIENTED_EDGE('',*,*,#269,.F.);
#178=ORIENTED_EDGE('',*,*,#267,.T.);
#179=ORIENTED_EDGE('',*,*,#266,.T.);
#180=ORIENTED_EDGE('',*,*,#269,.T.);
#181=ORIENTED_EDGE('',*,*,#268,.F.);
#182=ORIENTED_EDGE('',*,*,#270,.T.);
#183=ORIENTED_EDGE('',*,*,#271,.T.);
#184=ORIENTED_EDGE('',*,*,#272,.F.);
#185=ORIENTED_EDGE('',*,*,#273,.T.);
#186=ORIENTED_EDGE('',*,*,#274,.T.);
#187=ORIENTED_EDGE('',*,*,#271,.F.);
#188=ORIENTED_EDGE('',*,*,#274,.F.);
#189=ORIENTED_EDGE('',*,*,#275,.T.);
#190=ORIENTED_EDGE('',*,*,#272,.T.);
#191=ORIENTED_EDGE('',*,*,#270,.F.);
#192=ORIENTED_EDGE('',*,*,#276,.F.);
#193=ORIENTED_EDGE('',*,*,#277,.F.);
#194=ORIENTED_EDGE('',*,*,#275,.F.);
#195=ORIENTED_EDGE('',*,*,#273,.F.);
#196=ORIENTED_EDGE('',*,*,#278,.T.);
#197=ORIENTED_EDGE('',*,*,#278,.F.);
#198=ORIENTED_EDGE('',*,*,#276,.T.);
#199=ORIENTED_EDGE('',*,*,#279,.T.);
#200=ORIENTED_EDGE('',*,*,#279,.F.);
#201=ORIENTED_EDGE('',*,*,#277,.T.);
#202=ORIENTED_EDGE('',*,*,#280,.F.);
#203=ORIENTED_EDGE('',*,*,#280,.T.);
#204=ORIENTED_EDGE('',*,*,#281,.F.);
#205=ORIENTED_EDGE('',*,*,#282,.F.);
#206=ORIENTED_EDGE('',*,*,#282,.T.);
#207=ORIENTED_EDGE('',*,*,#283,.F.);
#208=ORIENTED_EDGE('',*,*,#284,.T.);
#209=ORIENTED_EDGE('',*,*,#285,.T.);
#210=ORIENTED_EDGE('',*,*,#281,.T.);
#211=ORIENTED_EDGE('',*,*,#283,.T.);
#212=ORIENTED_EDGE('',*,*,#286,.F.);
#213=ORIENTED_EDGE('',*,*,#287,.F.);
#214=ORIENTED_EDGE('',*,*,#288,.T.);
#215=ORIENTED_EDGE('',*,*,#284,.F.);
#216=ORIENTED_EDGE('',*,*,#288,.F.);
#217=ORIENTED_EDGE('',*,*,#289,.F.);
#218=ORIENTED_EDGE('',*,*,#286,.T.);
#219=ORIENTED_EDGE('',*,*,#285,.F.);
#220=ORIENTED_EDGE('',*,*,#287,.T.);
#221=ORIENTED_EDGE('',*,*,#289,.T.);
#222=ORIENTED_EDGE('',*,*,#290,.T.);
#223=ORIENTED_EDGE('',*,*,#291,.T.);
#224=ORIENTED_EDGE('',*,*,#292,.F.);
#225=ORIENTED_EDGE('',*,*,#261,.F.);
#226=ORIENTED_EDGE('',*,*,#293,.T.);
#227=ORIENTED_EDGE('',*,*,#290,.F.);
#228=ORIENTED_EDGE('',*,*,#293,.F.);
#229=ORIENTED_EDGE('',*,*,#262,.F.);
#230=ORIENTED_EDGE('',*,*,#292,.T.);
#231=ORIENTED_EDGE('',*,*,#291,.F.);
#232=VERTEX_POINT('',#498);
#233=VERTEX_POINT('',#500);
#234=VERTEX_POINT('',#501);
#235=VERTEX_POINT('',#505);
#236=VERTEX_POINT('',#507);
#237=VERTEX_POINT('',#510);
#238=VERTEX_POINT('',#514);
#239=VERTEX_POINT('',#517);
#240=VERTEX_POINT('',#519);
#241=VERTEX_POINT('',#522);
#242=VERTEX_POINT('',#526);
#243=VERTEX_POINT('',#527);
#244=VERTEX_POINT('',#531);
#245=VERTEX_POINT('',#533);
#246=VERTEX_POINT('',#539);
#247=VERTEX_POINT('',#540);
#248=VERTEX_POINT('',#544);
#249=VERTEX_POINT('',#546);
#250=VERTEX_POINT('',#548);
#251=VERTEX_POINT('',#549);
#252=VERTEX_POINT('',#551);
#253=VERTEX_POINT('',#553);
#254=VERTEX_POINT('',#557);
#255=VERTEX_POINT('',#558);
#256=VERTEX_POINT('',#562);
#257=VERTEX_POINT('',#564);
#258=VERTEX_POINT('',#571);
#259=VERTEX_POINT('',#572);
#260=EDGE_CURVE('',#232,#232,#294,.T.);
#261=EDGE_CURVE('',#233,#234,#295,.T.);
#262=EDGE_CURVE('',#234,#233,#296,.T.);
#263=EDGE_CURVE('',#235,#235,#297,.T.);
#264=EDGE_CURVE('',#236,#236,#298,.T.);
#265=EDGE_CURVE('',#237,#237,#299,.T.);
#266=EDGE_CURVE('',#238,#238,#300,.T.);
#267=EDGE_CURVE('',#239,#239,#301,.T.);
#268=EDGE_CURVE('',#240,#240,#302,.T.);
#269=EDGE_CURVE('',#241,#241,#303,.T.);
#270=EDGE_CURVE('',#242,#243,#304,.T.);
#271=EDGE_CURVE('',#243,#242,#305,.T.);
#272=EDGE_CURVE('',#244,#243,#48,.T.);
#273=EDGE_CURVE('',#244,#245,#306,.T.);
#274=EDGE_CURVE('',#245,#242,#49,.T.);
#275=EDGE_CURVE('',#245,#244,#307,.T.);
#276=EDGE_CURVE('',#246,#247,#308,.T.);
#277=EDGE_CURVE('',#247,#246,#309,.T.);
#278=EDGE_CURVE('',#246,#248,#50,.T.);
#279=EDGE_CURVE('',#247,#249,#51,.T.);
#280=EDGE_CURVE('',#250,#251,#52,.T.);
#281=EDGE_CURVE('',#252,#251,#310,.T.);
#282=EDGE_CURVE('',#253,#252,#53,.T.);
#283=EDGE_CURVE('',#251,#252,#311,.T.);
#284=EDGE_CURVE('',#254,#255,#312,.T.);
#285=EDGE_CURVE('',#255,#254,#313,.T.);
#286=EDGE_CURVE('',#256,#254,#54,.T.);
#287=EDGE_CURVE('',#257,#256,#314,.T.);
#288=EDGE_CURVE('',#257,#255,#55,.T.);
#289=EDGE_CURVE('',#256,#257,#315,.T.);
#290=EDGE_CURVE('',#258,#259,#316,.T.);
#291=EDGE_CURVE('',#259,#258,#317,.T.);
#292=EDGE_CURVE('',#234,#258,#56,.T.);
#293=EDGE_CURVE('',#233,#259,#57,.T.);
#294=CIRCLE('',#343,31.5);
#295=CIRCLE('',#344,22.5166650635425);
#296=CIRCLE('',#345,22.5166650635425);
#297=CIRCLE('',#347,27.09407165491);
#298=CIRCLE('',#348,27.);
#299=CIRCLE('',#350,31.5);
#300=CIRCLE('',#353,26.5);
#301=CIRCLE('',#355,27.);
#302=CIRCLE('',#356,27.09407165491);
#303=CIRCLE('',#358,26.5);
#304=CIRCLE('',#361,31.5);
#305=CIRCLE('',#362,31.5);
#306=CIRCLE('',#364,31.5);
#307=CIRCLE('',#366,31.5);
#308=CIRCLE('',#368,17.5);
#309=CIRCLE('',#369,17.5);
#310=CIRCLE('',#371,17.5);
#311=CIRCLE('',#372,17.5);
#312=CIRCLE('',#374,19.25);
#313=CIRCLE('',#375,19.25);
#314=CIRCLE('',#377,19.25);
#315=CIRCLE('',#379,19.25);
#316=CIRCLE('',#382,12.6875524222744);
#317=CIRCLE('',#383,12.6875524222744);
#318=INVISIBILITY((#319,#320,#321));
#319=PRESENTATION_LAYER_ASSIGNMENT('100','Layer 100',(#340));
#320=PRESENTATION_LAYER_ASSIGNMENT('101','Layer 101',(#341));
#321=PRESENTATION_LAYER_ASSIGNMENT('102','Layer 102',(#342));
#322=PRESENTATION_LAYER_ASSIGNMENT('98','Layer 98',(#38));
#323=STYLED_ITEM('',(#327),#340);
#324=STYLED_ITEM('',(#328),#341);
#325=STYLED_ITEM('',(#329),#342);
#326=STYLED_ITEM('',(#330),#38);
#327=PRESENTATION_STYLE_ASSIGNMENT((#331));
#328=PRESENTATION_STYLE_ASSIGNMENT((#332));
#329=PRESENTATION_STYLE_ASSIGNMENT((#333));
#330=PRESENTATION_STYLE_ASSIGNMENT((#33));
#331=CURVE_STYLE('',#336,POSITIVE_LENGTH_MEASURE(0.7),#334);
#332=CURVE_STYLE('',#337,POSITIVE_LENGTH_MEASURE(0.7),#334);
#333=CURVE_STYLE('',#338,POSITIVE_LENGTH_MEASURE(0.7),#334);
#334=COLOUR_RGB('Medium Maroon',0.6,0.4,0.4);
#335=COLOUR_RGB('Medium Gray',0.490196078431373,0.490196078431373,0.490196078431373);
#336=DRAUGHTING_PRE_DEFINED_CURVE_FONT('continuous');
#337=DRAUGHTING_PRE_DEFINED_CURVE_FONT('continuous');
#338=DRAUGHTING_PRE_DEFINED_CURVE_FONT('continuous');
#339=AXIS2_PLACEMENT_3D('',#493,#387,#388);
#340=AXIS2_PLACEMENT_3D('PCS',#494,#389,#390);
#341=AXIS2_PLACEMENT_3D('CSW',#495,#391,#392);
#342=AXIS2_PLACEMENT_3D('MCS',#496,#393,#394);
#343=AXIS2_PLACEMENT_3D('',#497,#395,#396);
#344=AXIS2_PLACEMENT_3D('',#499,#397,#398);
#345=AXIS2_PLACEMENT_3D('',#502,#399,#400);
#346=AXIS2_PLACEMENT_3D('',#503,#401,#402);
#347=AXIS2_PLACEMENT_3D('',#504,#403,#404);
#348=AXIS2_PLACEMENT_3D('',#506,#405,#406);
#349=AXIS2_PLACEMENT_3D('',#508,#407,#408);
#350=AXIS2_PLACEMENT_3D('',#509,#409,#410);
#351=AXIS2_PLACEMENT_3D('',#511,#411,#412);
#352=AXIS2_PLACEMENT_3D('',#512,#413,#414);
#353=AXIS2_PLACEMENT_3D('',#513,#415,#416);
#354=AXIS2_PLACEMENT_3D('',#515,#417,#418);
#355=AXIS2_PLACEMENT_3D('',#516,#419,#420);
#356=AXIS2_PLACEMENT_3D('',#518,#421,#422);
#357=AXIS2_PLACEMENT_3D('',#520,#423,#424);
#358=AXIS2_PLACEMENT_3D('',#521,#425,#426);
#359=AXIS2_PLACEMENT_3D('',#523,#427,#428);
#360=AXIS2_PLACEMENT_3D('',#524,#429,#430);
#361=AXIS2_PLACEMENT_3D('',#525,#431,#432);
#362=AXIS2_PLACEMENT_3D('',#528,#433,#434);
#363=AXIS2_PLACEMENT_3D('',#529,#435,#436);
#364=AXIS2_PLACEMENT_3D('',#532,#438,#439);
#365=AXIS2_PLACEMENT_3D('',#535,#441,#442);
#366=AXIS2_PLACEMENT_3D('',#536,#443,#444);
#367=AXIS2_PLACEMENT_3D('',#537,#445,#446);
#368=AXIS2_PLACEMENT_3D('',#538,#447,#448);
#369=AXIS2_PLACEMENT_3D('',#541,#449,#450);
#370=AXIS2_PLACEMENT_3D('',#542,#451,#452);
#371=AXIS2_PLACEMENT_3D('',#550,#456,#457);
#372=AXIS2_PLACEMENT_3D('',#554,#459,#460);
#373=AXIS2_PLACEMENT_3D('',#555,#461,#462);
#374=AXIS2_PLACEMENT_3D('',#556,#463,#464);
#375=AXIS2_PLACEMENT_3D('',#559,#465,#466);
#376=AXIS2_PLACEMENT_3D('',#560,#467,#468);
#377=AXIS2_PLACEMENT_3D('',#563,#470,#471);
#378=AXIS2_PLACEMENT_3D('',#566,#473,#474);
#379=AXIS2_PLACEMENT_3D('',#567,#475,#476);
#380=AXIS2_PLACEMENT_3D('',#568,#477,#478);
#381=AXIS2_PLACEMENT_3D('',#569,#479,#480);
#382=AXIS2_PLACEMENT_3D('',#570,#481,#482);
#383=AXIS2_PLACEMENT_3D('',#573,#483,#484);
#384=AXIS2_PLACEMENT_3D('',#574,#485,#486);
#385=AXIS2_PLACEMENT_3D('',#577,#489,#490);
#386=AXIS2_PLACEMENT_3D('',#578,#491,#492);
#387=DIRECTION('',(0.,0.,1.));
#388=DIRECTION('',(1.,0.,0.));
#389=DIRECTION('',(0.,0.,1.));
#390=DIRECTION('',(1.,0.,0.));
#391=DIRECTION('',(0.,0.,1.));
#392=DIRECTION('',(1.,0.,0.));
#393=DIRECTION('',(0.,0.,1.));
#394=DIRECTION('',(1.,0.,0.));
#395=DIRECTION('',(0.,0.,-1.));
#396=DIRECTION('',(-1.,0.,0.));
#397=DIRECTION('',(0.,0.,-1.));
#398=DIRECTION('',(-1.,0.,0.));
#399=DIRECTION('',(0.,0.,-1.));
#400=DIRECTION('',(-1.,0.,0.));
#401=DIRECTION('',(0.,0.,-1.));
#402=DIRECTION('',(0.,1.,0.));
#403=DIRECTION('',(0.,0.,-1.));
#404=DIRECTION('',(0.954842335270237,-0.297112966354012,0.));
#405=DIRECTION('',(0.,0.,1.));
#406=DIRECTION('',(-0.954519607842528,-0.298148148148109,0.));
#407=DIRECTION('',(0.,0.,-1.));
#408=DIRECTION('',(0.,1.,0.));
#409=DIRECTION('',(0.,0.,-1.));
#410=DIRECTION('',(0.966794372151946,-0.255555555555586,0.));
#411=DIRECTION('',(0.,0.,1.));
#412=DIRECTION('',(0.,-1.,9.80010182192779E-18));
#413=DIRECTION('',(0.,0.,-1.));
#414=DIRECTION('',(0.,1.,0.));
#415=DIRECTION('',(0.,0.,-1.));
#416=DIRECTION('',(0.952744251682231,-0.30377358490571,0.));
#417=DIRECTION('',(0.,0.,-1.));
#418=DIRECTION('',(0.00418746158650899,-0.999991232544297,0.));
#419=DIRECTION('',(0.,0.,1.));
#420=DIRECTION('',(-0.964044976154829,-0.265739127624508,0.));
#421=DIRECTION('',(0.,0.,1.));
#422=DIRECTION('',(-0.964298831579577,-0.264816471191394,0.));
#423=DIRECTION('',(0.,0.,-1.));
#424=DIRECTION('',(0.,1.,0.));
#425=DIRECTION('',(0.,0.,1.));
#426=DIRECTION('',(-0.960130820563129,-0.279551081923809,0.));
#427=DIRECTION('',(0.,0.,-1.));
#428=DIRECTION('',(0.00438941531076905,-0.999990366470212,0.));
#429=DIRECTION('',(0.,0.,-1.));
#430=DIRECTION('',(0.,1.,0.));
#431=DIRECTION('',(0.,0.,1.));
#432=DIRECTION('',(0.,-1.,0.));
#433=DIRECTION('',(0.,0.,1.));
#434=DIRECTION('',(-0.986505988923997,-0.163725177712799,0.));
#435=DIRECTION('',(0.,0.,-1.));
#436=DIRECTION('',(0.,1.,-1.37201425506989E-17));
#437=DIRECTION('',(0.,0.,1.));
#438=DIRECTION('',(0.,0.,1.));
#439=DIRECTION('',(-1.,0.,0.));
#440=DIRECTION('',(0.,0.,1.));
#441=DIRECTION('',(0.,0.,-1.));
#442=DIRECTION('',(0.,1.,0.));
#443=DIRECTION('',(0.,0.,1.));
#444=DIRECTION('',(-1.,0.,0.));
#445=DIRECTION('',(0.,0.,-1.));
#446=DIRECTION('',(0.,1.,0.));
#447=DIRECTION('',(0.,0.,-1.));
#448=DIRECTION('',(-1.,0.,0.));
#449=DIRECTION('',(0.,0.,-1.));
#450=DIRECTION('',(-1.,0.,0.));
#451=DIRECTION('',(0.,0.,-1.));
#452=DIRECTION('',(0.,1.,0.));
#453=DIRECTION('',(0.,0.,-1.));
#454=DIRECTION('',(0.,0.,-1.));
#455=DIRECTION('',(0.,0.,-1.));
#456=DIRECTION('',(0.,0.,-1.));
#457=DIRECTION('',(0.,-1.,0.));
#458=DIRECTION('',(0.,0.,-1.));
#459=DIRECTION('',(0.,0.,-1.));
#460=DIRECTION('',(0.,1.,0.));
#461=DIRECTION('',(0.,0.,-1.));
#462=DIRECTION('',(0.,1.,0.));
#463=DIRECTION('',(0.,0.,1.));
#464=DIRECTION('',(-1.,0.,0.));
#465=DIRECTION('',(0.,0.,1.));
#466=DIRECTION('',(-1.,0.,0.));
#467=DIRECTION('',(0.,0.,-1.));
#468=DIRECTION('',(0.,1.,0.));
#469=DIRECTION('',(-8.090630674045E-13,0.,1.));
#470=DIRECTION('',(0.,0.,-1.));
#471=DIRECTION('',(-1.,0.,0.));
#472=DIRECTION('',(8.090530665439E-13,0.,1.));
#473=DIRECTION('',(0.,0.,-1.));
#474=DIRECTION('',(0.,1.,0.));
#475=DIRECTION('',(0.,0.,-1.));
#476=DIRECTION('',(-1.,0.,0.));
#477=DIRECTION('',(0.,0.,-1.));
#478=DIRECTION('',(0.,1.,0.));
#479=DIRECTION('',(0.,0.,-1.));
#480=DIRECTION('',(0.,1.,0.));
#481=DIRECTION('',(0.,0.,1.));
#482=DIRECTION('',(-1.,0.,0.));
#483=DIRECTION('',(0.,0.,1.));
#484=DIRECTION('',(-1.,0.,0.));
#485=DIRECTION('',(0.,0.,-1.));
#486=DIRECTION('',(0.,1.,0.));
#487=DIRECTION('',(-1.44055658061997E-13,0.144306116415197,0.989533094325381));
#488=DIRECTION('',(1.44060548240597E-13,-0.144306116415197,0.989533094325381));
#489=DIRECTION('',(0.,0.,-1.));
#490=DIRECTION('',(0.,1.,-2.54870260628185E-16));
#491=DIRECTION('',(0.,0.,-1.));
#492=DIRECTION('',(0.,1.,-2.54870260628185E-16));
#493=CARTESIAN_POINT('',(0.,0.,0.));
#494=CARTESIAN_POINT('',(0.,0.,0.));
#495=CARTESIAN_POINT('',(0.,0.,-71.));
#496=CARTESIAN_POINT('',(0.,0.,0.));
#497=CARTESIAN_POINT('',(0.,0.,-2.));
#498=CARTESIAN_POINT('',(-31.5,0.,-2.));
#499=CARTESIAN_POINT('',(0.,0.,-2.));
#500=CARTESIAN_POINT('',(0.,22.5166650635425,-2.));
#501=CARTESIAN_POINT('',(-6.13687901368789E-12,-22.5166650635425,-2.));
#502=CARTESIAN_POINT('',(0.,0.,-2.));
#503=CARTESIAN_POINT('',(0.,0.,-2.));
#504=CARTESIAN_POINT('',(0.,0.,-14.1));
#505=CARTESIAN_POINT('',(25.8705666509534,-8.04999999999845,-14.1));
#506=CARTESIAN_POINT('',(0.,0.,-14.1));
#507=CARTESIAN_POINT('',(-25.7720294117483,-8.04999999999893,-14.1));
#508=CARTESIAN_POINT('',(0.,0.,-14.1));
#509=CARTESIAN_POINT('',(0.,0.,-11.56903630734));
#510=CARTESIAN_POINT('',(30.4540227227863,-8.05000000000095,-11.56903630734));
#511=CARTESIAN_POINT('',(0.,0.,-12.83451815367));
#512=CARTESIAN_POINT('',(0.,0.,70.02));
#513=CARTESIAN_POINT('',(0.,0.,-14.6));
#514=CARTESIAN_POINT('',(25.2477226695791,-8.05000000000131,-14.6));
#515=CARTESIAN_POINT('',(0.,0.,-14.6));
#516=CARTESIAN_POINT('',(0.,0.,-19.1));
#517=CARTESIAN_POINT('',(-26.0292143561804,-7.17495644586172,-19.1));
#518=CARTESIAN_POINT('',(0.,0.,-19.1));
#519=CARTESIAN_POINT('',(-26.126781639563,-7.17495644586003,-19.1));
#520=CARTESIAN_POINT('',(0.,0.,-19.1));
#521=CARTESIAN_POINT('',(0.,0.,-18.6));
#522=CARTESIAN_POINT('',(-25.4434667449229,-7.40810367098093,-18.6));
#523=CARTESIAN_POINT('',(0.,0.,-18.6));
#524=CARTESIAN_POINT('',(0.,0.,70.02));
#525=CARTESIAN_POINT('',(0.,0.,-21.630963692662));
#526=CARTESIAN_POINT('',(0.,-31.5,-21.630963692662));
#527=CARTESIAN_POINT('',(0.,31.5,-21.630963692662));
#528=CARTESIAN_POINT('',(0.,0.,-21.630963692662));
#529=CARTESIAN_POINT('',(0.,0.,-20.365481846331));
#530=CARTESIAN_POINT('',(-3.861860781882E-14,31.5,-26.));
#531=CARTESIAN_POINT('',(-3.861860781882E-14,31.5,-27.));
#532=CARTESIAN_POINT('',(0.,0.,-27.));
#533=CARTESIAN_POINT('',(3.76541984645E-14,-31.5,-27.));
#534=CARTESIAN_POINT('',(3.76541984645E-14,-31.5,-26.));
#535=CARTESIAN_POINT('',(0.,0.,70.02));
#536=CARTESIAN_POINT('',(0.,0.,-27.));
#537=CARTESIAN_POINT('',(0.,0.,70.02));
#538=CARTESIAN_POINT('',(0.,0.,-27.));
#539=CARTESIAN_POINT('',(0.,17.5,-27.));
#540=CARTESIAN_POINT('',(1.07156594925393E-15,-17.5,-27.));
#541=CARTESIAN_POINT('',(0.,0.,-27.));
#542=CARTESIAN_POINT('',(0.,0.,-27.));
#543=CARTESIAN_POINT('',(0.,17.5,-30.1));
#544=CARTESIAN_POINT('',(0.,17.5,-30.1));
#545=CARTESIAN_POINT('',(0.,-17.5,-30.1));
#546=CARTESIAN_POINT('',(0.,-17.5,-30.1));
#547=CARTESIAN_POINT('',(0.,17.5,-41.));
#548=CARTESIAN_POINT('',(2.13821176807376E-46,17.5,-34.2));
#549=CARTESIAN_POINT('',(0.,17.5,-41.));
#550=CARTESIAN_POINT('',(0.,0.,-41.));
#551=CARTESIAN_POINT('',(0.,-17.5,-41.));
#552=CARTESIAN_POINT('',(0.,-17.5,-41.));
#553=CARTESIAN_POINT('',(0.,-17.5,-34.2));
#554=CARTESIAN_POINT('',(0.,0.,-41.));
#555=CARTESIAN_POINT('',(0.,0.,-25.375));
#556=CARTESIAN_POINT('',(0.,0.,-41.));
#557=CARTESIAN_POINT('',(-5.42072255161015E-12,-19.25,-41.));
#558=CARTESIAN_POINT('',(5.42065554584413E-12,19.25,-41.));
#559=CARTESIAN_POINT('',(0.,0.,-41.));
#560=CARTESIAN_POINT('',(0.,0.,-41.));
#561=CARTESIAN_POINT('',(0.,-19.25,-47.7));
#562=CARTESIAN_POINT('',(2.03221286131241E-10,-19.25,-71.));
#563=CARTESIAN_POINT('',(0.,0.,-71.));
#564=CARTESIAN_POINT('',(0.,19.25,-71.));
#565=CARTESIAN_POINT('',(0.,19.25,-47.7));
#566=CARTESIAN_POINT('',(0.,0.,-39.5));
#567=CARTESIAN_POINT('',(0.,0.,-71.));
#568=CARTESIAN_POINT('',(0.,0.,-39.5));
#569=CARTESIAN_POINT('',(0.,0.,-71.));
#570=CARTESIAN_POINT('',(0.,0.,65.4));
#571=CARTESIAN_POINT('',(-9.52089434025205E-12,-12.6875524222734,65.4));
#572=CARTESIAN_POINT('',(9.52121754084259E-12,12.6875524222734,65.4));
#573=CARTESIAN_POINT('',(0.,0.,65.4));
#574=CARTESIAN_POINT('',(0.,0.,65.4));
#575=CARTESIAN_POINT('',(0.,-22.225,0.));
#576=CARTESIAN_POINT('',(0.,22.225,0.));
#577=CARTESIAN_POINT('',(0.,0.,32.27215305821));
#578=CARTESIAN_POINT('',(0.,0.,32.27215305821));
#579=MECHANICAL_DESIGN_GEOMETRIC_PRESENTATION_REPRESENTATION('',(#323,#324,
#325,#326),#580);
#580=(
GEOMETRIC_REPRESENTATION_CONTEXT(3)
GLOBAL_UNCERTAINTY_ASSIGNED_CONTEXT((#581))
GLOBAL_UNIT_ASSIGNED_CONTEXT((#587,#583,#582))
REPRESENTATION_CONTEXT('BT.40A-QTCC.M3','TOP_LEVEL_ASSEMBLY_PART')
);
#581=UNCERTAINTY_MEASURE_WITH_UNIT(LENGTH_MEASURE(2.E-5),#587,
'DISTANCE_ACCURACY_VALUE','Maximum Tolerance applied to model');
#582=(
NAMED_UNIT(*)
SI_UNIT($,.STERADIAN.)
SOLID_ANGLE_UNIT()
);
#583=(
CONVERSION_BASED_UNIT('DEGREE',#585)
NAMED_UNIT(#584)
PLANE_ANGLE_UNIT()
);
#584=DIMENSIONAL_EXPONENTS(0.,0.,0.,0.,0.,0.,0.);
#585=PLANE_ANGLE_MEASURE_WITH_UNIT(PLANE_ANGLE_MEASURE(0.0174532925),#586);
#586=(
NAMED_UNIT(*)
PLANE_ANGLE_UNIT()
SI_UNIT($,.RADIAN.)
);
#587=(
LENGTH_UNIT()
NAMED_UNIT(*)
SI_UNIT(.MILLI.,.METRE.)
);
ENDSEC;
END-ISO-10303-21;
