ISO-10303-21;
HEADER;
/* Generated by software containing ST-Developer
 * from STEP Tools, Inc. (www.steptools.com) 
 */
/* OPTION: using custom schema-name function */

FILE_DESCRIPTION(
/* description */ (''),
/* implementation_level */ '2;1');

FILE_NAME(
/* name */ 'oznaceni_DOCUMENTNUMBERndi000_00_SIM.stp',
/* time_stamp */ '2023-05-31T06:58:20+02:00',
/* author */ (''),
/* organization */ (''),
/* preprocessor_version */ 'ST-DEVELOPER v16.7',
/* originating_system */ 'SIEMENS PLM Software NX 12.0',
/* authorisation */ '');

FILE_SCHEMA (('AUTOMOTIVE_DESIGN { 1 0 10303 214 3 1 1 1 }'));
ENDSEC;

DATA;
#10=CONSTRUCTIVE_GEOMETRY_REPRESENTATION_RELATIONSHIP(
'supplemental geometry','',#24,#11);
#11=CONSTRUCTIVE_GEOMETRY_REPRESENTATION('supplemental geometry',(#379,
#380,#381),#620);
#12=SHAPE_REPRESENTATION_RELATIONSHIP('None',
'relationship between 204755929ndi000_00-None and 204755929ndi000_00-N
one',#24,#13);
#13=ADVANCED_BREP_SHAPE_REPRESENTATION('204755929ndi000_00-None',(#30),
#620);
#14=SHAPE_DEFINITION_REPRESENTATION(#15,#24);
#15=PRODUCT_DEFINITION_SHAPE('','',#16);
#16=PRODUCT_DEFINITION(' ','',#18,#17);
#17=PRODUCT_DEFINITION_CONTEXT('part definition',#23,'design');
#18=PRODUCT_DEFINITION_FORMATION_WITH_SPECIFIED_SOURCE(' ',' ',#20,
 .NOT_KNOWN.);
#19=PRODUCT_RELATED_PRODUCT_CATEGORY('part','',(#20));
#20=PRODUCT('204755929ndi000_00','204755929ndi000_00',' ',(#21));
#21=PRODUCT_CONTEXT(' ',#23,'mechanical');
#22=APPLICATION_PROTOCOL_DEFINITION('international standard',
'automotive_design',2010,#23);
#23=APPLICATION_CONTEXT(
'core data for automotive mechanical design processes');
#24=SHAPE_REPRESENTATION('204755929ndi000_00-None',(#378),#620);
#25=SURFACE_STYLE_USAGE(.BOTH.,#26);
#26=SURFACE_SIDE_STYLE('',(#27));
#27=SURFACE_STYLE_FILL_AREA(#28);
#28=FILL_AREA_STYLE('',(#29));
#29=FILL_AREA_STYLE_COLOUR('',#374);
#30=MANIFOLD_SOLID_BREP('S\X\D3LIDO1',#31);
#31=CLOSED_SHELL('',(#113,#114,#115,#116,#117,#118,#119,#120,#121,#122,
#123,#124,#125,#126,#127,#128,#129,#130,#131,#132,#133,#134,#135,#136));
#32=LINE('',#548,#56);
#33=LINE('',#551,#57);
#34=LINE('',#553,#58);
#35=LINE('',#555,#59);
#36=LINE('',#560,#60);
#37=LINE('',#562,#61);
#38=LINE('',#564,#62);
#39=LINE('',#566,#63);
#40=LINE('',#569,#64);
#41=LINE('',#571,#65);
#42=LINE('',#573,#66);
#43=LINE('',#575,#67);
#44=LINE('',#578,#68);
#45=LINE('',#579,#69);
#46=LINE('',#581,#70);
#47=LINE('',#583,#71);
#48=LINE('',#585,#72);
#49=LINE('',#587,#73);
#50=LINE('',#589,#74);
#51=LINE('',#591,#75);
#52=LINE('',#593,#76);
#53=LINE('',#595,#77);
#54=LINE('',#597,#78);
#55=LINE('',#599,#79);
#56=VECTOR('',#451,1.);
#57=VECTOR('',#452,1.);
#58=VECTOR('',#453,1.);
#59=VECTOR('',#454,1.);
#60=VECTOR('',#461,1.);
#61=VECTOR('',#462,1.);
#62=VECTOR('',#463,1.);
#63=VECTOR('',#466,1.);
#64=VECTOR('',#467,1.);
#65=VECTOR('',#468,1.);
#66=VECTOR('',#469,1.);
#67=VECTOR('',#472,1.);
#68=VECTOR('',#473,1.);
#69=VECTOR('',#474,1.);
#70=VECTOR('',#477,1.);
#71=VECTOR('',#478,1.);
#72=VECTOR('',#479,1.);
#73=VECTOR('',#482,1.);
#74=VECTOR('',#485,1.);
#75=VECTOR('',#486,1.);
#76=VECTOR('',#489,1.);
#77=VECTOR('',#490,1.);
#78=VECTOR('',#493,1.);
#79=VECTOR('',#496,1.);
#80=FACE_OUTER_BOUND('',#174,.T.);
#81=FACE_OUTER_BOUND('',#175,.T.);
#82=FACE_OUTER_BOUND('',#178,.T.);
#83=FACE_OUTER_BOUND('',#179,.T.);
#84=FACE_OUTER_BOUND('',#180,.T.);
#85=FACE_OUTER_BOUND('',#181,.T.);
#86=FACE_OUTER_BOUND('',#182,.T.);
#87=FACE_OUTER_BOUND('',#183,.T.);
#88=FACE_OUTER_BOUND('',#184,.T.);
#89=FACE_OUTER_BOUND('',#185,.T.);
#90=FACE_OUTER_BOUND('',#186,.T.);
#91=FACE_OUTER_BOUND('',#203,.T.);
#92=CYLINDRICAL_SURFACE('',#388,22.225);
#93=CYLINDRICAL_SURFACE('',#396,8.00000000000001);
#94=CYLINDRICAL_SURFACE('',#408,19.);
#95=CYLINDRICAL_SURFACE('',#410,31.5);
#96=CYLINDRICAL_SURFACE('',#412,31.5);
#97=CYLINDRICAL_SURFACE('',#415,26.5);
#98=PLANE('',#387);
#99=PLANE('',#391);
#100=PLANE('',#393);
#101=PLANE('',#394);
#102=PLANE('',#397);
#103=PLANE('',#398);
#104=PLANE('',#399);
#105=PLANE('',#400);
#106=PLANE('',#401);
#107=PLANE('',#402);
#108=PLANE('',#403);
#109=PLANE('',#404);
#110=PLANE('',#405);
#111=PLANE('',#407);
#112=PLANE('',#418);
#113=ADVANCED_FACE('',(#140,#141),#137,.T.);
#114=ADVANCED_FACE('',(#142,#143),#98,.T.);
#115=ADVANCED_FACE('',(#144,#145),#92,.T.);
#116=ADVANCED_FACE('',(#146,#147),#99,.T.);
#117=ADVANCED_FACE('',(#80),#100,.T.);
#118=ADVANCED_FACE('',(#81),#101,.T.);
#119=ADVANCED_FACE('',(#148,#149),#93,.T.);
#120=ADVANCED_FACE('',(#82),#102,.T.);
#121=ADVANCED_FACE('',(#83),#103,.F.);
#122=ADVANCED_FACE('',(#84),#104,.F.);
#123=ADVANCED_FACE('',(#85),#105,.T.);
#124=ADVANCED_FACE('',(#86),#106,.F.);
#125=ADVANCED_FACE('',(#87),#107,.T.);
#126=ADVANCED_FACE('',(#88),#108,.F.);
#127=ADVANCED_FACE('',(#89),#109,.T.);
#128=ADVANCED_FACE('',(#90),#110,.F.);
#129=ADVANCED_FACE('',(#150,#151,#152,#153),#111,.T.);
#130=ADVANCED_FACE('',(#154,#155),#94,.T.);
#131=ADVANCED_FACE('',(#156,#157),#95,.T.);
#132=ADVANCED_FACE('',(#158,#159),#96,.T.);
#133=ADVANCED_FACE('',(#160,#161),#97,.T.);
#134=ADVANCED_FACE('',(#162,#163),#138,.T.);
#135=ADVANCED_FACE('',(#164,#165),#139,.T.);
#136=ADVANCED_FACE('',(#91),#112,.T.);
#137=CONICAL_SURFACE('',#384,17.4575,8.29500036238467);
#138=CONICAL_SURFACE('',#416,29.,59.9999999999999);
#139=CONICAL_SURFACE('',#417,29.,59.9999999999999);
#140=FACE_BOUND('',#166,.T.);
#141=FACE_BOUND('',#167,.T.);
#142=FACE_BOUND('',#168,.T.);
#143=FACE_BOUND('',#169,.T.);
#144=FACE_BOUND('',#170,.T.);
#145=FACE_BOUND('',#171,.T.);
#146=FACE_BOUND('',#172,.T.);
#147=FACE_BOUND('',#173,.T.);
#148=FACE_BOUND('',#176,.T.);
#149=FACE_BOUND('',#177,.T.);
#150=FACE_BOUND('',#187,.T.);
#151=FACE_BOUND('',#188,.T.);
#152=FACE_BOUND('',#189,.T.);
#153=FACE_BOUND('',#190,.T.);
#154=FACE_BOUND('',#191,.T.);
#155=FACE_BOUND('',#192,.T.);
#156=FACE_BOUND('',#193,.T.);
#157=FACE_BOUND('',#194,.T.);
#158=FACE_BOUND('',#195,.T.);
#159=FACE_BOUND('',#196,.T.);
#160=FACE_BOUND('',#197,.T.);
#161=FACE_BOUND('',#198,.T.);
#162=FACE_BOUND('',#199,.T.);
#163=FACE_BOUND('',#200,.T.);
#164=FACE_BOUND('',#201,.T.);
#165=FACE_BOUND('',#202,.T.);
#166=EDGE_LOOP('',(#204));
#167=EDGE_LOOP('',(#205));
#168=EDGE_LOOP('',(#206));
#169=EDGE_LOOP('',(#207));
#170=EDGE_LOOP('',(#208));
#171=EDGE_LOOP('',(#209));
#172=EDGE_LOOP('',(#210));
#173=EDGE_LOOP('',(#211));
#174=EDGE_LOOP('',(#212));
#175=EDGE_LOOP('',(#213,#214,#215,#216));
#176=EDGE_LOOP('',(#217));
#177=EDGE_LOOP('',(#218));
#178=EDGE_LOOP('',(#219,#220,#221,#222));
#179=EDGE_LOOP('',(#223,#224,#225,#226));
#180=EDGE_LOOP('',(#227,#228,#229,#230));
#181=EDGE_LOOP('',(#231,#232,#233,#234));
#182=EDGE_LOOP('',(#235,#236,#237,#238));
#183=EDGE_LOOP('',(#239,#240,#241,#242));
#184=EDGE_LOOP('',(#243,#244,#245,#246));
#185=EDGE_LOOP('',(#247,#248,#249,#250));
#186=EDGE_LOOP('',(#251,#252,#253,#254));
#187=EDGE_LOOP('',(#255,#256,#257,#258));
#188=EDGE_LOOP('',(#259));
#189=EDGE_LOOP('',(#260,#261,#262,#263));
#190=EDGE_LOOP('',(#264));
#191=EDGE_LOOP('',(#265));
#192=EDGE_LOOP('',(#266));
#193=EDGE_LOOP('',(#267));
#194=EDGE_LOOP('',(#268));
#195=EDGE_LOOP('',(#269));
#196=EDGE_LOOP('',(#270));
#197=EDGE_LOOP('',(#271));
#198=EDGE_LOOP('',(#272));
#199=EDGE_LOOP('',(#273));
#200=EDGE_LOOP('',(#274));
#201=EDGE_LOOP('',(#275));
#202=EDGE_LOOP('',(#276));
#203=EDGE_LOOP('',(#277));
#204=ORIENTED_EDGE('',*,*,#307,.F.);
#205=ORIENTED_EDGE('',*,*,#308,.T.);
#206=ORIENTED_EDGE('',*,*,#309,.F.);
#207=ORIENTED_EDGE('',*,*,#310,.T.);
#208=ORIENTED_EDGE('',*,*,#307,.T.);
#209=ORIENTED_EDGE('',*,*,#309,.T.);
#210=ORIENTED_EDGE('',*,*,#311,.T.);
#211=ORIENTED_EDGE('',*,*,#312,.F.);
#212=ORIENTED_EDGE('',*,*,#313,.T.);
#213=ORIENTED_EDGE('',*,*,#314,.F.);
#214=ORIENTED_EDGE('',*,*,#315,.T.);
#215=ORIENTED_EDGE('',*,*,#316,.T.);
#216=ORIENTED_EDGE('',*,*,#317,.T.);
#217=ORIENTED_EDGE('',*,*,#313,.F.);
#218=ORIENTED_EDGE('',*,*,#318,.T.);
#219=ORIENTED_EDGE('',*,*,#316,.F.);
#220=ORIENTED_EDGE('',*,*,#319,.F.);
#221=ORIENTED_EDGE('',*,*,#320,.F.);
#222=ORIENTED_EDGE('',*,*,#321,.F.);
#223=ORIENTED_EDGE('',*,*,#322,.F.);
#224=ORIENTED_EDGE('',*,*,#323,.T.);
#225=ORIENTED_EDGE('',*,*,#324,.F.);
#226=ORIENTED_EDGE('',*,*,#325,.T.);
#227=ORIENTED_EDGE('',*,*,#326,.F.);
#228=ORIENTED_EDGE('',*,*,#327,.T.);
#229=ORIENTED_EDGE('',*,*,#322,.T.);
#230=ORIENTED_EDGE('',*,*,#328,.T.);
#231=ORIENTED_EDGE('',*,*,#329,.F.);
#232=ORIENTED_EDGE('',*,*,#326,.T.);
#233=ORIENTED_EDGE('',*,*,#330,.F.);
#234=ORIENTED_EDGE('',*,*,#331,.F.);
#235=ORIENTED_EDGE('',*,*,#327,.F.);
#236=ORIENTED_EDGE('',*,*,#329,.T.);
#237=ORIENTED_EDGE('',*,*,#332,.F.);
#238=ORIENTED_EDGE('',*,*,#323,.F.);
#239=ORIENTED_EDGE('',*,*,#317,.F.);
#240=ORIENTED_EDGE('',*,*,#321,.T.);
#241=ORIENTED_EDGE('',*,*,#333,.F.);
#242=ORIENTED_EDGE('',*,*,#334,.F.);
#243=ORIENTED_EDGE('',*,*,#335,.F.);
#244=ORIENTED_EDGE('',*,*,#314,.T.);
#245=ORIENTED_EDGE('',*,*,#334,.T.);
#246=ORIENTED_EDGE('',*,*,#336,.F.);
#247=ORIENTED_EDGE('',*,*,#315,.F.);
#248=ORIENTED_EDGE('',*,*,#335,.T.);
#249=ORIENTED_EDGE('',*,*,#337,.F.);
#250=ORIENTED_EDGE('',*,*,#319,.T.);
#251=ORIENTED_EDGE('',*,*,#328,.F.);
#252=ORIENTED_EDGE('',*,*,#325,.F.);
#253=ORIENTED_EDGE('',*,*,#338,.T.);
#254=ORIENTED_EDGE('',*,*,#330,.T.);
#255=ORIENTED_EDGE('',*,*,#324,.T.);
#256=ORIENTED_EDGE('',*,*,#332,.T.);
#257=ORIENTED_EDGE('',*,*,#331,.T.);
#258=ORIENTED_EDGE('',*,*,#338,.F.);
#259=ORIENTED_EDGE('',*,*,#339,.T.);
#260=ORIENTED_EDGE('',*,*,#337,.T.);
#261=ORIENTED_EDGE('',*,*,#336,.T.);
#262=ORIENTED_EDGE('',*,*,#333,.T.);
#263=ORIENTED_EDGE('',*,*,#320,.T.);
#264=ORIENTED_EDGE('',*,*,#318,.F.);
#265=ORIENTED_EDGE('',*,*,#339,.F.);
#266=ORIENTED_EDGE('',*,*,#311,.F.);
#267=ORIENTED_EDGE('',*,*,#312,.T.);
#268=ORIENTED_EDGE('',*,*,#340,.T.);
#269=ORIENTED_EDGE('',*,*,#310,.F.);
#270=ORIENTED_EDGE('',*,*,#341,.F.);
#271=ORIENTED_EDGE('',*,*,#342,.T.);
#272=ORIENTED_EDGE('',*,*,#343,.F.);
#273=ORIENTED_EDGE('',*,*,#341,.T.);
#274=ORIENTED_EDGE('',*,*,#342,.F.);
#275=ORIENTED_EDGE('',*,*,#343,.T.);
#276=ORIENTED_EDGE('',*,*,#340,.F.);
#277=ORIENTED_EDGE('',*,*,#308,.F.);
#278=VERTEX_POINT('',#530);
#279=VERTEX_POINT('',#532);
#280=VERTEX_POINT('',#535);
#281=VERTEX_POINT('',#537);
#282=VERTEX_POINT('',#541);
#283=VERTEX_POINT('',#543);
#284=VERTEX_POINT('',#546);
#285=VERTEX_POINT('',#549);
#286=VERTEX_POINT('',#550);
#287=VERTEX_POINT('',#552);
#288=VERTEX_POINT('',#554);
#289=VERTEX_POINT('',#558);
#290=VERTEX_POINT('',#561);
#291=VERTEX_POINT('',#563);
#292=VERTEX_POINT('',#567);
#293=VERTEX_POINT('',#568);
#294=VERTEX_POINT('',#570);
#295=VERTEX_POINT('',#572);
#296=VERTEX_POINT('',#576);
#297=VERTEX_POINT('',#577);
#298=VERTEX_POINT('',#582);
#299=VERTEX_POINT('',#584);
#300=VERTEX_POINT('',#590);
#301=VERTEX_POINT('',#594);
#302=VERTEX_POINT('',#602);
#303=VERTEX_POINT('',#606);
#304=VERTEX_POINT('',#609);
#305=VERTEX_POINT('',#612);
#306=VERTEX_POINT('',#614);
#307=EDGE_CURVE('',#278,#278,#344,.T.);
#308=EDGE_CURVE('',#279,#279,#345,.T.);
#309=EDGE_CURVE('',#280,#280,#346,.T.);
#310=EDGE_CURVE('',#281,#281,#347,.T.);
#311=EDGE_CURVE('',#282,#282,#348,.T.);
#312=EDGE_CURVE('',#283,#283,#349,.T.);
#313=EDGE_CURVE('',#284,#284,#350,.T.);
#314=EDGE_CURVE('',#285,#286,#32,.T.);
#315=EDGE_CURVE('',#285,#287,#33,.T.);
#316=EDGE_CURVE('',#287,#288,#34,.T.);
#317=EDGE_CURVE('',#288,#286,#35,.T.);
#318=EDGE_CURVE('',#289,#289,#351,.T.);
#319=EDGE_CURVE('',#290,#287,#36,.T.);
#320=EDGE_CURVE('',#291,#290,#37,.T.);
#321=EDGE_CURVE('',#288,#291,#38,.T.);
#322=EDGE_CURVE('',#292,#293,#39,.T.);
#323=EDGE_CURVE('',#292,#294,#40,.T.);
#324=EDGE_CURVE('',#295,#294,#41,.T.);
#325=EDGE_CURVE('',#295,#293,#42,.T.);
#326=EDGE_CURVE('',#296,#297,#43,.T.);
#327=EDGE_CURVE('',#296,#292,#44,.T.);
#328=EDGE_CURVE('',#293,#297,#45,.T.);
#329=EDGE_CURVE('',#296,#298,#46,.T.);
#330=EDGE_CURVE('',#299,#297,#47,.T.);
#331=EDGE_CURVE('',#298,#299,#48,.T.);
#332=EDGE_CURVE('',#294,#298,#49,.T.);
#333=EDGE_CURVE('',#300,#291,#50,.T.);
#334=EDGE_CURVE('',#286,#300,#51,.T.);
#335=EDGE_CURVE('',#285,#301,#52,.T.);
#336=EDGE_CURVE('',#301,#300,#53,.T.);
#337=EDGE_CURVE('',#290,#301,#54,.T.);
#338=EDGE_CURVE('',#295,#299,#55,.T.);
#339=EDGE_CURVE('',#302,#302,#352,.T.);
#340=EDGE_CURVE('',#303,#303,#353,.T.);
#341=EDGE_CURVE('',#304,#304,#354,.T.);
#342=EDGE_CURVE('',#305,#305,#355,.T.);
#343=EDGE_CURVE('',#306,#306,#356,.T.);
#344=CIRCLE('',#382,22.225);
#345=CIRCLE('',#383,12.69);
#346=CIRCLE('',#385,22.225);
#347=CIRCLE('',#386,31.5);
#348=CIRCLE('',#389,19.);
#349=CIRCLE('',#390,31.5);
#350=CIRCLE('',#392,8.00000000000001);
#351=CIRCLE('',#395,8.00000000000001);
#352=CIRCLE('',#406,19.);
#353=CIRCLE('',#409,31.5);
#354=CIRCLE('',#411,31.5);
#355=CIRCLE('',#413,26.5);
#356=CIRCLE('',#414,26.5);
#357=INVISIBILITY((#358,#359,#360));
#358=PRESENTATION_LAYER_ASSIGNMENT('100','Layer 100',(#379));
#359=PRESENTATION_LAYER_ASSIGNMENT('101','Layer 101',(#380));
#360=PRESENTATION_LAYER_ASSIGNMENT('102','Layer 102',(#381));
#361=PRESENTATION_LAYER_ASSIGNMENT('98','Layer 98',(#30));
#362=STYLED_ITEM('',(#366),#379);
#363=STYLED_ITEM('',(#367),#380);
#364=STYLED_ITEM('',(#368),#381);
#365=STYLED_ITEM('',(#369),#30);
#366=PRESENTATION_STYLE_ASSIGNMENT((#370));
#367=PRESENTATION_STYLE_ASSIGNMENT((#371));
#368=PRESENTATION_STYLE_ASSIGNMENT((#372));
#369=PRESENTATION_STYLE_ASSIGNMENT((#25));
#370=CURVE_STYLE('',#375,POSITIVE_LENGTH_MEASURE(0.7),#373);
#371=CURVE_STYLE('',#376,POSITIVE_LENGTH_MEASURE(0.7),#373);
#372=CURVE_STYLE('',#377,POSITIVE_LENGTH_MEASURE(0.7),#373);
#373=COLOUR_RGB('Medium Maroon',0.6,0.4,0.4);
#374=COLOUR_RGB('Medium Gray',0.490196078431373,0.490196078431373,0.490196078431373);
#375=DRAUGHTING_PRE_DEFINED_CURVE_FONT('continuous');
#376=DRAUGHTING_PRE_DEFINED_CURVE_FONT('continuous');
#377=DRAUGHTING_PRE_DEFINED_CURVE_FONT('continuous');
#378=AXIS2_PLACEMENT_3D('',#525,#419,#420);
#379=AXIS2_PLACEMENT_3D('PCS',#526,#421,#422);
#380=AXIS2_PLACEMENT_3D('CSW',#527,#423,#424);
#381=AXIS2_PLACEMENT_3D('MCS',#528,#425,#426);
#382=AXIS2_PLACEMENT_3D('',#529,#427,#428);
#383=AXIS2_PLACEMENT_3D('',#531,#429,#430);
#384=AXIS2_PLACEMENT_3D('',#533,#431,#432);
#385=AXIS2_PLACEMENT_3D('',#534,#433,#434);
#386=AXIS2_PLACEMENT_3D('',#536,#435,#436);
#387=AXIS2_PLACEMENT_3D('',#538,#437,#438);
#388=AXIS2_PLACEMENT_3D('',#539,#439,#440);
#389=AXIS2_PLACEMENT_3D('',#540,#441,#442);
#390=AXIS2_PLACEMENT_3D('',#542,#443,#444);
#391=AXIS2_PLACEMENT_3D('',#544,#445,#446);
#392=AXIS2_PLACEMENT_3D('',#545,#447,#448);
#393=AXIS2_PLACEMENT_3D('',#547,#449,#450);
#394=AXIS2_PLACEMENT_3D('',#556,#455,#456);
#395=AXIS2_PLACEMENT_3D('',#557,#457,#458);
#396=AXIS2_PLACEMENT_3D('',#559,#459,#460);
#397=AXIS2_PLACEMENT_3D('',#565,#464,#465);
#398=AXIS2_PLACEMENT_3D('',#574,#470,#471);
#399=AXIS2_PLACEMENT_3D('',#580,#475,#476);
#400=AXIS2_PLACEMENT_3D('',#586,#480,#481);
#401=AXIS2_PLACEMENT_3D('',#588,#483,#484);
#402=AXIS2_PLACEMENT_3D('',#592,#487,#488);
#403=AXIS2_PLACEMENT_3D('',#596,#491,#492);
#404=AXIS2_PLACEMENT_3D('',#598,#494,#495);
#405=AXIS2_PLACEMENT_3D('',#600,#497,#498);
#406=AXIS2_PLACEMENT_3D('',#601,#499,#500);
#407=AXIS2_PLACEMENT_3D('',#603,#501,#502);
#408=AXIS2_PLACEMENT_3D('',#604,#503,#504);
#409=AXIS2_PLACEMENT_3D('',#605,#505,#506);
#410=AXIS2_PLACEMENT_3D('',#607,#507,#508);
#411=AXIS2_PLACEMENT_3D('',#608,#509,#510);
#412=AXIS2_PLACEMENT_3D('',#610,#511,#512);
#413=AXIS2_PLACEMENT_3D('',#611,#513,#514);
#414=AXIS2_PLACEMENT_3D('',#613,#515,#516);
#415=AXIS2_PLACEMENT_3D('',#615,#517,#518);
#416=AXIS2_PLACEMENT_3D('',#616,#519,#520);
#417=AXIS2_PLACEMENT_3D('',#617,#521,#522);
#418=AXIS2_PLACEMENT_3D('',#618,#523,#524);
#419=DIRECTION('',(0.,0.,1.));
#420=DIRECTION('',(1.,0.,0.));
#421=DIRECTION('',(0.,0.,1.));
#422=DIRECTION('',(1.,0.,0.));
#423=DIRECTION('',(0.,0.,1.));
#424=DIRECTION('',(1.,0.,0.));
#425=DIRECTION('',(0.,0.,1.));
#426=DIRECTION('',(1.,0.,0.));
#427=DIRECTION('',(0.,0.,-1.));
#428=DIRECTION('',(-1.,0.,0.));
#429=DIRECTION('',(0.,0.,-1.));
#430=DIRECTION('',(1.,0.,0.));
#431=DIRECTION('',(-3.395177E-17,0.,-1.));
#432=DIRECTION('',(1.,0.,-3.40032249652341E-16));
#433=DIRECTION('',(0.,0.,1.));
#434=DIRECTION('',(1.,0.,0.));
#435=DIRECTION('',(0.,0.,1.));
#436=DIRECTION('',(1.,0.,0.));
#437=DIRECTION('',(0.,0.,1.));
#438=DIRECTION('',(-1.,0.,0.));
#439=DIRECTION('',(-3.395177E-17,0.,-1.));
#440=DIRECTION('',(1.,0.,-2.92697999321171E-17));
#441=DIRECTION('',(0.,0.,1.));
#442=DIRECTION('',(0.,1.,0.));
#443=DIRECTION('',(0.,0.,1.));
#444=DIRECTION('',(-1.,0.,0.));
#445=DIRECTION('',(0.,0.,-1.));
#446=DIRECTION('',(1.,0.,0.));
#447=DIRECTION('',(0.,0.,-1.));
#448=DIRECTION('',(-1.,0.,0.));
#449=DIRECTION('',(0.,0.,-1.));
#450=DIRECTION('',(1.,0.,0.));
#451=DIRECTION('',(1.,0.,0.));
#452=DIRECTION('',(0.,1.,0.));
#453=DIRECTION('',(1.,0.,0.));
#454=DIRECTION('',(0.,-1.,0.));
#455=DIRECTION('',(0.,0.,-1.));
#456=DIRECTION('',(-1.,0.,0.));
#457=DIRECTION('',(0.,0.,-1.));
#458=DIRECTION('',(0.,1.,0.));
#459=DIRECTION('',(0.,0.,-1.));
#460=DIRECTION('',(0.,-1.,0.));
#461=DIRECTION('',(0.,0.,-1.));
#462=DIRECTION('',(-1.,0.,0.));
#463=DIRECTION('',(0.,0.,1.));
#464=DIRECTION('',(0.,1.,0.));
#465=DIRECTION('',(0.,0.,-1.));
#466=DIRECTION('',(-1.,0.,0.));
#467=DIRECTION('',(0.,0.,1.));
#468=DIRECTION('',(1.,0.,0.));
#469=DIRECTION('',(0.,0.,-1.));
#470=DIRECTION('',(0.,1.,0.));
#471=DIRECTION('',(0.,0.,-1.));
#472=DIRECTION('',(-1.,0.,0.));
#473=DIRECTION('',(0.,-1.,0.));
#474=DIRECTION('',(0.,1.,0.));
#475=DIRECTION('',(0.,0.,1.));
#476=DIRECTION('',(-1.,0.,0.));
#477=DIRECTION('',(0.,0.,1.));
#478=DIRECTION('',(0.,0.,-1.));
#479=DIRECTION('',(-1.,0.,0.));
#480=DIRECTION('',(0.,1.,0.));
#481=DIRECTION('',(0.,0.,-1.));
#482=DIRECTION('',(0.,1.,0.));
#483=DIRECTION('',(-1.,0.,0.));
#484=DIRECTION('',(0.,0.,-1.));
#485=DIRECTION('',(0.,1.,0.));
#486=DIRECTION('',(0.,0.,1.));
#487=DIRECTION('',(1.,0.,0.));
#488=DIRECTION('',(0.,0.,-1.));
#489=DIRECTION('',(0.,0.,1.));
#490=DIRECTION('',(1.,0.,0.));
#491=DIRECTION('',(0.,1.,0.));
#492=DIRECTION('',(0.,0.,-1.));
#493=DIRECTION('',(0.,-1.,0.));
#494=DIRECTION('',(-1.,0.,0.));
#495=DIRECTION('',(0.,0.,1.));
#496=DIRECTION('',(0.,1.,0.));
#497=DIRECTION('',(1.,0.,0.));
#498=DIRECTION('',(0.,0.,1.));
#499=DIRECTION('',(0.,0.,-1.));
#500=DIRECTION('',(-1.,0.,0.));
#501=DIRECTION('',(0.,0.,-1.));
#502=DIRECTION('',(1.,0.,0.));
#503=DIRECTION('',(0.,0.,-1.));
#504=DIRECTION('',(0.,-1.,0.));
#505=DIRECTION('',(0.,0.,-1.));
#506=DIRECTION('',(-1.,0.,0.));
#507=DIRECTION('',(-3.395177E-17,0.,-1.));
#508=DIRECTION('',(1.,0.,0.));
#509=DIRECTION('',(0.,0.,-1.));
#510=DIRECTION('',(-1.,0.,0.));
#511=DIRECTION('',(-3.395177E-17,0.,-1.));
#512=DIRECTION('',(1.,0.,-2.75352932694731E-17));
#513=DIRECTION('',(0.,0.,-1.));
#514=DIRECTION('',(-1.,0.,0.));
#515=DIRECTION('',(0.,0.,-1.));
#516=DIRECTION('',(-1.,0.,0.));
#517=DIRECTION('',(-3.395177E-17,0.,-1.));
#518=DIRECTION('',(1.,0.,0.));
#519=DIRECTION('',(3.395177E-17,0.,1.));
#520=DIRECTION('',(1.,0.,-9.45648206048482E-17));
#521=DIRECTION('',(-3.395177E-17,0.,-1.));
#522=DIRECTION('',(1.,0.,-3.94020085853534E-17));
#523=DIRECTION('',(0.,0.,1.));
#524=DIRECTION('',(-1.,0.,0.));
#525=CARTESIAN_POINT('',(0.,0.,0.));
#526=CARTESIAN_POINT('',(0.,0.,0.));
#527=CARTESIAN_POINT('',(0.,0.,-300.));
#528=CARTESIAN_POINT('',(0.,0.,0.));
#529=CARTESIAN_POINT('',(0.,0.,0.));
#530=CARTESIAN_POINT('',(-22.225,0.,0.));
#531=CARTESIAN_POINT('',(2.15763035436704E-15,0.,65.4));
#532=CARTESIAN_POINT('',(12.69,0.,65.4));
#533=CARTESIAN_POINT('',(1.110223E-15,0.,32.7));
#534=CARTESIAN_POINT('',(-6.79035399999999E-17,0.,-2.));
#535=CARTESIAN_POINT('',(22.225,0.,-2.));
#536=CARTESIAN_POINT('',(-6.79036141670154E-17,0.,-2.));
#537=CARTESIAN_POINT('',(31.5,0.,-2.));
#538=CARTESIAN_POINT('',(-26.8625,0.,-2.));
#539=CARTESIAN_POINT('',(-3.395177E-17,0.,-1.));
#540=CARTESIAN_POINT('',(0.,0.,-27.));
#541=CARTESIAN_POINT('',(0.,19.,-27.));
#542=CARTESIAN_POINT('',(-9.16697868832985E-16,0.,-27.));
#543=CARTESIAN_POINT('',(-31.5,0.,-27.));
#544=CARTESIAN_POINT('',(-15.75,0.,-27.));
#545=CARTESIAN_POINT('',(0.,0.,-317.));
#546=CARTESIAN_POINT('',(-8.00000000000001,0.,-317.));
#547=CARTESIAN_POINT('',(0.,4.00000000000001,-317.));
#548=CARTESIAN_POINT('',(-4.00000000000001,-18.5,-305.));
#549=CARTESIAN_POINT('',(-4.00000000000001,-18.5,-305.));
#550=CARTESIAN_POINT('',(3.99999999999999,-18.5000000000002,-305.));
#551=CARTESIAN_POINT('',(-4.00000000000001,-11.5,-305.));
#552=CARTESIAN_POINT('',(-4.00000000000001,-11.5,-305.));
#553=CARTESIAN_POINT('',(-4.00000000000001,-11.5,-305.));
#554=CARTESIAN_POINT('',(3.99999999999999,-11.5,-305.));
#555=CARTESIAN_POINT('',(3.99999999999999,-11.5,-305.));
#556=CARTESIAN_POINT('',(-4.00000000000001,-11.5,-305.));
#557=CARTESIAN_POINT('',(0.,0.,-300.));
#558=CARTESIAN_POINT('',(0.,8.00000000000001,-300.));
#559=CARTESIAN_POINT('',(0.,0.,-308.5));
#560=CARTESIAN_POINT('',(-4.00000000000001,-11.5,-300.));
#561=CARTESIAN_POINT('',(-4.00000000000001,-11.5,-300.));
#562=CARTESIAN_POINT('',(3.99999999999999,-11.5,-300.));
#563=CARTESIAN_POINT('',(3.99999999999999,-11.5,-300.));
#564=CARTESIAN_POINT('',(3.99999999999999,-11.5,-304.5));
#565=CARTESIAN_POINT('',(-5.189453E-15,-11.5,-297.733979116383));
#566=CARTESIAN_POINT('',(-4.00000000000001,11.5,-305.));
#567=CARTESIAN_POINT('',(3.99999999999999,11.5,-305.));
#568=CARTESIAN_POINT('',(-4.00000000000001,11.5,-305.));
#569=CARTESIAN_POINT('',(3.99999999999999,11.5,-304.5));
#570=CARTESIAN_POINT('',(3.99999999999999,11.5,-300.));
#571=CARTESIAN_POINT('',(-4.,11.5,-300.));
#572=CARTESIAN_POINT('',(-4.,11.5,-300.));
#573=CARTESIAN_POINT('',(-4.00000000000001,11.5,-300.));
#574=CARTESIAN_POINT('',(-5.189453E-15,11.5,-297.733979116383));
#575=CARTESIAN_POINT('',(-4.00000000000001,18.5,-305.));
#576=CARTESIAN_POINT('',(3.99999999999999,18.5,-305.));
#577=CARTESIAN_POINT('',(-4.00000000000001,18.5000000000002,-305.));
#578=CARTESIAN_POINT('',(3.99999999999999,11.5,-305.));
#579=CARTESIAN_POINT('',(-4.00000000000001,11.5,-305.));
#580=CARTESIAN_POINT('',(-4.00000000000001,11.5,-305.));
#581=CARTESIAN_POINT('',(4.,18.5,-304.5));
#582=CARTESIAN_POINT('',(4.,18.5,-300.));
#583=CARTESIAN_POINT('',(-4.00000000000001,18.5,-299.572506769252));
#584=CARTESIAN_POINT('',(-4.00000000000001,18.5,-300.));
#585=CARTESIAN_POINT('',(0.,18.5,-300.));
#586=CARTESIAN_POINT('',(-9.075234E-15,18.5,-297.733979116383));
#587=CARTESIAN_POINT('',(3.99999999999999,11.5,-300.));
#588=CARTESIAN_POINT('',(3.99999999999999,11.5,-305.));
#589=CARTESIAN_POINT('',(3.99999999999999,-18.0623918681884,-300.));
#590=CARTESIAN_POINT('',(3.99999999999999,-18.5,-300.));
#591=CARTESIAN_POINT('',(3.99999999999999,-18.5,-304.5));
#592=CARTESIAN_POINT('',(3.99999999999999,-11.5,-305.));
#593=CARTESIAN_POINT('',(-4.00000000000001,-18.5,-304.5));
#594=CARTESIAN_POINT('',(-4.00000000000001,-18.5,-300.));
#595=CARTESIAN_POINT('',(-9.075234E-15,-18.5,-300.));
#596=CARTESIAN_POINT('',(-9.075234E-15,-18.5,-297.733979116383));
#597=CARTESIAN_POINT('',(-4.00000000000001,13.5,-300.));
#598=CARTESIAN_POINT('',(-4.00000000000001,-11.5,-292.));
#599=CARTESIAN_POINT('',(-4.,18.0623918681884,-300.));
#600=CARTESIAN_POINT('',(-4.00000000000001,11.5,-292.));
#601=CARTESIAN_POINT('',(0.,0.,-300.));
#602=CARTESIAN_POINT('',(-19.,0.,-300.));
#603=CARTESIAN_POINT('',(0.,13.5,-300.));
#604=CARTESIAN_POINT('',(0.,0.,-88.5));
#605=CARTESIAN_POINT('',(-7.333533E-16,0.,-21.5998533311822));
#606=CARTESIAN_POINT('',(-31.5,0.,-21.5998533311822));
#607=CARTESIAN_POINT('',(-8.250256E-16,0.,-24.2999266655911));
#608=CARTESIAN_POINT('',(-3.938456E-16,0.,-11.6001466688178));
#609=CARTESIAN_POINT('',(-31.5,0.,-11.6001466688178));
#610=CARTESIAN_POINT('',(-2.308746E-16,0.,-6.80007333440892));
#611=CARTESIAN_POINT('',(-4.918559E-16,0.,-14.486898014766));
#612=CARTESIAN_POINT('',(-26.5,0.,-14.486898014766));
#613=CARTESIAN_POINT('',(-6.35343E-16,0.,-18.713101985234));
#614=CARTESIAN_POINT('',(-26.5,0.,-18.713101985234));
#615=CARTESIAN_POINT('',(-5.635995E-16,0.,-16.6));
#616=CARTESIAN_POINT('',(-4.428507E-16,0.,-13.0435223417919));
#617=CARTESIAN_POINT('',(-6.843482E-16,0.,-20.1564776582081));
#618=CARTESIAN_POINT('',(-9.845,0.,65.4));
#619=MECHANICAL_DESIGN_GEOMETRIC_PRESENTATION_REPRESENTATION('',(#362,#363,
#364,#365),#620);
#620=(
GEOMETRIC_REPRESENTATION_CONTEXT(3)
GLOBAL_UNCERTAINTY_ASSIGNED_CONTEXT((#621))
GLOBAL_UNIT_ASSIGNED_CONTEXT((#627,#623,#622))
REPRESENTATION_CONTEXT('oznaceni_DOCUMENTNUMBERndi000_00_SIM',
'TOP_LEVEL_ASSEMBLY_PART')
);
#621=UNCERTAINTY_MEASURE_WITH_UNIT(LENGTH_MEASURE(2.E-5),#627,
'DISTANCE_ACCURACY_VALUE','Maximum Tolerance applied to model');
#622=(
NAMED_UNIT(*)
SI_UNIT($,.STERADIAN.)
SOLID_ANGLE_UNIT()
);
#623=(
CONVERSION_BASED_UNIT('DEGREE',#625)
NAMED_UNIT(#624)
PLANE_ANGLE_UNIT()
);
#624=DIMENSIONAL_EXPONENTS(0.,0.,0.,0.,0.,0.,0.);
#625=PLANE_ANGLE_MEASURE_WITH_UNIT(PLANE_ANGLE_MEASURE(0.0174532925),#626);
#626=(
NAMED_UNIT(*)
PLANE_ANGLE_UNIT()
SI_UNIT($,.RADIAN.)
);
#627=(
LENGTH_UNIT()
NAMED_UNIT(*)
SI_UNIT(.MILLI.,.METRE.)
);
ENDSEC;
END-ISO-10303-21;
