ISO-10303-21;
HEADER;
/* Generated by software containing ST-Developer
 * from STEP Tools, Inc. (www.steptools.com) 
 */
/* OPTION: using custom schema-name function */

FILE_DESCRIPTION(
/* description */ (''),
/* implementation_level */ '2;1');

FILE_NAME(
/* name */ 'oznaceni_DOCUMENTNUMBERndi000_00_SIM.stp',
/* time_stamp */ '2023-07-13T09:41:17+02:00',
/* author */ (''),
/* organization */ (''),
/* preprocessor_version */ 'ST-DEVELOPER v16.7',
/* originating_system */ 'SIEMENS PLM Software NX 12.0',
/* authorisation */ '');

FILE_SCHEMA (('AUTOMOTIVE_DESIGN { 1 0 10303 214 3 1 1 1 }'));
ENDSEC;

DATA;
#10=CONSTRUCTIVE_GEOMETRY_REPRESENTATION_RELATIONSHIP(
'supplemental geometry','',#24,#11);
#11=CONSTRUCTIVE_GEOMETRY_REPRESENTATION('supplemental geometry',(#254,
#255,#256),#436);
#12=SHAPE_REPRESENTATION_RELATIONSHIP('None',
'relationship between 204825600ndi000_00-None and 204825600ndi000_00-N
one',#24,#13);
#13=ADVANCED_BREP_SHAPE_REPRESENTATION('204825600ndi000_00-None',(#30),
#436);
#14=SHAPE_DEFINITION_REPRESENTATION(#15,#24);
#15=PRODUCT_DEFINITION_SHAPE('','',#16);
#16=PRODUCT_DEFINITION(' ','',#18,#17);
#17=PRODUCT_DEFINITION_CONTEXT('part definition',#23,'design');
#18=PRODUCT_DEFINITION_FORMATION_WITH_SPECIFIED_SOURCE(' ',' ',#20,
 .NOT_KNOWN.);
#19=PRODUCT_RELATED_PRODUCT_CATEGORY('part','',(#20));
#20=PRODUCT('204825600ndi000_00','204825600ndi000_00',' ',(#21));
#21=PRODUCT_CONTEXT(' ',#23,'mechanical');
#22=APPLICATION_PROTOCOL_DEFINITION('international standard',
'automotive_design',2010,#23);
#23=APPLICATION_CONTEXT(
'core data for automotive mechanical design processes');
#24=SHAPE_REPRESENTATION('204825600ndi000_00-None',(#253),#436);
#25=SURFACE_STYLE_USAGE(.BOTH.,#26);
#26=SURFACE_SIDE_STYLE('',(#27));
#27=SURFACE_STYLE_FILL_AREA(#28);
#28=FILL_AREA_STYLE('',(#29));
#29=FILL_AREA_STYLE_COLOUR('',#249);
#30=MANIFOLD_SOLID_BREP('',#31);
#31=CLOSED_SHELL('',(#47,#48,#49,#50,#51,#52,#53,#54,#55,#56,#57,#58,#59,
#60,#61,#62,#63,#64,#65));
#32=FACE_OUTER_BOUND('',#128,.T.);
#33=FACE_OUTER_BOUND('',#131,.T.);
#34=TOROIDAL_SURFACE('',#279,13.,3.);
#35=PLANE('',#264);
#36=PLANE('',#268);
#37=PLANE('',#271);
#38=PLANE('',#274);
#39=PLANE('',#281);
#40=PLANE('',#284);
#41=PLANE('',#292);
#42=CONICAL_SURFACE('',#262,30.3362976321,60.);
#43=CONICAL_SURFACE('',#269,30.3362976321,60.);
#44=CONICAL_SURFACE('',#276,8.786263421037,4.5);
#45=CONICAL_SURFACE('',#286,17.22700515033,8.2971);
#46=CONICAL_SURFACE('',#288,21.98938972034,15.);
#47=ADVANCED_FACE('',(#72,#73),#66,.T.);
#48=ADVANCED_FACE('',(#74,#75),#42,.T.);
#49=ADVANCED_FACE('',(#76,#77),#35,.T.);
#50=ADVANCED_FACE('',(#78,#79),#67,.T.);
#51=ADVANCED_FACE('',(#80,#81),#36,.F.);
#52=ADVANCED_FACE('',(#82,#83),#43,.T.);
#53=ADVANCED_FACE('',(#84,#85),#37,.T.);
#54=ADVANCED_FACE('',(#86,#87),#38,.T.);
#55=ADVANCED_FACE('',(#88,#89),#44,.T.);
#56=ADVANCED_FACE('',(#90,#91),#68,.T.);
#57=ADVANCED_FACE('',(#92,#93),#34,.F.);
#58=ADVANCED_FACE('',(#32),#39,.F.);
#59=ADVANCED_FACE('',(#94,#95),#69,.F.);
#60=ADVANCED_FACE('',(#33),#40,.F.);
#61=ADVANCED_FACE('',(#96,#97),#45,.T.);
#62=ADVANCED_FACE('',(#98,#99),#46,.T.);
#63=ADVANCED_FACE('',(#100,#101),#70,.T.);
#64=ADVANCED_FACE('',(#102,#103),#41,.F.);
#65=ADVANCED_FACE('',(#104,#105),#71,.T.);
#66=CYLINDRICAL_SURFACE('',#259,31.775);
#67=CYLINDRICAL_SURFACE('',#266,27.925);
#68=CYLINDRICAL_SURFACE('',#278,10.);
#69=CYLINDRICAL_SURFACE('',#282,2.);
#70=CYLINDRICAL_SURFACE('',#290,21.87916746823);
#71=CYLINDRICAL_SURFACE('',#293,31.775);
#72=FACE_BOUND('',#106,.T.);
#73=FACE_BOUND('',#107,.T.);
#74=FACE_BOUND('',#108,.T.);
#75=FACE_BOUND('',#109,.T.);
#76=FACE_BOUND('',#110,.T.);
#77=FACE_BOUND('',#111,.T.);
#78=FACE_BOUND('',#112,.T.);
#79=FACE_BOUND('',#113,.T.);
#80=FACE_BOUND('',#114,.T.);
#81=FACE_BOUND('',#115,.T.);
#82=FACE_BOUND('',#116,.T.);
#83=FACE_BOUND('',#117,.T.);
#84=FACE_BOUND('',#118,.T.);
#85=FACE_BOUND('',#119,.T.);
#86=FACE_BOUND('',#120,.T.);
#87=FACE_BOUND('',#121,.T.);
#88=FACE_BOUND('',#122,.T.);
#89=FACE_BOUND('',#123,.T.);
#90=FACE_BOUND('',#124,.T.);
#91=FACE_BOUND('',#125,.T.);
#92=FACE_BOUND('',#126,.T.);
#93=FACE_BOUND('',#127,.T.);
#94=FACE_BOUND('',#129,.T.);
#95=FACE_BOUND('',#130,.T.);
#96=FACE_BOUND('',#132,.T.);
#97=FACE_BOUND('',#133,.T.);
#98=FACE_BOUND('',#134,.T.);
#99=FACE_BOUND('',#135,.T.);
#100=FACE_BOUND('',#136,.T.);
#101=FACE_BOUND('',#137,.T.);
#102=FACE_BOUND('',#138,.T.);
#103=FACE_BOUND('',#139,.T.);
#104=FACE_BOUND('',#140,.T.);
#105=FACE_BOUND('',#141,.T.);
#106=EDGE_LOOP('',(#142));
#107=EDGE_LOOP('',(#143));
#108=EDGE_LOOP('',(#144));
#109=EDGE_LOOP('',(#145));
#110=EDGE_LOOP('',(#146));
#111=EDGE_LOOP('',(#147));
#112=EDGE_LOOP('',(#148));
#113=EDGE_LOOP('',(#149));
#114=EDGE_LOOP('',(#150));
#115=EDGE_LOOP('',(#151));
#116=EDGE_LOOP('',(#152));
#117=EDGE_LOOP('',(#153));
#118=EDGE_LOOP('',(#154));
#119=EDGE_LOOP('',(#155));
#120=EDGE_LOOP('',(#156));
#121=EDGE_LOOP('',(#157));
#122=EDGE_LOOP('',(#158));
#123=EDGE_LOOP('',(#159));
#124=EDGE_LOOP('',(#160));
#125=EDGE_LOOP('',(#161));
#126=EDGE_LOOP('',(#162));
#127=EDGE_LOOP('',(#163));
#128=EDGE_LOOP('',(#164));
#129=EDGE_LOOP('',(#165));
#130=EDGE_LOOP('',(#166));
#131=EDGE_LOOP('',(#167));
#132=EDGE_LOOP('',(#168));
#133=EDGE_LOOP('',(#169));
#134=EDGE_LOOP('',(#170));
#135=EDGE_LOOP('',(#171));
#136=EDGE_LOOP('',(#172));
#137=EDGE_LOOP('',(#173));
#138=EDGE_LOOP('',(#174));
#139=EDGE_LOOP('',(#175));
#140=EDGE_LOOP('',(#176));
#141=EDGE_LOOP('',(#177));
#142=ORIENTED_EDGE('',*,*,#196,.T.);
#143=ORIENTED_EDGE('',*,*,#197,.T.);
#144=ORIENTED_EDGE('',*,*,#198,.T.);
#145=ORIENTED_EDGE('',*,*,#199,.F.);
#146=ORIENTED_EDGE('',*,*,#200,.F.);
#147=ORIENTED_EDGE('',*,*,#199,.T.);
#148=ORIENTED_EDGE('',*,*,#201,.F.);
#149=ORIENTED_EDGE('',*,*,#200,.T.);
#150=ORIENTED_EDGE('',*,*,#202,.F.);
#151=ORIENTED_EDGE('',*,*,#201,.T.);
#152=ORIENTED_EDGE('',*,*,#202,.T.);
#153=ORIENTED_EDGE('',*,*,#196,.F.);
#154=ORIENTED_EDGE('',*,*,#197,.F.);
#155=ORIENTED_EDGE('',*,*,#203,.F.);
#156=ORIENTED_EDGE('',*,*,#204,.F.);
#157=ORIENTED_EDGE('',*,*,#205,.F.);
#158=ORIENTED_EDGE('',*,*,#206,.F.);
#159=ORIENTED_EDGE('',*,*,#205,.T.);
#160=ORIENTED_EDGE('',*,*,#207,.T.);
#161=ORIENTED_EDGE('',*,*,#206,.T.);
#162=ORIENTED_EDGE('',*,*,#207,.F.);
#163=ORIENTED_EDGE('',*,*,#203,.T.);
#164=ORIENTED_EDGE('',*,*,#208,.F.);
#165=ORIENTED_EDGE('',*,*,#208,.T.);
#166=ORIENTED_EDGE('',*,*,#204,.T.);
#167=ORIENTED_EDGE('',*,*,#209,.T.);
#168=ORIENTED_EDGE('',*,*,#209,.F.);
#169=ORIENTED_EDGE('',*,*,#210,.T.);
#170=ORIENTED_EDGE('',*,*,#210,.F.);
#171=ORIENTED_EDGE('',*,*,#211,.T.);
#172=ORIENTED_EDGE('',*,*,#211,.F.);
#173=ORIENTED_EDGE('',*,*,#212,.F.);
#174=ORIENTED_EDGE('',*,*,#213,.T.);
#175=ORIENTED_EDGE('',*,*,#212,.T.);
#176=ORIENTED_EDGE('',*,*,#213,.F.);
#177=ORIENTED_EDGE('',*,*,#198,.F.);
#178=VERTEX_POINT('',#381);
#179=VERTEX_POINT('',#383);
#180=VERTEX_POINT('',#386);
#181=VERTEX_POINT('',#388);
#182=VERTEX_POINT('',#391);
#183=VERTEX_POINT('',#394);
#184=VERTEX_POINT('',#397);
#185=VERTEX_POINT('',#401);
#186=VERTEX_POINT('',#404);
#187=VERTEX_POINT('',#406);
#188=VERTEX_POINT('',#409);
#189=VERTEX_POINT('',#412);
#190=VERTEX_POINT('',#416);
#191=VERTEX_POINT('',#420);
#192=VERTEX_POINT('',#423);
#193=VERTEX_POINT('',#426);
#194=VERTEX_POINT('',#429);
#195=VERTEX_POINT('',#432);
#196=EDGE_CURVE('',#178,#178,#214,.T.);
#197=EDGE_CURVE('',#179,#179,#215,.T.);
#198=EDGE_CURVE('',#180,#180,#216,.T.);
#199=EDGE_CURVE('',#181,#181,#217,.T.);
#200=EDGE_CURVE('',#182,#182,#218,.T.);
#201=EDGE_CURVE('',#183,#183,#219,.T.);
#202=EDGE_CURVE('',#184,#184,#220,.T.);
#203=EDGE_CURVE('',#185,#185,#221,.T.);
#204=EDGE_CURVE('',#186,#186,#222,.T.);
#205=EDGE_CURVE('',#187,#187,#223,.T.);
#206=EDGE_CURVE('',#188,#188,#224,.T.);
#207=EDGE_CURVE('',#189,#189,#225,.T.);
#208=EDGE_CURVE('',#190,#190,#226,.T.);
#209=EDGE_CURVE('',#191,#191,#227,.T.);
#210=EDGE_CURVE('',#192,#192,#228,.T.);
#211=EDGE_CURVE('',#193,#193,#229,.T.);
#212=EDGE_CURVE('',#194,#194,#230,.T.);
#213=EDGE_CURVE('',#195,#195,#231,.T.);
#214=CIRCLE('',#257,31.775);
#215=CIRCLE('',#258,31.775);
#216=CIRCLE('',#260,31.775);
#217=CIRCLE('',#261,28.89759526419);
#218=CIRCLE('',#263,27.925);
#219=CIRCLE('',#265,27.925);
#220=CIRCLE('',#267,28.89759526419);
#221=CIRCLE('',#270,13.);
#222=CIRCLE('',#272,2.);
#223=CIRCLE('',#273,7.49999999999989);
#224=CIRCLE('',#275,10.);
#225=CIRCLE('',#277,10.);
#226=CIRCLE('',#280,2.);
#227=CIRCLE('',#283,12.2500548269648);
#228=CIRCLE('',#285,22.07916746823);
#229=CIRCLE('',#287,21.87916746823);
#230=CIRCLE('',#289,21.87916746823);
#231=CIRCLE('',#291,31.775);
#232=INVISIBILITY((#233,#234,#235));
#233=PRESENTATION_LAYER_ASSIGNMENT('100','Layer 100',(#254));
#234=PRESENTATION_LAYER_ASSIGNMENT('101','Layer 101',(#255));
#235=PRESENTATION_LAYER_ASSIGNMENT('102','Layer 102',(#256));
#236=PRESENTATION_LAYER_ASSIGNMENT('98','Layer 98',(#30));
#237=STYLED_ITEM('',(#241),#254);
#238=STYLED_ITEM('',(#242),#255);
#239=STYLED_ITEM('',(#243),#256);
#240=STYLED_ITEM('',(#244),#30);
#241=PRESENTATION_STYLE_ASSIGNMENT((#245));
#242=PRESENTATION_STYLE_ASSIGNMENT((#246));
#243=PRESENTATION_STYLE_ASSIGNMENT((#247));
#244=PRESENTATION_STYLE_ASSIGNMENT((#25));
#245=CURVE_STYLE('',#250,POSITIVE_LENGTH_MEASURE(0.7),#248);
#246=CURVE_STYLE('',#251,POSITIVE_LENGTH_MEASURE(0.7),#248);
#247=CURVE_STYLE('',#252,POSITIVE_LENGTH_MEASURE(0.7),#248);
#248=COLOUR_RGB('Medium Maroon',0.6,0.4,0.4);
#249=COLOUR_RGB('Medium Gray',0.490196078431373,0.490196078431373,0.490196078431373);
#250=DRAUGHTING_PRE_DEFINED_CURVE_FONT('continuous');
#251=DRAUGHTING_PRE_DEFINED_CURVE_FONT('continuous');
#252=DRAUGHTING_PRE_DEFINED_CURVE_FONT('continuous');
#253=AXIS2_PLACEMENT_3D('',#376,#294,#295);
#254=AXIS2_PLACEMENT_3D('PCS',#377,#296,#297);
#255=AXIS2_PLACEMENT_3D('CSW',#378,#298,#299);
#256=AXIS2_PLACEMENT_3D('MCS',#379,#300,#301);
#257=AXIS2_PLACEMENT_3D('',#380,#302,#303);
#258=AXIS2_PLACEMENT_3D('',#382,#304,#305);
#259=AXIS2_PLACEMENT_3D('',#384,#306,#307);
#260=AXIS2_PLACEMENT_3D('',#385,#308,#309);
#261=AXIS2_PLACEMENT_3D('',#387,#310,#311);
#262=AXIS2_PLACEMENT_3D('',#389,#312,#313);
#263=AXIS2_PLACEMENT_3D('',#390,#314,#315);
#264=AXIS2_PLACEMENT_3D('',#392,#316,#317);
#265=AXIS2_PLACEMENT_3D('',#393,#318,#319);
#266=AXIS2_PLACEMENT_3D('',#395,#320,#321);
#267=AXIS2_PLACEMENT_3D('',#396,#322,#323);
#268=AXIS2_PLACEMENT_3D('',#398,#324,#325);
#269=AXIS2_PLACEMENT_3D('',#399,#326,#327);
#270=AXIS2_PLACEMENT_3D('',#400,#328,#329);
#271=AXIS2_PLACEMENT_3D('',#402,#330,#331);
#272=AXIS2_PLACEMENT_3D('',#403,#332,#333);
#273=AXIS2_PLACEMENT_3D('',#405,#334,#335);
#274=AXIS2_PLACEMENT_3D('',#407,#336,#337);
#275=AXIS2_PLACEMENT_3D('',#408,#338,#339);
#276=AXIS2_PLACEMENT_3D('',#410,#340,#341);
#277=AXIS2_PLACEMENT_3D('',#411,#342,#343);
#278=AXIS2_PLACEMENT_3D('',#413,#344,#345);
#279=AXIS2_PLACEMENT_3D('',#414,#346,#347);
#280=AXIS2_PLACEMENT_3D('',#415,#348,#349);
#281=AXIS2_PLACEMENT_3D('',#417,#350,#351);
#282=AXIS2_PLACEMENT_3D('',#418,#352,#353);
#283=AXIS2_PLACEMENT_3D('',#419,#354,#355);
#284=AXIS2_PLACEMENT_3D('',#421,#356,#357);
#285=AXIS2_PLACEMENT_3D('',#422,#358,#359);
#286=AXIS2_PLACEMENT_3D('',#424,#360,#361);
#287=AXIS2_PLACEMENT_3D('',#425,#362,#363);
#288=AXIS2_PLACEMENT_3D('',#427,#364,#365);
#289=AXIS2_PLACEMENT_3D('',#428,#366,#367);
#290=AXIS2_PLACEMENT_3D('',#430,#368,#369);
#291=AXIS2_PLACEMENT_3D('',#431,#370,#371);
#292=AXIS2_PLACEMENT_3D('',#433,#372,#373);
#293=AXIS2_PLACEMENT_3D('',#434,#374,#375);
#294=DIRECTION('',(0.,0.,1.));
#295=DIRECTION('',(1.,0.,0.));
#296=DIRECTION('',(0.,0.,1.));
#297=DIRECTION('',(1.,0.,0.));
#298=DIRECTION('',(0.,0.,1.));
#299=DIRECTION('',(1.,0.,0.));
#300=DIRECTION('',(0.,0.,1.));
#301=DIRECTION('',(1.,0.,0.));
#302=DIRECTION('',(0.,0.,-1.));
#303=DIRECTION('',(-0.967376300599849,0.253343823760813,0.));
#304=DIRECTION('',(0.,0.,1.));
#305=DIRECTION('',(-1.,0.,0.));
#306=DIRECTION('',(0.,0.,-1.));
#307=DIRECTION('',(0.,-1.,0.));
#308=DIRECTION('',(0.,0.,-1.));
#309=DIRECTION('',(-0.967376300599849,0.253343823760813,0.));
#310=DIRECTION('',(0.,0.,-1.));
#311=DIRECTION('',(-0.960415959422322,0.278569892283607,0.));
#312=DIRECTION('',(0.,0.,1.));
#313=DIRECTION('',(0.,1.,2.65761895971388E-17));
#314=DIRECTION('',(0.,0.,-1.));
#315=DIRECTION('',(-1.,0.,0.));
#316=DIRECTION('',(0.,0.,-1.));
#317=DIRECTION('',(0.,-1.,0.));
#318=DIRECTION('',(0.,0.,-1.));
#319=DIRECTION('',(-1.,0.,0.));
#320=DIRECTION('',(0.,0.,-1.));
#321=DIRECTION('',(0.,-1.,0.));
#322=DIRECTION('',(0.,0.,-1.));
#323=DIRECTION('',(-0.960415959422322,0.278569892283607,0.));
#324=DIRECTION('',(0.,0.,-1.));
#325=DIRECTION('',(0.,-1.,0.));
#326=DIRECTION('',(0.,0.,-1.));
#327=DIRECTION('',(0.,-1.,4.1340739373327E-17));
#328=DIRECTION('',(0.,0.,-1.));
#329=DIRECTION('',(0.,1.,0.));
#330=DIRECTION('',(0.,0.,-1.));
#331=DIRECTION('',(0.,-1.,0.));
#332=DIRECTION('',(0.,0.,-1.));
#333=DIRECTION('',(-1.,0.,0.));
#334=DIRECTION('',(0.,0.,1.));
#335=DIRECTION('',(-1.,0.,0.));
#336=DIRECTION('',(0.,0.,-1.));
#337=DIRECTION('',(0.,-1.,0.));
#338=DIRECTION('',(0.,0.,1.));
#339=DIRECTION('',(0.,-1.,0.));
#340=DIRECTION('',(0.,0.,1.));
#341=DIRECTION('',(0.,1.,-3.17250194943313E-16));
#342=DIRECTION('',(0.,0.,-1.));
#343=DIRECTION('',(0.,-1.,0.));
#344=DIRECTION('',(0.,0.,-1.));
#345=DIRECTION('',(0.,-1.,0.));
#346=DIRECTION('',(0.,0.,-1.));
#347=DIRECTION('',(-0.0110965778941495,0.999938431084154,0.));
#348=DIRECTION('',(0.,0.,1.));
#349=DIRECTION('',(0.,-1.,0.));
#350=DIRECTION('',(0.,0.,1.));
#351=DIRECTION('',(1.,0.,0.));
#352=DIRECTION('',(0.,0.,-1.));
#353=DIRECTION('',(0.,-1.,0.));
#354=DIRECTION('',(0.,0.,1.));
#355=DIRECTION('',(-1.,0.,0.));
#356=DIRECTION('',(0.,0.,-1.));
#357=DIRECTION('',(0.,-1.,0.));
#358=DIRECTION('',(0.,0.,1.));
#359=DIRECTION('',(0.,-1.,0.));
#360=DIRECTION('',(0.,0.,-1.));
#361=DIRECTION('',(0.,-1.,-2.55326147797772E-16));
#362=DIRECTION('',(0.,0.,1.));
#363=DIRECTION('',(1.,0.,0.));
#364=DIRECTION('',(0.,0.,1.));
#365=DIRECTION('',(0.,1.,3.70950477554508E-16));
#366=DIRECTION('',(0.,0.,-1.));
#367=DIRECTION('',(-1.,0.,0.));
#368=DIRECTION('',(0.,0.,-1.));
#369=DIRECTION('',(0.,-1.,0.));
#370=DIRECTION('',(0.,0.,1.));
#371=DIRECTION('',(-1.,0.,0.));
#372=DIRECTION('',(0.,0.,-1.));
#373=DIRECTION('',(0.,-1.,0.));
#374=DIRECTION('',(0.,0.,-1.));
#375=DIRECTION('',(0.,-1.,0.));
#376=CARTESIAN_POINT('',(0.,0.,0.));
#377=CARTESIAN_POINT('',(0.,0.,0.));
#378=CARTESIAN_POINT('',(0.,0.,-80.));
#379=CARTESIAN_POINT('',(0.,0.,0.));
#380=CARTESIAN_POINT('',(0.,0.,-14.636270398786));
#381=CARTESIAN_POINT('',(-30.7383819515602,8.04999999999983,-14.636270398786));
#382=CARTESIAN_POINT('',(0.,0.,-19.1));
#383=CARTESIAN_POINT('',(-31.775,0.,-19.1));
#384=CARTESIAN_POINT('',(0.,0.,72.775));
#385=CARTESIAN_POINT('',(0.,0.,-7.56372960121));
#386=CARTESIAN_POINT('',(-30.7383819515602,8.04999999999983,-7.56372960121));
#387=CARTESIAN_POINT('',(0.,0.,-9.225));
#388=CARTESIAN_POINT('',(-27.753711680655,8.05000000000067,-9.225));
#389=CARTESIAN_POINT('',(0.,0.,-8.39436480061));
#390=CARTESIAN_POINT('',(0.,0.,-9.225));
#391=CARTESIAN_POINT('',(-27.925,0.,-9.225));
#392=CARTESIAN_POINT('',(0.,0.,-9.225));
#393=CARTESIAN_POINT('',(0.,0.,-12.975));
#394=CARTESIAN_POINT('',(-27.925,0.,-12.975));
#395=CARTESIAN_POINT('',(0.,0.,72.775));
#396=CARTESIAN_POINT('',(0.,0.,-12.975));
#397=CARTESIAN_POINT('',(-27.753711680655,8.05000000000067,-12.975));
#398=CARTESIAN_POINT('',(0.,0.,-12.975));
#399=CARTESIAN_POINT('',(0.,0.,-13.805635199393));
#400=CARTESIAN_POINT('',(0.,0.,-19.1));
#401=CARTESIAN_POINT('',(0.,13.,-19.1));
#402=CARTESIAN_POINT('',(0.,0.,-19.1));
#403=CARTESIAN_POINT('',(0.,0.,-80.));
#404=CARTESIAN_POINT('',(-2.,0.,-80.));
#405=CARTESIAN_POINT('',(0.,0.,-80.));
#406=CARTESIAN_POINT('',(-7.49999999999989,0.,-80.));
#407=CARTESIAN_POINT('',(0.,0.,-80.));
#408=CARTESIAN_POINT('',(0.,0.,-48.23448815956));
#409=CARTESIAN_POINT('',(0.,-10.,-48.23448815956));
#410=CARTESIAN_POINT('',(0.,0.,-63.65647362765));
#411=CARTESIAN_POINT('',(0.,0.,-22.1));
#412=CARTESIAN_POINT('',(0.,-10.,-22.1));
#413=CARTESIAN_POINT('',(0.,0.,-16.055));
#414=CARTESIAN_POINT('',(0.,0.,-22.1));
#415=CARTESIAN_POINT('',(0.,0.,-69.));
#416=CARTESIAN_POINT('',(0.,-2.,-69.));
#417=CARTESIAN_POINT('',(0.,0.,-69.));
#418=CARTESIAN_POINT('',(0.,0.,-16.055));
#419=CARTESIAN_POINT('',(0.,0.,68.4));
#420=CARTESIAN_POINT('',(-12.2500548269648,0.,68.4));
#421=CARTESIAN_POINT('',(0.,0.,68.4));
#422=CARTESIAN_POINT('',(0.,0.,1.));
#423=CARTESIAN_POINT('',(0.,-22.07916746823,1.));
#424=CARTESIAN_POINT('',(0.,0.,34.27215305821));
#425=CARTESIAN_POINT('',(0.,0.,0.253589838500815));
#426=CARTESIAN_POINT('',(21.87916746823,0.,0.253589838500815));
#427=CARTESIAN_POINT('',(0.,0.,0.664944883499999));
#428=CARTESIAN_POINT('',(0.,0.,-1.));
#429=CARTESIAN_POINT('',(-21.87916746823,0.,-1.));
#430=CARTESIAN_POINT('',(0.,0.,72.775));
#431=CARTESIAN_POINT('',(0.,0.,-1.));
#432=CARTESIAN_POINT('',(-31.775,0.,-1.));
#433=CARTESIAN_POINT('',(0.,0.,-1.));
#434=CARTESIAN_POINT('',(0.,0.,72.775));
#435=MECHANICAL_DESIGN_GEOMETRIC_PRESENTATION_REPRESENTATION('',(#237,#238,
#239,#240),#436);
#436=(
GEOMETRIC_REPRESENTATION_CONTEXT(3)
GLOBAL_UNCERTAINTY_ASSIGNED_CONTEXT((#437))
GLOBAL_UNIT_ASSIGNED_CONTEXT((#443,#439,#438))
REPRESENTATION_CONTEXT('oznaceni_DOCUMENTNUMBERndi000_00_SIM',
'TOP_LEVEL_ASSEMBLY_PART')
);
#437=UNCERTAINTY_MEASURE_WITH_UNIT(LENGTH_MEASURE(2.E-5),#443,
'DISTANCE_ACCURACY_VALUE','Maximum Tolerance applied to model');
#438=(
NAMED_UNIT(*)
SI_UNIT($,.STERADIAN.)
SOLID_ANGLE_UNIT()
);
#439=(
CONVERSION_BASED_UNIT('DEGREE',#441)
NAMED_UNIT(#440)
PLANE_ANGLE_UNIT()
);
#440=DIMENSIONAL_EXPONENTS(0.,0.,0.,0.,0.,0.,0.);
#441=PLANE_ANGLE_MEASURE_WITH_UNIT(PLANE_ANGLE_MEASURE(0.0174532925),#442);
#442=(
NAMED_UNIT(*)
PLANE_ANGLE_UNIT()
SI_UNIT($,.RADIAN.)
);
#443=(
LENGTH_UNIT()
NAMED_UNIT(*)
SI_UNIT(.MILLI.,.METRE.)
);
ENDSEC;
END-ISO-10303-21;
