ISO-10303-21;
HEADER;
/* Generated by software containing ST-Developer
 * from STEP Tools, Inc. (www.steptools.com) 
 */
/* OPTION: using custom schema-name function */

FILE_DESCRIPTION(
/* description */ (''),
/* implementation_level */ '2;1');

FILE_NAME(
/* name */ 'AW.32-RED.W.08.030.stp',
/* time_stamp */ '2024-10-01T13:48:53+02:00',
/* author */ (''),
/* organization */ (''),
/* preprocessor_version */ 'ST-DEVELOPER v16.7',
/* originating_system */ 'SIEMENS PLM Software NX 12.0',
/* authorisation */ '');

FILE_SCHEMA (('AUTOMOTIVE_DESIGN { 1 0 10303 214 3 1 1 1 }'));
ENDSEC;

DATA;
#10=CONSTRUCTIVE_GEOMETRY_REPRESENTATION_RELATIONSHIP(
'supplemental geometry','',#32,#11);
#11=CONSTRUCTIVE_GEOMETRY_REPRESENTATION('supplemental geometry',(#222,
#223,#224),#360);
#12=PROPERTY_DEFINITION_REPRESENTATION(#16,#14);
#13=PROPERTY_DEFINITION_REPRESENTATION(#17,#15);
#14=REPRESENTATION('',(#18),#360);
#15=REPRESENTATION('',(#19),#360);
#16=PROPERTY_DEFINITION('pmi validation property','',#23);
#17=PROPERTY_DEFINITION('pmi validation property','',#23);
#18=VALUE_REPRESENTATION_ITEM('number of annotations',COUNT_MEASURE(0.));
#19=VALUE_REPRESENTATION_ITEM('number of views',COUNT_MEASURE(0.));
#20=SHAPE_REPRESENTATION_RELATIONSHIP('None',
'relationship between pf664020C5B5gwru-None and pf664020C5B5gwru-None',
#32,#21);
#21=ADVANCED_BREP_SHAPE_REPRESENTATION('pf664020C5B5gwru-None',(#38),#360);
#22=SHAPE_DEFINITION_REPRESENTATION(#23,#32);
#23=PRODUCT_DEFINITION_SHAPE('','',#24);
#24=PRODUCT_DEFINITION(' ','',#26,#25);
#25=PRODUCT_DEFINITION_CONTEXT('part definition',#31,'design');
#26=PRODUCT_DEFINITION_FORMATION_WITH_SPECIFIED_SOURCE(' ',' ',#28,
 .NOT_KNOWN.);
#27=PRODUCT_RELATED_PRODUCT_CATEGORY('part','',(#28));
#28=PRODUCT('pf664020C5B5gwru','pf664020C5B5gwru',' ',(#29));
#29=PRODUCT_CONTEXT(' ',#31,'mechanical');
#30=APPLICATION_PROTOCOL_DEFINITION('international standard',
'automotive_design',2010,#31);
#31=APPLICATION_CONTEXT(
'core data for automotive mechanical design processes');
#32=SHAPE_REPRESENTATION('pf664020C5B5gwru-None',(#221),#360);
#33=SURFACE_STYLE_USAGE(.BOTH.,#34);
#34=SURFACE_SIDE_STYLE('',(#35));
#35=SURFACE_STYLE_FILL_AREA(#36);
#36=FILL_AREA_STYLE('',(#37));
#37=FILL_AREA_STYLE_COLOUR('',#217);
#38=MANIFOLD_SOLID_BREP('1',#39);
#39=CLOSED_SHELL('',(#57,#58,#59,#60,#61,#62,#63,#64,#65,#66,#67,#68,#69));
#40=CONICAL_SURFACE('',#238,14.,25.);
#41=PLANE('',#231);
#42=PLANE('',#232);
#43=PLANE('',#233);
#44=PLANE('',#240);
#45=PLANE('',#241);
#46=PLANE('',#242);
#47=PLANE('',#243);
#48=PLANE('',#245);
#49=PLANE('',#246);
#50=FACE_OUTER_BOUND('',#96,.T.);
#51=FACE_OUTER_BOUND('',#97,.T.);
#52=FACE_OUTER_BOUND('',#98,.T.);
#53=FACE_OUTER_BOUND('',#105,.T.);
#54=FACE_OUTER_BOUND('',#106,.T.);
#55=FACE_OUTER_BOUND('',#107,.T.);
#56=FACE_OUTER_BOUND('',#110,.T.);
#57=ADVANCED_FACE('',(#80,#81,#82),#70,.T.);
#58=ADVANCED_FACE('',(#50),#41,.T.);
#59=ADVANCED_FACE('',(#51),#42,.T.);
#60=ADVANCED_FACE('',(#52),#43,.T.);
#61=ADVANCED_FACE('',(#83,#84),#71,.T.);
#62=ADVANCED_FACE('',(#85,#86),#40,.T.);
#63=ADVANCED_FACE('',(#87,#88),#44,.T.);
#64=ADVANCED_FACE('',(#53),#45,.T.);
#65=ADVANCED_FACE('',(#54),#46,.T.);
#66=ADVANCED_FACE('',(#55),#47,.T.);
#67=ADVANCED_FACE('',(#89,#90),#48,.T.);
#68=ADVANCED_FACE('',(#56),#49,.T.);
#69=ADVANCED_FACE('',(#91,#92),#72,.T.);
#70=CYLINDRICAL_SURFACE('',#230,16.);
#71=CYLINDRICAL_SURFACE('',#236,14.);
#72=CYLINDRICAL_SURFACE('',#247,13.5);
#73=CIRCLE('',#227,16.);
#74=CIRCLE('',#228,16.);
#75=CIRCLE('',#234,14.);
#76=CIRCLE('',#235,14.);
#77=CIRCLE('',#237,10.);
#78=CIRCLE('',#239,13.5);
#79=CIRCLE('',#244,13.5);
#80=FACE_BOUND('',#93,.T.);
#81=FACE_BOUND('',#94,.T.);
#82=FACE_BOUND('',#95,.T.);
#83=FACE_BOUND('',#99,.T.);
#84=FACE_BOUND('',#100,.T.);
#85=FACE_BOUND('',#101,.T.);
#86=FACE_BOUND('',#102,.T.);
#87=FACE_BOUND('',#103,.T.);
#88=FACE_BOUND('',#104,.T.);
#89=FACE_BOUND('',#108,.T.);
#90=FACE_BOUND('',#109,.T.);
#91=FACE_BOUND('',#111,.T.);
#92=FACE_BOUND('',#112,.T.);
#93=EDGE_LOOP('',(#129,#130,#131,#132));
#94=EDGE_LOOP('',(#133));
#95=EDGE_LOOP('',(#134,#135,#136,#137));
#96=EDGE_LOOP('',(#138,#139,#140,#141));
#97=EDGE_LOOP('',(#142,#143));
#98=EDGE_LOOP('',(#144,#145));
#99=EDGE_LOOP('',(#146));
#100=EDGE_LOOP('',(#147));
#101=EDGE_LOOP('',(#148));
#102=EDGE_LOOP('',(#149));
#103=EDGE_LOOP('',(#150));
#104=EDGE_LOOP('',(#151));
#105=EDGE_LOOP('',(#152,#153,#154,#155));
#106=EDGE_LOOP('',(#156,#157));
#107=EDGE_LOOP('',(#158,#159));
#108=EDGE_LOOP('',(#160));
#109=EDGE_LOOP('',(#161));
#110=EDGE_LOOP('',(#162));
#111=EDGE_LOOP('',(#163));
#112=EDGE_LOOP('',(#164));
#113=LINE('',#317,#121);
#114=LINE('',#321,#122);
#115=LINE('',#324,#123);
#116=LINE('',#329,#124);
#117=LINE('',#333,#125);
#118=LINE('',#334,#126);
#119=LINE('',#337,#127);
#120=LINE('',#350,#128);
#121=VECTOR('',#258,1.);
#122=VECTOR('',#261,1.);
#123=VECTOR('',#264,1.);
#124=VECTOR('',#267,1.);
#125=VECTOR('',#272,1.);
#126=VECTOR('',#273,1.);
#127=VECTOR('',#278,1.);
#128=VECTOR('',#295,1.);
#129=ORIENTED_EDGE('',*,*,#179,.T.);
#130=ORIENTED_EDGE('',*,*,#180,.T.);
#131=ORIENTED_EDGE('',*,*,#181,.T.);
#132=ORIENTED_EDGE('',*,*,#182,.T.);
#133=ORIENTED_EDGE('',*,*,#183,.T.);
#134=ORIENTED_EDGE('',*,*,#184,.T.);
#135=ORIENTED_EDGE('',*,*,#185,.T.);
#136=ORIENTED_EDGE('',*,*,#186,.T.);
#137=ORIENTED_EDGE('',*,*,#187,.T.);
#138=ORIENTED_EDGE('',*,*,#188,.T.);
#139=ORIENTED_EDGE('',*,*,#186,.F.);
#140=ORIENTED_EDGE('',*,*,#189,.F.);
#141=ORIENTED_EDGE('',*,*,#184,.F.);
#142=ORIENTED_EDGE('',*,*,#188,.F.);
#143=ORIENTED_EDGE('',*,*,#187,.F.);
#144=ORIENTED_EDGE('',*,*,#190,.F.);
#145=ORIENTED_EDGE('',*,*,#181,.F.);
#146=ORIENTED_EDGE('',*,*,#191,.T.);
#147=ORIENTED_EDGE('',*,*,#192,.F.);
#148=ORIENTED_EDGE('',*,*,#193,.T.);
#149=ORIENTED_EDGE('',*,*,#191,.F.);
#150=ORIENTED_EDGE('',*,*,#192,.T.);
#151=ORIENTED_EDGE('',*,*,#194,.F.);
#152=ORIENTED_EDGE('',*,*,#195,.F.);
#153=ORIENTED_EDGE('',*,*,#182,.F.);
#154=ORIENTED_EDGE('',*,*,#190,.T.);
#155=ORIENTED_EDGE('',*,*,#180,.F.);
#156=ORIENTED_EDGE('',*,*,#195,.T.);
#157=ORIENTED_EDGE('',*,*,#179,.F.);
#158=ORIENTED_EDGE('',*,*,#189,.T.);
#159=ORIENTED_EDGE('',*,*,#185,.F.);
#160=ORIENTED_EDGE('',*,*,#183,.F.);
#161=ORIENTED_EDGE('',*,*,#196,.T.);
#162=ORIENTED_EDGE('',*,*,#193,.F.);
#163=ORIENTED_EDGE('',*,*,#194,.T.);
#164=ORIENTED_EDGE('',*,*,#196,.F.);
#165=VERTEX_POINT('',#315);
#166=VERTEX_POINT('',#316);
#167=VERTEX_POINT('',#318);
#168=VERTEX_POINT('',#320);
#169=VERTEX_POINT('',#323);
#170=VERTEX_POINT('',#325);
#171=VERTEX_POINT('',#326);
#172=VERTEX_POINT('',#328);
#173=VERTEX_POINT('',#330);
#174=VERTEX_POINT('',#340);
#175=VERTEX_POINT('',#342);
#176=VERTEX_POINT('',#345);
#177=VERTEX_POINT('',#348);
#178=VERTEX_POINT('',#355);
#179=EDGE_CURVE('',#165,#166,#197,.T.);
#180=EDGE_CURVE('',#166,#167,#113,.T.);
#181=EDGE_CURVE('',#167,#168,#198,.T.);
#182=EDGE_CURVE('',#168,#165,#114,.T.);
#183=EDGE_CURVE('',#169,#169,#73,.T.);
#184=EDGE_CURVE('',#170,#171,#115,.T.);
#185=EDGE_CURVE('',#171,#172,#74,.T.);
#186=EDGE_CURVE('',#172,#173,#116,.T.);
#187=EDGE_CURVE('',#173,#170,#199,.T.);
#188=EDGE_CURVE('',#170,#173,#117,.T.);
#189=EDGE_CURVE('',#171,#172,#118,.T.);
#190=EDGE_CURVE('',#168,#167,#119,.T.);
#191=EDGE_CURVE('',#174,#174,#75,.T.);
#192=EDGE_CURVE('',#175,#175,#76,.T.);
#193=EDGE_CURVE('',#176,#176,#77,.T.);
#194=EDGE_CURVE('',#177,#177,#78,.T.);
#195=EDGE_CURVE('',#165,#166,#120,.T.);
#196=EDGE_CURVE('',#178,#178,#79,.T.);
#197=ELLIPSE('',#225,22.6274169979695,16.);
#198=ELLIPSE('',#226,22.6274169979695,16.);
#199=ELLIPSE('',#229,22.6274169979695,16.);
#200=INVISIBILITY((#201,#202,#203,#204));
#201=PRESENTATION_LAYER_ASSIGNMENT('100','Layer 100',(#222));
#202=PRESENTATION_LAYER_ASSIGNMENT('101','Layer 101',(#223));
#203=PRESENTATION_LAYER_ASSIGNMENT('102','Layer 102',(#224));
#204=PRESENTATION_LAYER_ASSIGNMENT('98','Layer 98',(#38));
#205=STYLED_ITEM('',(#209),#222);
#206=STYLED_ITEM('',(#210),#223);
#207=STYLED_ITEM('',(#211),#224);
#208=STYLED_ITEM('',(#212),#38);
#209=PRESENTATION_STYLE_ASSIGNMENT((#213));
#210=PRESENTATION_STYLE_ASSIGNMENT((#214));
#211=PRESENTATION_STYLE_ASSIGNMENT((#215));
#212=PRESENTATION_STYLE_ASSIGNMENT((#33));
#213=CURVE_STYLE('',#218,POSITIVE_LENGTH_MEASURE(0.7),#216);
#214=CURVE_STYLE('',#219,POSITIVE_LENGTH_MEASURE(0.7),#216);
#215=CURVE_STYLE('',#220,POSITIVE_LENGTH_MEASURE(0.7),#216);
#216=COLOUR_RGB('Medium Maroon',0.6,0.4,0.4);
#217=COLOUR_RGB('Medium Gray',0.490196078431373,0.490196078431373,0.490196078431373);
#218=DRAUGHTING_PRE_DEFINED_CURVE_FONT('continuous');
#219=DRAUGHTING_PRE_DEFINED_CURVE_FONT('continuous');
#220=DRAUGHTING_PRE_DEFINED_CURVE_FONT('continuous');
#221=AXIS2_PLACEMENT_3D('',#310,#248,#249);
#222=AXIS2_PLACEMENT_3D('PCS',#311,#250,#251);
#223=AXIS2_PLACEMENT_3D('CSW',#312,#252,#253);
#224=AXIS2_PLACEMENT_3D('MCS',#313,#254,#255);
#225=AXIS2_PLACEMENT_3D('',#314,#256,#257);
#226=AXIS2_PLACEMENT_3D('',#319,#259,#260);
#227=AXIS2_PLACEMENT_3D('',#322,#262,#263);
#228=AXIS2_PLACEMENT_3D('',#327,#265,#266);
#229=AXIS2_PLACEMENT_3D('',#331,#268,#269);
#230=AXIS2_PLACEMENT_3D('',#332,#270,#271);
#231=AXIS2_PLACEMENT_3D('',#335,#274,#275);
#232=AXIS2_PLACEMENT_3D('',#336,#276,#277);
#233=AXIS2_PLACEMENT_3D('',#338,#279,#280);
#234=AXIS2_PLACEMENT_3D('',#339,#281,#282);
#235=AXIS2_PLACEMENT_3D('',#341,#283,#284);
#236=AXIS2_PLACEMENT_3D('',#343,#285,#286);
#237=AXIS2_PLACEMENT_3D('',#344,#287,#288);
#238=AXIS2_PLACEMENT_3D('',#346,#289,#290);
#239=AXIS2_PLACEMENT_3D('',#347,#291,#292);
#240=AXIS2_PLACEMENT_3D('',#349,#293,#294);
#241=AXIS2_PLACEMENT_3D('',#351,#296,#297);
#242=AXIS2_PLACEMENT_3D('',#352,#298,#299);
#243=AXIS2_PLACEMENT_3D('',#353,#300,#301);
#244=AXIS2_PLACEMENT_3D('',#354,#302,#303);
#245=AXIS2_PLACEMENT_3D('',#356,#304,#305);
#246=AXIS2_PLACEMENT_3D('',#357,#306,#307);
#247=AXIS2_PLACEMENT_3D('',#358,#308,#309);
#248=DIRECTION('',(0.,0.,1.));
#249=DIRECTION('',(1.,0.,0.));
#250=DIRECTION('',(0.,0.,1.));
#251=DIRECTION('',(1.,0.,0.));
#252=DIRECTION('',(0.,0.,1.));
#253=DIRECTION('',(1.,0.,0.));
#254=DIRECTION('',(0.,0.,1.));
#255=DIRECTION('',(1.,0.,0.));
#256=DIRECTION('',(0.,-0.707106781186549,0.707106781186546));
#257=DIRECTION('',(0.,0.707106781186546,0.707106781186549));
#258=DIRECTION('',(0.,0.,-1.));
#259=DIRECTION('',(0.,-0.707106781186547,-0.707106781186548));
#260=DIRECTION('',(0.,-0.707106781186548,0.707106781186547));
#261=DIRECTION('',(0.,0.,1.));
#262=DIRECTION('',(0.,0.,1.));
#263=DIRECTION('',(-1.,0.,0.));
#264=DIRECTION('',(0.,0.,1.));
#265=DIRECTION('',(0.,0.,-1.));
#266=DIRECTION('',(1.,0.,0.));
#267=DIRECTION('',(0.,0.,-1.));
#268=DIRECTION('',(0.,-0.707106781186547,-0.707106781186547));
#269=DIRECTION('',(0.,-0.707106781186547,0.707106781186547));
#270=DIRECTION('',(0.,0.,-1.));
#271=DIRECTION('',(0.,-1.,0.));
#272=DIRECTION('',(-1.,0.,0.));
#273=DIRECTION('',(-1.,0.,0.));
#274=DIRECTION('',(0.,1.,0.));
#275=DIRECTION('',(0.,0.,1.));
#276=DIRECTION('',(0.,0.707106781186547,0.707106781186547));
#277=DIRECTION('',(0.,-0.707106781186547,0.707106781186547));
#278=DIRECTION('',(-1.,0.,0.));
#279=DIRECTION('',(0.,0.707106781186547,0.707106781186548));
#280=DIRECTION('',(0.,-0.707106781186548,0.707106781186547));
#281=DIRECTION('',(0.,0.,1.));
#282=DIRECTION('',(0.,1.,0.));
#283=DIRECTION('',(0.,0.,1.));
#284=DIRECTION('',(0.,1.,0.));
#285=DIRECTION('',(0.,0.,-1.));
#286=DIRECTION('',(0.,-1.,0.));
#287=DIRECTION('',(0.,0.,1.));
#288=DIRECTION('',(-1.,0.,0.));
#289=DIRECTION('',(0.,0.,1.));
#290=DIRECTION('',(0.,-1.,-7.22338462243299E-17));
#291=DIRECTION('',(0.,0.,1.));
#292=DIRECTION('',(0.,1.,0.));
#293=DIRECTION('',(0.,0.,1.));
#294=DIRECTION('',(0.,-1.,0.));
#295=DIRECTION('',(-1.,0.,0.));
#296=DIRECTION('',(0.,1.,2.47817639425258E-16));
#297=DIRECTION('',(0.,-2.48065457064683E-16,1.));
#298=DIRECTION('',(0.,0.707106781186549,-0.707106781186546));
#299=DIRECTION('',(0.,0.707106781186546,0.707106781186549));
#300=DIRECTION('',(0.,0.,1.));
#301=DIRECTION('',(0.,-1.,0.));
#302=DIRECTION('',(0.,0.,1.));
#303=DIRECTION('',(0.,1.,0.));
#304=DIRECTION('',(0.,0.,-1.));
#305=DIRECTION('',(0.,1.,0.));
#306=DIRECTION('',(0.,0.,-1.));
#307=DIRECTION('',(0.,1.,0.));
#308=DIRECTION('',(0.,0.,-1.));
#309=DIRECTION('',(0.,-1.,0.));
#310=CARTESIAN_POINT('',(0.,0.,0.));
#311=CARTESIAN_POINT('',(0.,0.,0.));
#312=CARTESIAN_POINT('',(0.,0.,-30.));
#313=CARTESIAN_POINT('',(0.,0.,0.));
#314=CARTESIAN_POINT('',(2.1316282072803E-14,3.99680288865056E-15,17.));
#315=CARTESIAN_POINT('',(7.74596669241483,14.,31.));
#316=CARTESIAN_POINT('',(-7.74596669241479,14.,31.));
#317=CARTESIAN_POINT('',(-7.74596669241479,14.,-30.));
#318=CARTESIAN_POINT('',(-7.74596669241479,14.,17.));
#319=CARTESIAN_POINT('',(2.1316282072803E-14,3.99680288865056E-15,31.));
#320=CARTESIAN_POINT('',(7.74596669241483,14.,17.));
#321=CARTESIAN_POINT('',(7.74596669241483,14.,-30.));
#322=CARTESIAN_POINT('',(2.1316282072803E-14,3.99680288865056E-15,0.));
#323=CARTESIAN_POINT('',(-16.,3.99680288865056E-15,0.));
#324=CARTESIAN_POINT('',(7.74596669241486,14.,-30.));
#325=CARTESIAN_POINT('',(7.74596669241486,14.,41.));
#326=CARTESIAN_POINT('',(7.74596669241485,14.,60.));
#327=CARTESIAN_POINT('',(2.1316282072803E-14,3.99680288865056E-15,60.));
#328=CARTESIAN_POINT('',(-7.74596669241481,14.,60.));
#329=CARTESIAN_POINT('',(-7.74596669241482,14.,-30.));
#330=CARTESIAN_POINT('',(-7.74596669241481,14.,41.));
#331=CARTESIAN_POINT('',(2.1316282072803E-14,3.99680288865056E-15,55.));
#332=CARTESIAN_POINT('',(2.1316282072803E-14,3.99680288865056E-15,-30.));
#333=CARTESIAN_POINT('',(17.5,14.,41.));
#334=CARTESIAN_POINT('',(2.1316282072803E-14,14.,60.));
#335=CARTESIAN_POINT('',(17.5,14.,62.0760874502955));
#336=CARTESIAN_POINT('',(17.5,14.,41.));
#337=CARTESIAN_POINT('',(17.5,14.,17.));
#338=CARTESIAN_POINT('',(17.5,14.,17.));
#339=CARTESIAN_POINT('',(2.1316282072803E-14,3.99680288865056E-15,-21.4219723179618));
#340=CARTESIAN_POINT('',(2.1316282072803E-14,14.,-21.4219723179618));
#341=CARTESIAN_POINT('',(2.1316282072803E-14,3.99680288865056E-15,-1.99999999999999));
#342=CARTESIAN_POINT('',(2.1316282072803E-14,14.,-1.99999999999999));
#343=CARTESIAN_POINT('',(2.1316282072803E-14,3.99680288865056E-15,-30.));
#344=CARTESIAN_POINT('',(2.1316282072803E-14,3.99680288865056E-15,-30.));
#345=CARTESIAN_POINT('',(-10.,3.99680288865056E-15,-30.));
#346=CARTESIAN_POINT('',(2.1316282072803E-14,3.99680288865056E-15,-21.4219723179618));
#347=CARTESIAN_POINT('',(2.1316282072803E-14,3.99680288865056E-15,-1.99999999999999));
#348=CARTESIAN_POINT('',(2.1316282072803E-14,13.5,-1.99999999999999));
#349=CARTESIAN_POINT('',(-13.5,3.99680288865056E-15,-1.99999999999999));
#350=CARTESIAN_POINT('',(17.5,14.,31.));
#351=CARTESIAN_POINT('',(17.5,14.,31.));
#352=CARTESIAN_POINT('',(17.5,14.,31.));
#353=CARTESIAN_POINT('',(2.1316282072803E-14,3.99680288865056E-15,60.));
#354=CARTESIAN_POINT('',(2.1316282072803E-14,3.99680288865056E-15,1.73472347597681E-15));
#355=CARTESIAN_POINT('',(2.1316282072803E-14,13.5,1.73472347597681E-15));
#356=CARTESIAN_POINT('',(-16.,3.99680288865056E-15,0.));
#357=CARTESIAN_POINT('',(2.22347671721635E-14,3.99680288865056E-15,-30.));
#358=CARTESIAN_POINT('',(2.1316282072803E-14,3.99680288865056E-15,-30.));
#359=MECHANICAL_DESIGN_GEOMETRIC_PRESENTATION_REPRESENTATION('',(#205,#206,
#207,#208),#360);
#360=(
GEOMETRIC_REPRESENTATION_CONTEXT(3)
GLOBAL_UNCERTAINTY_ASSIGNED_CONTEXT((#361))
GLOBAL_UNIT_ASSIGNED_CONTEXT((#367,#363,#362))
REPRESENTATION_CONTEXT('AW.32-RED.W.08','TOP_LEVEL_ASSEMBLY_PART')
);
#361=UNCERTAINTY_MEASURE_WITH_UNIT(LENGTH_MEASURE(2.E-5),#367,
'DISTANCE_ACCURACY_VALUE','Maximum Tolerance applied to model');
#362=(
NAMED_UNIT(*)
SI_UNIT($,.STERADIAN.)
SOLID_ANGLE_UNIT()
);
#363=(
CONVERSION_BASED_UNIT('DEGREE',#365)
NAMED_UNIT(#364)
PLANE_ANGLE_UNIT()
);
#364=DIMENSIONAL_EXPONENTS(0.,0.,0.,0.,0.,0.,0.);
#365=PLANE_ANGLE_MEASURE_WITH_UNIT(PLANE_ANGLE_MEASURE(0.0174532925),#366);
#366=(
NAMED_UNIT(*)
PLANE_ANGLE_UNIT()
SI_UNIT($,.RADIAN.)
);
#367=(
LENGTH_UNIT()
NAMED_UNIT(*)
SI_UNIT(.MILLI.,.METRE.)
);
ENDSEC;
END-ISO-10303-21;
