ISO-10303-21;
HEADER;
/* Generated by software containing ST-Developer
 * from STEP Tools, Inc. (www.steptools.com) 
 */
/* OPTION: using custom schema-name function */

FILE_DESCRIPTION(
/* description */ (''),
/* implementation_level */ '2;1');

FILE_NAME(
/* name */ 'AW.20-RED.W.10.030.stp',
/* time_stamp */ '2024-10-01T13:46:20+02:00',
/* author */ (''),
/* organization */ (''),
/* preprocessor_version */ 'ST-DEVELOPER v16.7',
/* originating_system */ 'SIEMENS PLM Software NX 12.0',
/* authorisation */ '');

FILE_SCHEMA (('AUTOMOTIVE_DESIGN { 1 0 10303 214 3 1 1 1 }'));
ENDSEC;

DATA;
#10=CONSTRUCTIVE_GEOMETRY_REPRESENTATION_RELATIONSHIP(
'supplemental geometry','',#32,#11);
#11=CONSTRUCTIVE_GEOMETRY_REPRESENTATION('supplemental geometry',(#187,
#188,#189),#302);
#12=PROPERTY_DEFINITION_REPRESENTATION(#16,#14);
#13=PROPERTY_DEFINITION_REPRESENTATION(#17,#15);
#14=REPRESENTATION('',(#18),#302);
#15=REPRESENTATION('',(#19),#302);
#16=PROPERTY_DEFINITION('pmi validation property','',#23);
#17=PROPERTY_DEFINITION('pmi validation property','',#23);
#18=VALUE_REPRESENTATION_ITEM('number of annotations',COUNT_MEASURE(0.));
#19=VALUE_REPRESENTATION_ITEM('number of views',COUNT_MEASURE(0.));
#20=SHAPE_REPRESENTATION_RELATIONSHIP('None',
'relationship between pf664020C5B5gwr6-None and pf664020C5B5gwr6-None',
#32,#21);
#21=ADVANCED_BREP_SHAPE_REPRESENTATION('pf664020C5B5gwr6-None',(#38),#302);
#22=SHAPE_DEFINITION_REPRESENTATION(#23,#32);
#23=PRODUCT_DEFINITION_SHAPE('','',#24);
#24=PRODUCT_DEFINITION(' ','',#26,#25);
#25=PRODUCT_DEFINITION_CONTEXT('part definition',#31,'design');
#26=PRODUCT_DEFINITION_FORMATION_WITH_SPECIFIED_SOURCE(' ',' ',#28,
 .NOT_KNOWN.);
#27=PRODUCT_RELATED_PRODUCT_CATEGORY('part','',(#28));
#28=PRODUCT('pf664020C5B5gwr6','pf664020C5B5gwr6',' ',(#29));
#29=PRODUCT_CONTEXT(' ',#31,'mechanical');
#30=APPLICATION_PROTOCOL_DEFINITION('international standard',
'automotive_design',2010,#31);
#31=APPLICATION_CONTEXT(
'core data for automotive mechanical design processes');
#32=SHAPE_REPRESENTATION('pf664020C5B5gwr6-None',(#186),#302);
#33=SURFACE_STYLE_USAGE(.BOTH.,#34);
#34=SURFACE_SIDE_STYLE('',(#35));
#35=SURFACE_STYLE_FILL_AREA(#36);
#36=FILL_AREA_STYLE('',(#37));
#37=FILL_AREA_STYLE_COLOUR('',#182);
#38=MANIFOLD_SOLID_BREP('1',#39);
#39=CLOSED_SHELL('',(#67,#68,#69,#70,#71,#72,#73,#74,#75,#76,#77));
#40=CONICAL_SURFACE('',#202,17.5,25.);
#41=CYLINDRICAL_SURFACE('',#195,10.);
#42=CYLINDRICAL_SURFACE('',#200,17.5);
#43=CYLINDRICAL_SURFACE('',#209,9.5);
#44=LINE('',#274,#48);
#45=LINE('',#278,#49);
#46=LINE('',#280,#50);
#47=LINE('',#281,#51);
#48=VECTOR('',#226,1.);
#49=VECTOR('',#229,1.);
#50=VECTOR('',#232,1.);
#51=VECTOR('',#233,1.);
#52=ELLIPSE('',#193,14.142135623731,10.);
#53=ELLIPSE('',#194,14.1421356237309,10.);
#54=FACE_BOUND('',#91,.T.);
#55=FACE_BOUND('',#92,.T.);
#56=FACE_BOUND('',#93,.T.);
#57=FACE_BOUND('',#96,.T.);
#58=FACE_BOUND('',#97,.T.);
#59=FACE_BOUND('',#98,.T.);
#60=FACE_BOUND('',#99,.T.);
#61=FACE_BOUND('',#100,.T.);
#62=FACE_BOUND('',#101,.T.);
#63=FACE_BOUND('',#103,.T.);
#64=FACE_BOUND('',#104,.T.);
#65=FACE_BOUND('',#106,.T.);
#66=FACE_BOUND('',#107,.T.);
#67=ADVANCED_FACE('',(#85),#78,.T.);
#68=ADVANCED_FACE('',(#54,#55,#56),#41,.T.);
#69=ADVANCED_FACE('',(#86),#79,.T.);
#70=ADVANCED_FACE('',(#87),#80,.T.);
#71=ADVANCED_FACE('',(#57,#58),#42,.T.);
#72=ADVANCED_FACE('',(#59,#60),#40,.T.);
#73=ADVANCED_FACE('',(#61,#62),#81,.T.);
#74=ADVANCED_FACE('',(#88),#82,.T.);
#75=ADVANCED_FACE('',(#63,#64),#83,.T.);
#76=ADVANCED_FACE('',(#89),#84,.T.);
#77=ADVANCED_FACE('',(#65,#66),#43,.T.);
#78=PLANE('',#191);
#79=PLANE('',#196);
#80=PLANE('',#197);
#81=PLANE('',#204);
#82=PLANE('',#205);
#83=PLANE('',#207);
#84=PLANE('',#208);
#85=FACE_OUTER_BOUND('',#90,.T.);
#86=FACE_OUTER_BOUND('',#94,.T.);
#87=FACE_OUTER_BOUND('',#95,.T.);
#88=FACE_OUTER_BOUND('',#102,.T.);
#89=FACE_OUTER_BOUND('',#105,.T.);
#90=EDGE_LOOP('',(#108));
#91=EDGE_LOOP('',(#109));
#92=EDGE_LOOP('',(#110));
#93=EDGE_LOOP('',(#111,#112,#113,#114));
#94=EDGE_LOOP('',(#115,#116,#117,#118));
#95=EDGE_LOOP('',(#119,#120));
#96=EDGE_LOOP('',(#121));
#97=EDGE_LOOP('',(#122));
#98=EDGE_LOOP('',(#123));
#99=EDGE_LOOP('',(#124));
#100=EDGE_LOOP('',(#125));
#101=EDGE_LOOP('',(#126));
#102=EDGE_LOOP('',(#127,#128));
#103=EDGE_LOOP('',(#129));
#104=EDGE_LOOP('',(#130));
#105=EDGE_LOOP('',(#131));
#106=EDGE_LOOP('',(#132));
#107=EDGE_LOOP('',(#133));
#108=ORIENTED_EDGE('',*,*,#145,.T.);
#109=ORIENTED_EDGE('',*,*,#145,.F.);
#110=ORIENTED_EDGE('',*,*,#146,.T.);
#111=ORIENTED_EDGE('',*,*,#147,.T.);
#112=ORIENTED_EDGE('',*,*,#148,.T.);
#113=ORIENTED_EDGE('',*,*,#149,.T.);
#114=ORIENTED_EDGE('',*,*,#150,.T.);
#115=ORIENTED_EDGE('',*,*,#151,.F.);
#116=ORIENTED_EDGE('',*,*,#150,.F.);
#117=ORIENTED_EDGE('',*,*,#152,.T.);
#118=ORIENTED_EDGE('',*,*,#148,.F.);
#119=ORIENTED_EDGE('',*,*,#152,.F.);
#120=ORIENTED_EDGE('',*,*,#149,.F.);
#121=ORIENTED_EDGE('',*,*,#153,.F.);
#122=ORIENTED_EDGE('',*,*,#154,.T.);
#123=ORIENTED_EDGE('',*,*,#155,.T.);
#124=ORIENTED_EDGE('',*,*,#154,.F.);
#125=ORIENTED_EDGE('',*,*,#153,.T.);
#126=ORIENTED_EDGE('',*,*,#156,.F.);
#127=ORIENTED_EDGE('',*,*,#151,.T.);
#128=ORIENTED_EDGE('',*,*,#147,.F.);
#129=ORIENTED_EDGE('',*,*,#157,.T.);
#130=ORIENTED_EDGE('',*,*,#146,.F.);
#131=ORIENTED_EDGE('',*,*,#155,.F.);
#132=ORIENTED_EDGE('',*,*,#156,.T.);
#133=ORIENTED_EDGE('',*,*,#157,.F.);
#134=VERTEX_POINT('',#267);
#135=VERTEX_POINT('',#270);
#136=VERTEX_POINT('',#272);
#137=VERTEX_POINT('',#273);
#138=VERTEX_POINT('',#275);
#139=VERTEX_POINT('',#277);
#140=VERTEX_POINT('',#285);
#141=VERTEX_POINT('',#287);
#142=VERTEX_POINT('',#290);
#143=VERTEX_POINT('',#293);
#144=VERTEX_POINT('',#297);
#145=EDGE_CURVE('',#134,#134,#158,.T.);
#146=EDGE_CURVE('',#135,#135,#159,.T.);
#147=EDGE_CURVE('',#136,#137,#52,.T.);
#148=EDGE_CURVE('',#137,#138,#44,.T.);
#149=EDGE_CURVE('',#138,#139,#53,.T.);
#150=EDGE_CURVE('',#139,#136,#45,.T.);
#151=EDGE_CURVE('',#136,#137,#46,.T.);
#152=EDGE_CURVE('',#139,#138,#47,.T.);
#153=EDGE_CURVE('',#140,#140,#160,.T.);
#154=EDGE_CURVE('',#141,#141,#161,.T.);
#155=EDGE_CURVE('',#142,#142,#162,.T.);
#156=EDGE_CURVE('',#143,#143,#163,.T.);
#157=EDGE_CURVE('',#144,#144,#164,.T.);
#158=CIRCLE('',#190,10.);
#159=CIRCLE('',#192,10.);
#160=CIRCLE('',#198,17.5);
#161=CIRCLE('',#199,17.5);
#162=CIRCLE('',#201,13.5);
#163=CIRCLE('',#203,9.5);
#164=CIRCLE('',#206,9.5);
#165=INVISIBILITY((#166,#167,#168,#169));
#166=PRESENTATION_LAYER_ASSIGNMENT('100','Layer 100',(#187));
#167=PRESENTATION_LAYER_ASSIGNMENT('101','Layer 101',(#188));
#168=PRESENTATION_LAYER_ASSIGNMENT('102','Layer 102',(#189));
#169=PRESENTATION_LAYER_ASSIGNMENT('98','Layer 98',(#38));
#170=STYLED_ITEM('',(#174),#187);
#171=STYLED_ITEM('',(#175),#188);
#172=STYLED_ITEM('',(#176),#189);
#173=STYLED_ITEM('',(#177),#38);
#174=PRESENTATION_STYLE_ASSIGNMENT((#178));
#175=PRESENTATION_STYLE_ASSIGNMENT((#179));
#176=PRESENTATION_STYLE_ASSIGNMENT((#180));
#177=PRESENTATION_STYLE_ASSIGNMENT((#33));
#178=CURVE_STYLE('',#183,POSITIVE_LENGTH_MEASURE(0.7),#181);
#179=CURVE_STYLE('',#184,POSITIVE_LENGTH_MEASURE(0.7),#181);
#180=CURVE_STYLE('',#185,POSITIVE_LENGTH_MEASURE(0.7),#181);
#181=COLOUR_RGB('Medium Maroon',0.6,0.4,0.4);
#182=COLOUR_RGB('Medium Gray',0.490196078431373,0.490196078431373,0.490196078431373);
#183=DRAUGHTING_PRE_DEFINED_CURVE_FONT('continuous');
#184=DRAUGHTING_PRE_DEFINED_CURVE_FONT('continuous');
#185=DRAUGHTING_PRE_DEFINED_CURVE_FONT('continuous');
#186=AXIS2_PLACEMENT_3D('',#262,#210,#211);
#187=AXIS2_PLACEMENT_3D('PCS',#263,#212,#213);
#188=AXIS2_PLACEMENT_3D('CSW',#264,#214,#215);
#189=AXIS2_PLACEMENT_3D('MCS',#265,#216,#217);
#190=AXIS2_PLACEMENT_3D('',#266,#218,#219);
#191=AXIS2_PLACEMENT_3D('',#268,#220,#221);
#192=AXIS2_PLACEMENT_3D('',#269,#222,#223);
#193=AXIS2_PLACEMENT_3D('',#271,#224,#225);
#194=AXIS2_PLACEMENT_3D('',#276,#227,#228);
#195=AXIS2_PLACEMENT_3D('',#279,#230,#231);
#196=AXIS2_PLACEMENT_3D('',#282,#234,#235);
#197=AXIS2_PLACEMENT_3D('',#283,#236,#237);
#198=AXIS2_PLACEMENT_3D('',#284,#238,#239);
#199=AXIS2_PLACEMENT_3D('',#286,#240,#241);
#200=AXIS2_PLACEMENT_3D('',#288,#242,#243);
#201=AXIS2_PLACEMENT_3D('',#289,#244,#245);
#202=AXIS2_PLACEMENT_3D('',#291,#246,#247);
#203=AXIS2_PLACEMENT_3D('',#292,#248,#249);
#204=AXIS2_PLACEMENT_3D('',#294,#250,#251);
#205=AXIS2_PLACEMENT_3D('',#295,#252,#253);
#206=AXIS2_PLACEMENT_3D('',#296,#254,#255);
#207=AXIS2_PLACEMENT_3D('',#298,#256,#257);
#208=AXIS2_PLACEMENT_3D('',#299,#258,#259);
#209=AXIS2_PLACEMENT_3D('',#300,#260,#261);
#210=DIRECTION('',(0.,0.,1.));
#211=DIRECTION('',(1.,0.,0.));
#212=DIRECTION('',(0.,0.,1.));
#213=DIRECTION('',(1.,0.,0.));
#214=DIRECTION('',(0.,0.,1.));
#215=DIRECTION('',(1.,0.,0.));
#216=DIRECTION('',(0.,0.,1.));
#217=DIRECTION('',(1.,0.,0.));
#218=DIRECTION('',(0.,0.,1.));
#219=DIRECTION('',(1.,0.,0.));
#220=DIRECTION('',(0.,0.,1.));
#221=DIRECTION('',(0.,-1.,0.));
#222=DIRECTION('',(0.,0.,1.));
#223=DIRECTION('',(0.,1.,0.));
#224=DIRECTION('',(0.,-0.707106781186548,0.707106781186547));
#225=DIRECTION('',(0.,0.707106781186547,0.707106781186548));
#226=DIRECTION('',(0.,0.,-1.));
#227=DIRECTION('',(0.,-0.707106781186547,-0.707106781186548));
#228=DIRECTION('',(0.,-0.707106781186548,0.707106781186547));
#229=DIRECTION('',(0.,0.,1.));
#230=DIRECTION('',(0.,0.,-1.));
#231=DIRECTION('',(0.,-1.,0.));
#232=DIRECTION('',(-1.,0.,0.));
#233=DIRECTION('',(-1.,0.,0.));
#234=DIRECTION('',(0.,1.,0.));
#235=DIRECTION('',(0.,0.,1.));
#236=DIRECTION('',(0.,0.707106781186547,0.707106781186548));
#237=DIRECTION('',(0.,-0.707106781186548,0.707106781186547));
#238=DIRECTION('',(0.,0.,1.));
#239=DIRECTION('',(1.,0.,0.));
#240=DIRECTION('',(0.,0.,1.));
#241=DIRECTION('',(0.,1.,0.));
#242=DIRECTION('',(0.,0.,-1.));
#243=DIRECTION('',(0.,-1.,0.));
#244=DIRECTION('',(0.,0.,1.));
#245=DIRECTION('',(-1.,0.,0.));
#246=DIRECTION('',(0.,0.,1.));
#247=DIRECTION('',(0.,-1.,-7.17112863650063E-17));
#248=DIRECTION('',(0.,0.,1.));
#249=DIRECTION('',(0.,1.,0.));
#250=DIRECTION('',(0.,0.,1.));
#251=DIRECTION('',(0.,-1.,0.));
#252=DIRECTION('',(0.,0.707106781186548,-0.707106781186547));
#253=DIRECTION('',(0.,0.707106781186547,0.707106781186548));
#254=DIRECTION('',(0.,0.,1.));
#255=DIRECTION('',(0.,1.,0.));
#256=DIRECTION('',(0.,0.,-1.));
#257=DIRECTION('',(0.,1.,0.));
#258=DIRECTION('',(0.,0.,-1.));
#259=DIRECTION('',(0.,1.,0.));
#260=DIRECTION('',(0.,0.,-1.));
#261=DIRECTION('',(0.,-1.,0.));
#262=CARTESIAN_POINT('',(0.,0.,0.));
#263=CARTESIAN_POINT('',(0.,0.,0.));
#264=CARTESIAN_POINT('',(0.,0.,-30.));
#265=CARTESIAN_POINT('',(0.,0.,0.));
#266=CARTESIAN_POINT('',(1.33226762955019E-14,8.88178419700139E-16,50.));
#267=CARTESIAN_POINT('',(10.,8.88178419700139E-16,50.));
#268=CARTESIAN_POINT('',(1.33226762955019E-14,8.88178419700139E-16,50.));
#269=CARTESIAN_POINT('',(1.33226762955019E-14,8.88178419700139E-16,2.));
#270=CARTESIAN_POINT('',(1.33226762955019E-14,10.,2.));
#271=CARTESIAN_POINT('',(1.33226762955019E-14,8.88178419700139E-16,22.3));
#272=CARTESIAN_POINT('',(5.72363520850168,8.2,30.5));
#273=CARTESIAN_POINT('',(-5.72363520850166,8.2,30.5));
#274=CARTESIAN_POINT('',(-5.72363520850166,8.2,-30.));
#275=CARTESIAN_POINT('',(-5.72363520850166,8.2,19.5));
#276=CARTESIAN_POINT('',(1.33226762955019E-14,8.88178419700139E-16,27.7));
#277=CARTESIAN_POINT('',(5.72363520850168,8.2,19.5));
#278=CARTESIAN_POINT('',(5.72363520850168,8.2,-30.));
#279=CARTESIAN_POINT('',(1.33226762955019E-14,8.88178419700139E-16,-30.));
#280=CARTESIAN_POINT('',(17.5,8.2,30.5));
#281=CARTESIAN_POINT('',(17.5,8.2,19.5));
#282=CARTESIAN_POINT('',(17.5,8.2,30.5));
#283=CARTESIAN_POINT('',(17.5,8.2,19.5));
#284=CARTESIAN_POINT('',(1.33226762955019E-14,8.88178419700139E-16,0.));
#285=CARTESIAN_POINT('',(17.5,8.88178419700139E-16,0.));
#286=CARTESIAN_POINT('',(1.33226762955019E-14,8.88178419700139E-16,-21.4219723179618));
#287=CARTESIAN_POINT('',(1.33226762955019E-14,17.5,-21.4219723179618));
#288=CARTESIAN_POINT('',(1.33226762955019E-14,8.88178419700139E-16,-30.));
#289=CARTESIAN_POINT('',(1.33226762955019E-14,8.88178419700139E-16,-30.));
#290=CARTESIAN_POINT('',(-13.5,8.88178419700139E-16,-30.));
#291=CARTESIAN_POINT('',(1.33226762955019E-14,8.88178419700139E-16,-21.4219723179618));
#292=CARTESIAN_POINT('',(1.33226762955019E-14,8.88178419700139E-16,0.));
#293=CARTESIAN_POINT('',(1.33226762955019E-14,9.5,0.));
#294=CARTESIAN_POINT('',(-9.49999999999999,8.88178419700139E-16,0.));
#295=CARTESIAN_POINT('',(17.5,8.2,30.5));
#296=CARTESIAN_POINT('',(1.33226762955019E-14,8.88178419700139E-16,2.));
#297=CARTESIAN_POINT('',(1.33226762955019E-14,9.5,2.));
#298=CARTESIAN_POINT('',(-9.49999999999999,8.88178419700139E-16,2.));
#299=CARTESIAN_POINT('',(1.27317669999128E-14,8.88178419700139E-16,-30.));
#300=CARTESIAN_POINT('',(1.33226762955019E-14,8.88178419700139E-16,-30.));
#301=MECHANICAL_DESIGN_GEOMETRIC_PRESENTATION_REPRESENTATION('',(#170,#171,
#172,#173),#302);
#302=(
GEOMETRIC_REPRESENTATION_CONTEXT(3)
GLOBAL_UNCERTAINTY_ASSIGNED_CONTEXT((#303))
GLOBAL_UNIT_ASSIGNED_CONTEXT((#309,#305,#304))
REPRESENTATION_CONTEXT('AW.20-RED.W.10','TOP_LEVEL_ASSEMBLY_PART')
);
#303=UNCERTAINTY_MEASURE_WITH_UNIT(LENGTH_MEASURE(2.E-5),#309,
'DISTANCE_ACCURACY_VALUE','Maximum Tolerance applied to model');
#304=(
NAMED_UNIT(*)
SI_UNIT($,.STERADIAN.)
SOLID_ANGLE_UNIT()
);
#305=(
CONVERSION_BASED_UNIT('DEGREE',#307)
NAMED_UNIT(#306)
PLANE_ANGLE_UNIT()
);
#306=DIMENSIONAL_EXPONENTS(0.,0.,0.,0.,0.,0.,0.);
#307=PLANE_ANGLE_MEASURE_WITH_UNIT(PLANE_ANGLE_MEASURE(0.0174532925),#308);
#308=(
NAMED_UNIT(*)
PLANE_ANGLE_UNIT()
SI_UNIT($,.RADIAN.)
);
#309=(
LENGTH_UNIT()
NAMED_UNIT(*)
SI_UNIT(.MILLI.,.METRE.)
);
ENDSEC;
END-ISO-10303-21;
