ISO-10303-21;
HEADER;
/* Generated by software containing ST-Developer
 * from STEP Tools, Inc. (www.steptools.com) 
 */
/* OPTION: using custom schema-name function */

FILE_DESCRIPTION(
/* description */ (''),
/* implementation_level */ '2;1');

FILE_NAME(
/* name */ 'AC.20-SC.08.150.stp',
/* time_stamp */ '2024-07-07T20:53:59+02:00',
/* author */ (''),
/* organization */ (''),
/* preprocessor_version */ 'ST-DEVELOPER v16.7',
/* originating_system */ 'SIEMENS PLM Software NX 12.0',
/* authorisation */ '');

FILE_SCHEMA (('AUTOMOTIVE_DESIGN { 1 0 10303 214 3 1 1 1 }'));
ENDSEC;

DATA;
#10=CONSTRUCTIVE_GEOMETRY_REPRESENTATION_RELATIONSHIP(
'supplemental geometry','',#32,#11);
#11=CONSTRUCTIVE_GEOMETRY_REPRESENTATION('supplemental geometry',(#220,
#221,#222),#364);
#12=PROPERTY_DEFINITION_REPRESENTATION(#16,#14);
#13=PROPERTY_DEFINITION_REPRESENTATION(#17,#15);
#14=REPRESENTATION('',(#18),#364);
#15=REPRESENTATION('',(#19),#364);
#16=PROPERTY_DEFINITION('pmi validation property','',#23);
#17=PROPERTY_DEFINITION('pmi validation property','',#23);
#18=VALUE_REPRESENTATION_ITEM('number of annotations',COUNT_MEASURE(0.));
#19=VALUE_REPRESENTATION_ITEM('number of views',COUNT_MEASURE(0.));
#20=SHAPE_REPRESENTATION_RELATIONSHIP('None',
'relationship between pf661FBC17438y88-None and pf661FBC17438y88-None',
#32,#21);
#21=ADVANCED_BREP_SHAPE_REPRESENTATION('pf661FBC17438y88-None',(#38),#364);
#22=SHAPE_DEFINITION_REPRESENTATION(#23,#32);
#23=PRODUCT_DEFINITION_SHAPE('','',#24);
#24=PRODUCT_DEFINITION(' ','',#26,#25);
#25=PRODUCT_DEFINITION_CONTEXT('part definition',#31,'design');
#26=PRODUCT_DEFINITION_FORMATION_WITH_SPECIFIED_SOURCE(' ',' ',#28,
 .NOT_KNOWN.);
#27=PRODUCT_RELATED_PRODUCT_CATEGORY('part','',(#28));
#28=PRODUCT('pf661FBC17438y88','pf661FBC17438y88',' ',(#29));
#29=PRODUCT_CONTEXT(' ',#31,'mechanical');
#30=APPLICATION_PROTOCOL_DEFINITION('international standard',
'automotive_design',2010,#31);
#31=APPLICATION_CONTEXT(
'core data for automotive mechanical design processes');
#32=SHAPE_REPRESENTATION('pf661FBC17438y88-None',(#219),#364);
#33=SURFACE_STYLE_USAGE(.BOTH.,#34);
#34=SURFACE_SIDE_STYLE('',(#35));
#35=SURFACE_STYLE_FILL_AREA(#36);
#36=FILL_AREA_STYLE('',(#37));
#37=FILL_AREA_STYLE_COLOUR('',#215);
#38=MANIFOLD_SOLID_BREP('',#39);
#39=CLOSED_SHELL('',(#48,#49,#50,#51,#52,#53,#54,#55,#56,#57,#58,#59));
#40=CONICAL_SURFACE('',#234,9.75,45.);
#41=CONICAL_SURFACE('',#236,9.75,45.);
#42=CONICAL_SURFACE('',#242,9.683700936681,45.);
#43=CONICAL_SURFACE('',#244,9.683700936681,45.);
#44=CONICAL_SURFACE('',#245,7.969964357718,4.5);
#45=CONICAL_SURFACE('',#246,7.969964357718,4.5);
#46=PLANE('',#227);
#47=PLANE('',#232);
#48=ADVANCED_FACE('',(#64),#60,.T.);
#49=ADVANCED_FACE('',(#65),#46,.F.);
#50=ADVANCED_FACE('',(#66),#61,.T.);
#51=ADVANCED_FACE('',(#67),#47,.T.);
#52=ADVANCED_FACE('',(#68),#40,.T.);
#53=ADVANCED_FACE('',(#69),#41,.T.);
#54=ADVANCED_FACE('',(#70),#62,.T.);
#55=ADVANCED_FACE('',(#71),#63,.T.);
#56=ADVANCED_FACE('',(#72),#42,.T.);
#57=ADVANCED_FACE('',(#73),#43,.T.);
#58=ADVANCED_FACE('',(#74),#44,.T.);
#59=ADVANCED_FACE('',(#75),#45,.T.);
#60=CYLINDRICAL_SURFACE('',#225,10.);
#61=CYLINDRICAL_SURFACE('',#229,10.);
#62=CYLINDRICAL_SURFACE('',#238,9.5);
#63=CYLINDRICAL_SURFACE('',#240,9.5);
#64=FACE_OUTER_BOUND('',#76,.T.);
#65=FACE_OUTER_BOUND('',#77,.T.);
#66=FACE_OUTER_BOUND('',#78,.T.);
#67=FACE_OUTER_BOUND('',#79,.T.);
#68=FACE_OUTER_BOUND('',#80,.T.);
#69=FACE_OUTER_BOUND('',#81,.T.);
#70=FACE_OUTER_BOUND('',#82,.T.);
#71=FACE_OUTER_BOUND('',#83,.T.);
#72=FACE_OUTER_BOUND('',#84,.T.);
#73=FACE_OUTER_BOUND('',#85,.T.);
#74=FACE_OUTER_BOUND('',#86,.T.);
#75=FACE_OUTER_BOUND('',#87,.T.);
#76=EDGE_LOOP('',(#100,#101,#102,#103));
#77=EDGE_LOOP('',(#104,#105));
#78=EDGE_LOOP('',(#106,#107,#108,#109));
#79=EDGE_LOOP('',(#110,#111));
#80=EDGE_LOOP('',(#112,#113,#114,#115));
#81=EDGE_LOOP('',(#116,#117,#118,#119));
#82=EDGE_LOOP('',(#120,#121,#122,#123));
#83=EDGE_LOOP('',(#124,#125,#126,#127));
#84=EDGE_LOOP('',(#128,#129,#130,#131));
#85=EDGE_LOOP('',(#132,#133,#134,#135));
#86=EDGE_LOOP('',(#136,#137,#138,#139));
#87=EDGE_LOOP('',(#140,#141,#142,#143));
#88=CIRCLE('',#223,10.);
#89=CIRCLE('',#224,10.);
#90=CIRCLE('',#226,10.);
#91=CIRCLE('',#228,10.);
#92=CIRCLE('',#230,5.99999999999936);
#93=CIRCLE('',#231,5.99999999999936);
#94=CIRCLE('',#233,9.5);
#95=CIRCLE('',#235,9.5);
#96=CIRCLE('',#237,9.5);
#97=CIRCLE('',#239,9.5);
#98=CIRCLE('',#241,9.867401873362);
#99=CIRCLE('',#243,9.867401873362);
#100=ORIENTED_EDGE('',*,*,#156,.T.);
#101=ORIENTED_EDGE('',*,*,#157,.T.);
#102=ORIENTED_EDGE('',*,*,#158,.F.);
#103=ORIENTED_EDGE('',*,*,#159,.F.);
#104=ORIENTED_EDGE('',*,*,#157,.F.);
#105=ORIENTED_EDGE('',*,*,#160,.F.);
#106=ORIENTED_EDGE('',*,*,#158,.T.);
#107=ORIENTED_EDGE('',*,*,#160,.T.);
#108=ORIENTED_EDGE('',*,*,#156,.F.);
#109=ORIENTED_EDGE('',*,*,#161,.T.);
#110=ORIENTED_EDGE('',*,*,#162,.F.);
#111=ORIENTED_EDGE('',*,*,#163,.F.);
#112=ORIENTED_EDGE('',*,*,#164,.T.);
#113=ORIENTED_EDGE('',*,*,#165,.T.);
#114=ORIENTED_EDGE('',*,*,#161,.F.);
#115=ORIENTED_EDGE('',*,*,#166,.F.);
#116=ORIENTED_EDGE('',*,*,#159,.T.);
#117=ORIENTED_EDGE('',*,*,#165,.F.);
#118=ORIENTED_EDGE('',*,*,#167,.F.);
#119=ORIENTED_EDGE('',*,*,#166,.T.);
#120=ORIENTED_EDGE('',*,*,#167,.T.);
#121=ORIENTED_EDGE('',*,*,#168,.F.);
#122=ORIENTED_EDGE('',*,*,#169,.F.);
#123=ORIENTED_EDGE('',*,*,#170,.T.);
#124=ORIENTED_EDGE('',*,*,#171,.T.);
#125=ORIENTED_EDGE('',*,*,#168,.T.);
#126=ORIENTED_EDGE('',*,*,#164,.F.);
#127=ORIENTED_EDGE('',*,*,#170,.F.);
#128=ORIENTED_EDGE('',*,*,#172,.T.);
#129=ORIENTED_EDGE('',*,*,#173,.T.);
#130=ORIENTED_EDGE('',*,*,#171,.F.);
#131=ORIENTED_EDGE('',*,*,#174,.F.);
#132=ORIENTED_EDGE('',*,*,#169,.T.);
#133=ORIENTED_EDGE('',*,*,#173,.F.);
#134=ORIENTED_EDGE('',*,*,#175,.F.);
#135=ORIENTED_EDGE('',*,*,#174,.T.);
#136=ORIENTED_EDGE('',*,*,#175,.T.);
#137=ORIENTED_EDGE('',*,*,#176,.F.);
#138=ORIENTED_EDGE('',*,*,#163,.T.);
#139=ORIENTED_EDGE('',*,*,#177,.T.);
#140=ORIENTED_EDGE('',*,*,#162,.T.);
#141=ORIENTED_EDGE('',*,*,#176,.T.);
#142=ORIENTED_EDGE('',*,*,#172,.F.);
#143=ORIENTED_EDGE('',*,*,#177,.F.);
#144=VERTEX_POINT('',#318);
#145=VERTEX_POINT('',#319);
#146=VERTEX_POINT('',#321);
#147=VERTEX_POINT('',#323);
#148=VERTEX_POINT('',#331);
#149=VERTEX_POINT('',#332);
#150=VERTEX_POINT('',#336);
#151=VERTEX_POINT('',#337);
#152=VERTEX_POINT('',#344);
#153=VERTEX_POINT('',#346);
#154=VERTEX_POINT('',#352);
#155=VERTEX_POINT('',#353);
#156=EDGE_CURVE('',#144,#145,#178,.T.);
#157=EDGE_CURVE('',#145,#146,#88,.T.);
#158=EDGE_CURVE('',#147,#146,#179,.T.);
#159=EDGE_CURVE('',#144,#147,#89,.T.);
#160=EDGE_CURVE('',#146,#145,#90,.T.);
#161=EDGE_CURVE('',#144,#147,#91,.T.);
#162=EDGE_CURVE('',#148,#149,#92,.T.);
#163=EDGE_CURVE('',#149,#148,#93,.T.);
#164=EDGE_CURVE('',#150,#151,#94,.T.);
#165=EDGE_CURVE('',#151,#147,#180,.T.);
#166=EDGE_CURVE('',#150,#144,#181,.T.);
#167=EDGE_CURVE('',#150,#151,#95,.T.);
#168=EDGE_CURVE('',#152,#151,#182,.T.);
#169=EDGE_CURVE('',#153,#152,#96,.T.);
#170=EDGE_CURVE('',#153,#150,#183,.T.);
#171=EDGE_CURVE('',#153,#152,#97,.T.);
#172=EDGE_CURVE('',#154,#155,#98,.T.);
#173=EDGE_CURVE('',#155,#152,#184,.T.);
#174=EDGE_CURVE('',#154,#153,#185,.T.);
#175=EDGE_CURVE('',#154,#155,#99,.T.);
#176=EDGE_CURVE('',#149,#155,#186,.T.);
#177=EDGE_CURVE('',#148,#154,#187,.T.);
#178=LINE('',#317,#188);
#179=LINE('',#322,#189);
#180=LINE('',#338,#190);
#181=LINE('',#339,#191);
#182=LINE('',#343,#192);
#183=LINE('',#347,#193);
#184=LINE('',#354,#194);
#185=LINE('',#355,#195);
#186=LINE('',#359,#196);
#187=LINE('',#360,#197);
#188=VECTOR('',#255,1.);
#189=VECTOR('',#258,1.);
#190=VECTOR('',#279,1.);
#191=VECTOR('',#280,1.);
#192=VECTOR('',#287,1.);
#193=VECTOR('',#290,1.);
#194=VECTOR('',#299,1.);
#195=VECTOR('',#300,1.);
#196=VECTOR('',#307,1.);
#197=VECTOR('',#308,1.);
#198=INVISIBILITY((#199,#200,#201));
#199=PRESENTATION_LAYER_ASSIGNMENT('100','Layer 100',(#220));
#200=PRESENTATION_LAYER_ASSIGNMENT('101','Layer 101',(#221));
#201=PRESENTATION_LAYER_ASSIGNMENT('102','Layer 102',(#222));
#202=PRESENTATION_LAYER_ASSIGNMENT('98','Layer 98',(#38));
#203=STYLED_ITEM('',(#207),#220);
#204=STYLED_ITEM('',(#208),#221);
#205=STYLED_ITEM('',(#209),#222);
#206=STYLED_ITEM('',(#210),#38);
#207=PRESENTATION_STYLE_ASSIGNMENT((#211));
#208=PRESENTATION_STYLE_ASSIGNMENT((#212));
#209=PRESENTATION_STYLE_ASSIGNMENT((#213));
#210=PRESENTATION_STYLE_ASSIGNMENT((#33));
#211=CURVE_STYLE('',#216,POSITIVE_LENGTH_MEASURE(0.7),#214);
#212=CURVE_STYLE('',#217,POSITIVE_LENGTH_MEASURE(0.7),#214);
#213=CURVE_STYLE('',#218,POSITIVE_LENGTH_MEASURE(0.7),#214);
#214=COLOUR_RGB('Medium Maroon',0.6,0.4,0.4);
#215=COLOUR_RGB('Medium Gray',0.490196078431373,0.490196078431373,0.490196078431373);
#216=DRAUGHTING_PRE_DEFINED_CURVE_FONT('continuous');
#217=DRAUGHTING_PRE_DEFINED_CURVE_FONT('continuous');
#218=DRAUGHTING_PRE_DEFINED_CURVE_FONT('continuous');
#219=AXIS2_PLACEMENT_3D('',#313,#247,#248);
#220=AXIS2_PLACEMENT_3D('PCS',#314,#249,#250);
#221=AXIS2_PLACEMENT_3D('CSW',#315,#251,#252);
#222=AXIS2_PLACEMENT_3D('MCS',#316,#253,#254);
#223=AXIS2_PLACEMENT_3D('',#320,#256,#257);
#224=AXIS2_PLACEMENT_3D('',#324,#259,#260);
#225=AXIS2_PLACEMENT_3D('',#325,#261,#262);
#226=AXIS2_PLACEMENT_3D('',#326,#263,#264);
#227=AXIS2_PLACEMENT_3D('',#327,#265,#266);
#228=AXIS2_PLACEMENT_3D('',#328,#267,#268);
#229=AXIS2_PLACEMENT_3D('',#329,#269,#270);
#230=AXIS2_PLACEMENT_3D('',#330,#271,#272);
#231=AXIS2_PLACEMENT_3D('',#333,#273,#274);
#232=AXIS2_PLACEMENT_3D('',#334,#275,#276);
#233=AXIS2_PLACEMENT_3D('',#335,#277,#278);
#234=AXIS2_PLACEMENT_3D('',#340,#281,#282);
#235=AXIS2_PLACEMENT_3D('',#341,#283,#284);
#236=AXIS2_PLACEMENT_3D('',#342,#285,#286);
#237=AXIS2_PLACEMENT_3D('',#345,#288,#289);
#238=AXIS2_PLACEMENT_3D('',#348,#291,#292);
#239=AXIS2_PLACEMENT_3D('',#349,#293,#294);
#240=AXIS2_PLACEMENT_3D('',#350,#295,#296);
#241=AXIS2_PLACEMENT_3D('',#351,#297,#298);
#242=AXIS2_PLACEMENT_3D('',#356,#301,#302);
#243=AXIS2_PLACEMENT_3D('',#357,#303,#304);
#244=AXIS2_PLACEMENT_3D('',#358,#305,#306);
#245=AXIS2_PLACEMENT_3D('',#361,#309,#310);
#246=AXIS2_PLACEMENT_3D('',#362,#311,#312);
#247=DIRECTION('',(0.,0.,1.));
#248=DIRECTION('',(1.,0.,0.));
#249=DIRECTION('',(0.,0.,1.));
#250=DIRECTION('',(1.,0.,0.));
#251=DIRECTION('',(0.,0.,1.));
#252=DIRECTION('',(1.,0.,0.));
#253=DIRECTION('',(0.,0.,1.));
#254=DIRECTION('',(1.,0.,0.));
#255=DIRECTION('',(5.743813392764E-12,-8.386994802353E-13,1.));
#256=DIRECTION('',(0.,0.,-1.));
#257=DIRECTION('',(-1.,0.,0.));
#258=DIRECTION('',(-5.743819017145E-12,8.386994802353E-13,1.));
#259=DIRECTION('',(0.,0.,-1.));
#260=DIRECTION('',(0.,1.,0.));
#261=DIRECTION('',(0.,0.,-1.));
#262=DIRECTION('',(0.,1.,0.));
#263=DIRECTION('',(0.,0.,-1.));
#264=DIRECTION('',(-1.,0.,0.));
#265=DIRECTION('',(0.,0.,-1.));
#266=DIRECTION('',(0.,1.,0.));
#267=DIRECTION('',(0.,0.,1.));
#268=DIRECTION('',(0.,1.,0.));
#269=DIRECTION('',(0.,0.,-1.));
#270=DIRECTION('',(0.,1.,0.));
#271=DIRECTION('',(0.,0.,1.));
#272=DIRECTION('',(-1.,0.,0.));
#273=DIRECTION('',(0.,0.,1.));
#274=DIRECTION('',(-1.,0.,0.));
#275=DIRECTION('',(0.,0.,-1.));
#276=DIRECTION('',(0.,1.,0.));
#277=DIRECTION('',(0.,0.,1.));
#278=DIRECTION('',(0.,1.,0.));
#279=DIRECTION('',(0.,-0.707106781186498,0.707106781186598));
#280=DIRECTION('',(0.,0.707106781186498,0.707106781186598));
#281=DIRECTION('',(0.,0.,1.));
#282=DIRECTION('',(0.,-1.,2.74875717906699E-17));
#283=DIRECTION('',(0.,0.,-1.));
#284=DIRECTION('',(0.,1.,0.));
#285=DIRECTION('',(0.,0.,1.));
#286=DIRECTION('',(0.,-1.,2.74875717906699E-17));
#287=DIRECTION('',(0.,0.,1.));
#288=DIRECTION('',(0.,0.,-1.));
#289=DIRECTION('',(0.,1.,0.));
#290=DIRECTION('',(0.,0.,1.));
#291=DIRECTION('',(0.,0.,-1.));
#292=DIRECTION('',(0.,1.,0.));
#293=DIRECTION('',(0.,0.,1.));
#294=DIRECTION('',(0.,1.,0.));
#295=DIRECTION('',(0.,0.,-1.));
#296=DIRECTION('',(0.,1.,0.));
#297=DIRECTION('',(0.,0.,1.));
#298=DIRECTION('',(0.,1.,0.));
#299=DIRECTION('',(0.,0.707106781186498,0.707106781186598));
#300=DIRECTION('',(0.,-0.707106781186498,0.707106781186598));
#301=DIRECTION('',(0.,0.,-1.));
#302=DIRECTION('',(0.,1.,1.03085162672281E-16));
#303=DIRECTION('',(0.,0.,-1.));
#304=DIRECTION('',(0.,1.,0.));
#305=DIRECTION('',(0.,0.,-1.));
#306=DIRECTION('',(0.,1.,1.03085162672281E-16));
#307=DIRECTION('',(-1.38638658012504E-13,-0.0784590957278522,0.996917333733127));
#308=DIRECTION('',(1.38642430128904E-13,0.0784590957278522,0.996917333733127));
#309=DIRECTION('',(0.,0.,1.));
#310=DIRECTION('',(0.,-1.,4.00297687194092E-16));
#311=DIRECTION('',(0.,0.,1.));
#312=DIRECTION('',(0.,-1.,4.00297687194092E-16));
#313=CARTESIAN_POINT('',(0.,0.,0.));
#314=CARTESIAN_POINT('',(0.,0.,0.));
#315=CARTESIAN_POINT('',(0.,0.,-53.));
#316=CARTESIAN_POINT('',(0.,0.,0.));
#317=CARTESIAN_POINT('',(0.,10.,0.));
#318=CARTESIAN_POINT('',(0.,10.,0.));
#319=CARTESIAN_POINT('',(0.,10.,97.));
#320=CARTESIAN_POINT('',(0.,0.,97.));
#321=CARTESIAN_POINT('',(-1.37851339752208E-10,-10.,97.));
#322=CARTESIAN_POINT('',(0.,-10.,0.));
#323=CARTESIAN_POINT('',(0.,-10.,0.));
#324=CARTESIAN_POINT('',(0.,0.,0.));
#325=CARTESIAN_POINT('',(0.,0.,104.5));
#326=CARTESIAN_POINT('',(0.,0.,97.));
#327=CARTESIAN_POINT('',(0.,0.,97.));
#328=CARTESIAN_POINT('',(0.,0.,0.));
#329=CARTESIAN_POINT('',(0.,0.,104.5));
#330=CARTESIAN_POINT('',(0.,0.,-53.));
#331=CARTESIAN_POINT('',(-6.83274741340125E-12,6.00000000000024,-53.));
#332=CARTESIAN_POINT('',(6.83256147842571E-12,-6.00000000000024,-53.));
#333=CARTESIAN_POINT('',(0.,0.,-53.));
#334=CARTESIAN_POINT('',(0.,0.,-53.));
#335=CARTESIAN_POINT('',(0.,0.,-0.5));
#336=CARTESIAN_POINT('',(0.,9.5,-0.5));
#337=CARTESIAN_POINT('',(0.,-9.5,-0.5));
#338=CARTESIAN_POINT('',(0.,-9.5,-0.5));
#339=CARTESIAN_POINT('',(0.,9.5,-0.5));
#340=CARTESIAN_POINT('',(0.,0.,-0.25));
#341=CARTESIAN_POINT('',(0.,0.,-0.5));
#342=CARTESIAN_POINT('',(0.,0.,-0.25));
#343=CARTESIAN_POINT('',(0.,-9.5,-3.49259812664));
#344=CARTESIAN_POINT('',(0.,-9.5,-3.49259812664));
#345=CARTESIAN_POINT('',(0.,0.,-3.49259812664));
#346=CARTESIAN_POINT('',(0.,9.5,-3.49259812664));
#347=CARTESIAN_POINT('',(0.,9.5,-3.49259812664));
#348=CARTESIAN_POINT('',(0.,0.,104.5));
#349=CARTESIAN_POINT('',(0.,0.,-3.49259812664));
#350=CARTESIAN_POINT('',(0.,0.,104.5));
#351=CARTESIAN_POINT('',(0.,0.,-3.86));
#352=CARTESIAN_POINT('',(0.,9.867401873362,-3.86));
#353=CARTESIAN_POINT('',(0.,-9.867401873362,-3.86));
#354=CARTESIAN_POINT('',(0.,-9.867401873362,-3.86));
#355=CARTESIAN_POINT('',(0.,9.867401873362,-3.86));
#356=CARTESIAN_POINT('',(0.,0.,-3.67629906332));
#357=CARTESIAN_POINT('',(0.,0.,-3.86));
#358=CARTESIAN_POINT('',(0.,0.,-3.67629906332));
#359=CARTESIAN_POINT('',(6.704405221183E-12,-6.072526842075,-52.07845909573));
#360=CARTESIAN_POINT('',(-6.70458766925E-12,6.072526842075,-52.07845909573));
#361=CARTESIAN_POINT('',(0.,0.,-27.96922954786));
#362=CARTESIAN_POINT('',(0.,0.,-27.96922954786));
#363=MECHANICAL_DESIGN_GEOMETRIC_PRESENTATION_REPRESENTATION('',(#203,#204,
#205,#206),#364);
#364=(
GEOMETRIC_REPRESENTATION_CONTEXT(3)
GLOBAL_UNCERTAINTY_ASSIGNED_CONTEXT((#365))
GLOBAL_UNIT_ASSIGNED_CONTEXT((#371,#367,#366))
REPRESENTATION_CONTEXT('AC.20-SC.08','TOP_LEVEL_ASSEMBLY_PART')
);
#365=UNCERTAINTY_MEASURE_WITH_UNIT(LENGTH_MEASURE(2.E-5),#371,
'DISTANCE_ACCURACY_VALUE','Maximum Tolerance applied to model');
#366=(
NAMED_UNIT(*)
SI_UNIT($,.STERADIAN.)
SOLID_ANGLE_UNIT()
);
#367=(
CONVERSION_BASED_UNIT('DEGREE',#369)
NAMED_UNIT(#368)
PLANE_ANGLE_UNIT()
);
#368=DIMENSIONAL_EXPONENTS(0.,0.,0.,0.,0.,0.,0.);
#369=PLANE_ANGLE_MEASURE_WITH_UNIT(PLANE_ANGLE_MEASURE(0.0174532925),#370);
#370=(
NAMED_UNIT(*)
PLANE_ANGLE_UNIT()
SI_UNIT($,.RADIAN.)
);
#371=(
LENGTH_UNIT()
NAMED_UNIT(*)
SI_UNIT(.MILLI.,.METRE.)
);
ENDSEC;
END-ISO-10303-21;
