ISO-10303-21;
HEADER;
/* Generated by software containing ST-Developer
 * from STEP Tools, Inc. (www.steptools.com) 
 */
/* OPTION: using custom schema-name function */

FILE_DESCRIPTION(
/* description */ (''),
/* implementation_level */ '2;1');

FILE_NAME(
/* name */ '204697917ndi000_00.stp',
/* time_stamp */ '2023-04-25T07:43:30+02:00',
/* author */ (''),
/* organization */ (''),
/* preprocessor_version */ 'ST-DEVELOPER v16.7',
/* originating_system */ 'SIEMENS PLM Software NX 12.0',
/* authorisation */ '');

FILE_SCHEMA (('AP203_CONFIGURATION_CONTROLLED_3D_DESIGN_OF_MECHANICAL_PARTS_AND_ASSEMBLIES_MIM_LF { 1 0 10303 403 2 1 2}'));
ENDSEC;

DATA;
#10=CONSTRUCTIVE_GEOMETRY_REPRESENTATION_RELATIONSHIP(
'supplemental geometry','',#102,#11);
#11=CONSTRUCTIVE_GEOMETRY_REPRESENTATION('supplemental geometry',(#306,
#307,#308),#464);
#12=PROPERTY_DEFINITION_REPRESENTATION(#16,#14);
#13=PROPERTY_DEFINITION_REPRESENTATION(#17,#15);
#14=REPRESENTATION('',(#18),#464);
#15=REPRESENTATION('',(#19),#464);
#16=PROPERTY_DEFINITION('pmi validation property','',#91);
#17=PROPERTY_DEFINITION('pmi validation property','',#91);
#18=VALUE_REPRESENTATION_ITEM('number of annotations',COUNT_MEASURE(0.));
#19=VALUE_REPRESENTATION_ITEM('number of views',COUNT_MEASURE(0.));
#20=SHAPE_REPRESENTATION_RELATIONSHIP('None',
'relationship between mp544AE4FA35nmba-None and mp544AE4FA35nmba-None',
#102,#21);
#21=ADVANCED_BREP_SHAPE_REPRESENTATION('mp544AE4FA35nmba-None',(#108),#464);
#22=CC_DESIGN_APPROVAL(#34,(#92));
#23=CC_DESIGN_APPROVAL(#35,(#94));
#24=CC_DESIGN_APPROVAL(#36,(#41));
#25=APPROVAL_PERSON_ORGANIZATION(#79,#34,#28);
#26=APPROVAL_PERSON_ORGANIZATION(#80,#35,#29);
#27=APPROVAL_PERSON_ORGANIZATION(#81,#36,#30);
#28=APPROVAL_ROLE('approver');
#29=APPROVAL_ROLE('approver');
#30=APPROVAL_ROLE('approver');
#31=APPROVAL_DATE_TIME(#49,#34);
#32=APPROVAL_DATE_TIME(#50,#35);
#33=APPROVAL_DATE_TIME(#51,#36);
#34=APPROVAL(#37,' ');
#35=APPROVAL(#38,' ');
#36=APPROVAL(#39,' ');
#37=APPROVAL_STATUS('not_yet_approved');
#38=APPROVAL_STATUS('not_yet_approved');
#39=APPROVAL_STATUS('not_yet_approved');
#40=CC_DESIGN_SECURITY_CLASSIFICATION(#41,(#94));
#41=SECURITY_CLASSIFICATION(' ',' ',#42);
#42=SECURITY_CLASSIFICATION_LEVEL('confidential');
#43=CC_DESIGN_DATE_AND_TIME_ASSIGNMENT(#47,#45,(#92));
#44=CC_DESIGN_DATE_AND_TIME_ASSIGNMENT(#48,#46,(#41));
#45=DATE_TIME_ROLE('creation_date');
#46=DATE_TIME_ROLE('classification_date');
#47=DATE_AND_TIME(#62,#52);
#48=DATE_AND_TIME(#63,#53);
#49=DATE_AND_TIME(#64,#54);
#50=DATE_AND_TIME(#65,#55);
#51=DATE_AND_TIME(#66,#56);
#52=LOCAL_TIME(0,0,0.,#57);
#53=LOCAL_TIME(0,0,0.,#58);
#54=LOCAL_TIME(0,0,0.,#59);
#55=LOCAL_TIME(0,0,0.,#60);
#56=LOCAL_TIME(0,0,0.,#61);
#57=COORDINATED_UNIVERSAL_TIME_OFFSET(0,0,.BEHIND.);
#58=COORDINATED_UNIVERSAL_TIME_OFFSET(0,0,.BEHIND.);
#59=COORDINATED_UNIVERSAL_TIME_OFFSET(0,0,.BEHIND.);
#60=COORDINATED_UNIVERSAL_TIME_OFFSET(0,0,.BEHIND.);
#61=COORDINATED_UNIVERSAL_TIME_OFFSET(0,0,.BEHIND.);
#62=CALENDAR_DATE(0,1,1);
#63=CALENDAR_DATE(0,1,1);
#64=CALENDAR_DATE(0,1,1);
#65=CALENDAR_DATE(0,1,1);
#66=CALENDAR_DATE(0,1,1);
#67=CC_DESIGN_PERSON_AND_ORGANIZATION_ASSIGNMENT(#75,#71,(#92,#94));
#68=CC_DESIGN_PERSON_AND_ORGANIZATION_ASSIGNMENT(#76,#72,(#96));
#69=CC_DESIGN_PERSON_AND_ORGANIZATION_ASSIGNMENT(#77,#73,(#94));
#70=CC_DESIGN_PERSON_AND_ORGANIZATION_ASSIGNMENT(#78,#74,(#41));
#71=PERSON_AND_ORGANIZATION_ROLE('creator');
#72=PERSON_AND_ORGANIZATION_ROLE('design_owner');
#73=PERSON_AND_ORGANIZATION_ROLE('design_supplier');
#74=PERSON_AND_ORGANIZATION_ROLE('classification_officer');
#75=PERSON_AND_ORGANIZATION(#89,#82);
#76=PERSON_AND_ORGANIZATION(#89,#83);
#77=PERSON_AND_ORGANIZATION(#89,#84);
#78=PERSON_AND_ORGANIZATION(#89,#85);
#79=PERSON_AND_ORGANIZATION(#89,#86);
#80=PERSON_AND_ORGANIZATION(#89,#87);
#81=PERSON_AND_ORGANIZATION(#89,#88);
#82=ORGANIZATION(' ',' ',' ');
#83=ORGANIZATION(' ',' ',' ');
#84=ORGANIZATION(' ',' ',' ');
#85=ORGANIZATION(' ',' ',' ');
#86=ORGANIZATION(' ',' ',' ');
#87=ORGANIZATION(' ',' ',' ');
#88=ORGANIZATION(' ',' ',' ');
#89=PERSON(' ',' ',' ',(' '),$,$);
#90=SHAPE_DEFINITION_REPRESENTATION(#91,#102);
#91=PRODUCT_DEFINITION_SHAPE('','',#92);
#92=PRODUCT_DEFINITION(' ','',#94,#93);
#93=DESIGN_CONTEXT('',#101,'design');
#94=PRODUCT_DEFINITION_FORMATION_WITH_SPECIFIED_SOURCE(' ',' ',#96,
 .NOT_KNOWN.);
#95=PRODUCT_RELATED_PRODUCT_CATEGORY('detail','',(#96));
#96=PRODUCT('mp544AE4FA35nmba','mp544AE4FA35nmba',' ',(#99));
#97=PRODUCT_CATEGORY('part',' ');
#98=PRODUCT_CATEGORY(' ','');
#99=MECHANICAL_CONTEXT(' ',#101,'mechanical');
#100=APPLICATION_PROTOCOL_DEFINITION('international standard',
'config_control_design',2010,#101);
#101=APPLICATION_CONTEXT(
'configuration controlled 3D designs of mechanical parts and assemblie
s');
#102=SHAPE_REPRESENTATION('mp544AE4FA35nmba-None',(#305),#464);
#103=SURFACE_STYLE_USAGE(.BOTH.,#104);
#104=SURFACE_SIDE_STYLE('',(#105));
#105=SURFACE_STYLE_FILL_AREA(#106);
#106=FILL_AREA_STYLE('',(#107));
#107=FILL_AREA_STYLE_COLOUR('',#301);
#108=MANIFOLD_SOLID_BREP('SMUSSO6',#109);
#109=CLOSED_SHELL('',(#142,#143,#144,#145,#146,#147,#148,#149,#150,#151,
#152,#153,#154));
#110=FACE_BOUND('',#178,.T.);
#111=FACE_BOUND('',#179,.T.);
#112=CYLINDRICAL_SURFACE('',#321,4.25);
#113=CYLINDRICAL_SURFACE('',#322,8.);
#114=CYLINDRICAL_SURFACE('',#325,8.);
#115=CYLINDRICAL_SURFACE('',#332,4.25);
#116=CONICAL_SURFACE('',#314,7.50000000000003,44.9999999999996);
#117=CONICAL_SURFACE('',#317,8.,44.999999999999);
#118=CONICAL_SURFACE('',#320,4.25,59.9999999999994);
#119=CONICAL_SURFACE('',#333,4.25,59.9999999999994);
#120=CONICAL_SURFACE('',#334,8.,44.999999999999);
#121=CONICAL_SURFACE('',#335,7.50000000000003,44.9999999999996);
#122=LINE('',#420,#132);
#123=LINE('',#424,#133);
#124=LINE('',#429,#134);
#125=LINE('',#433,#135);
#126=LINE('',#438,#136);
#127=LINE('',#442,#137);
#128=LINE('',#444,#138);
#129=LINE('',#445,#139);
#130=LINE('',#447,#140);
#131=LINE('',#448,#141);
#132=VECTOR('',#352,1.);
#133=VECTOR('',#355,1.);
#134=VECTOR('',#360,1.);
#135=VECTOR('',#363,1.);
#136=VECTOR('',#368,1.);
#137=VECTOR('',#371,1.);
#138=VECTOR('',#374,1.);
#139=VECTOR('',#375,1.);
#140=VECTOR('',#378,1.);
#141=VECTOR('',#379,1.);
#142=ADVANCED_FACE('',(#158),#155,.F.);
#143=ADVANCED_FACE('',(#159),#116,.T.);
#144=ADVANCED_FACE('',(#160),#117,.T.);
#145=ADVANCED_FACE('',(#161),#118,.F.);
#146=ADVANCED_FACE('',(#162),#112,.F.);
#147=ADVANCED_FACE('',(#163),#113,.T.);
#148=ADVANCED_FACE('',(#164),#114,.T.);
#149=ADVANCED_FACE('',(#165),#156,.F.);
#150=ADVANCED_FACE('',(#110,#111),#157,.T.);
#151=ADVANCED_FACE('',(#166),#115,.F.);
#152=ADVANCED_FACE('',(#167),#119,.F.);
#153=ADVANCED_FACE('',(#168),#120,.T.);
#154=ADVANCED_FACE('',(#169),#121,.T.);
#155=PLANE('',#311);
#156=PLANE('',#327);
#157=PLANE('',#330);
#158=FACE_OUTER_BOUND('',#170,.T.);
#159=FACE_OUTER_BOUND('',#171,.T.);
#160=FACE_OUTER_BOUND('',#172,.T.);
#161=FACE_OUTER_BOUND('',#173,.T.);
#162=FACE_OUTER_BOUND('',#174,.T.);
#163=FACE_OUTER_BOUND('',#175,.T.);
#164=FACE_OUTER_BOUND('',#176,.T.);
#165=FACE_OUTER_BOUND('',#177,.T.);
#166=FACE_OUTER_BOUND('',#180,.T.);
#167=FACE_OUTER_BOUND('',#181,.T.);
#168=FACE_OUTER_BOUND('',#182,.T.);
#169=FACE_OUTER_BOUND('',#183,.T.);
#170=EDGE_LOOP('',(#184,#185));
#171=EDGE_LOOP('',(#186,#187,#188,#189));
#172=EDGE_LOOP('',(#190,#191,#192,#193));
#173=EDGE_LOOP('',(#194,#195,#196,#197));
#174=EDGE_LOOP('',(#198,#199,#200,#201));
#175=EDGE_LOOP('',(#202,#203,#204,#205));
#176=EDGE_LOOP('',(#206,#207,#208,#209));
#177=EDGE_LOOP('',(#210,#211));
#178=EDGE_LOOP('',(#212,#213));
#179=EDGE_LOOP('',(#214,#215));
#180=EDGE_LOOP('',(#216,#217,#218,#219));
#181=EDGE_LOOP('',(#220,#221,#222,#223));
#182=EDGE_LOOP('',(#224,#225,#226,#227));
#183=EDGE_LOOP('',(#228,#229,#230,#231));
#184=ORIENTED_EDGE('',*,*,#246,.T.);
#185=ORIENTED_EDGE('',*,*,#247,.T.);
#186=ORIENTED_EDGE('',*,*,#248,.F.);
#187=ORIENTED_EDGE('',*,*,#249,.F.);
#188=ORIENTED_EDGE('',*,*,#250,.F.);
#189=ORIENTED_EDGE('',*,*,#251,.T.);
#190=ORIENTED_EDGE('',*,*,#252,.F.);
#191=ORIENTED_EDGE('',*,*,#253,.F.);
#192=ORIENTED_EDGE('',*,*,#254,.F.);
#193=ORIENTED_EDGE('',*,*,#255,.T.);
#194=ORIENTED_EDGE('',*,*,#256,.F.);
#195=ORIENTED_EDGE('',*,*,#257,.F.);
#196=ORIENTED_EDGE('',*,*,#258,.F.);
#197=ORIENTED_EDGE('',*,*,#259,.T.);
#198=ORIENTED_EDGE('',*,*,#247,.F.);
#199=ORIENTED_EDGE('',*,*,#260,.F.);
#200=ORIENTED_EDGE('',*,*,#256,.T.);
#201=ORIENTED_EDGE('',*,*,#261,.T.);
#202=ORIENTED_EDGE('',*,*,#254,.T.);
#203=ORIENTED_EDGE('',*,*,#262,.F.);
#204=ORIENTED_EDGE('',*,*,#250,.T.);
#205=ORIENTED_EDGE('',*,*,#263,.T.);
#206=ORIENTED_EDGE('',*,*,#262,.T.);
#207=ORIENTED_EDGE('',*,*,#264,.T.);
#208=ORIENTED_EDGE('',*,*,#263,.F.);
#209=ORIENTED_EDGE('',*,*,#265,.T.);
#210=ORIENTED_EDGE('',*,*,#266,.T.);
#211=ORIENTED_EDGE('',*,*,#252,.T.);
#212=ORIENTED_EDGE('',*,*,#267,.T.);
#213=ORIENTED_EDGE('',*,*,#248,.T.);
#214=ORIENTED_EDGE('',*,*,#258,.T.);
#215=ORIENTED_EDGE('',*,*,#268,.T.);
#216=ORIENTED_EDGE('',*,*,#260,.T.);
#217=ORIENTED_EDGE('',*,*,#246,.F.);
#218=ORIENTED_EDGE('',*,*,#261,.F.);
#219=ORIENTED_EDGE('',*,*,#269,.T.);
#220=ORIENTED_EDGE('',*,*,#257,.T.);
#221=ORIENTED_EDGE('',*,*,#269,.F.);
#222=ORIENTED_EDGE('',*,*,#259,.F.);
#223=ORIENTED_EDGE('',*,*,#268,.F.);
#224=ORIENTED_EDGE('',*,*,#253,.T.);
#225=ORIENTED_EDGE('',*,*,#266,.F.);
#226=ORIENTED_EDGE('',*,*,#255,.F.);
#227=ORIENTED_EDGE('',*,*,#264,.F.);
#228=ORIENTED_EDGE('',*,*,#249,.T.);
#229=ORIENTED_EDGE('',*,*,#267,.F.);
#230=ORIENTED_EDGE('',*,*,#251,.F.);
#231=ORIENTED_EDGE('',*,*,#265,.F.);
#232=VERTEX_POINT('',#413);
#233=VERTEX_POINT('',#414);
#234=VERTEX_POINT('',#418);
#235=VERTEX_POINT('',#419);
#236=VERTEX_POINT('',#421);
#237=VERTEX_POINT('',#423);
#238=VERTEX_POINT('',#427);
#239=VERTEX_POINT('',#428);
#240=VERTEX_POINT('',#430);
#241=VERTEX_POINT('',#432);
#242=VERTEX_POINT('',#436);
#243=VERTEX_POINT('',#437);
#244=VERTEX_POINT('',#439);
#245=VERTEX_POINT('',#441);
#246=EDGE_CURVE('',#232,#233,#270,.T.);
#247=EDGE_CURVE('',#233,#232,#271,.T.);
#248=EDGE_CURVE('',#234,#235,#272,.T.);
#249=EDGE_CURVE('',#236,#234,#122,.T.);
#250=EDGE_CURVE('',#237,#236,#273,.T.);
#251=EDGE_CURVE('',#237,#235,#123,.T.);
#252=EDGE_CURVE('',#238,#239,#274,.T.);
#253=EDGE_CURVE('',#240,#238,#124,.T.);
#254=EDGE_CURVE('',#241,#240,#275,.T.);
#255=EDGE_CURVE('',#241,#239,#125,.T.);
#256=EDGE_CURVE('',#242,#243,#276,.T.);
#257=EDGE_CURVE('',#244,#242,#126,.T.);
#258=EDGE_CURVE('',#245,#244,#277,.T.);
#259=EDGE_CURVE('',#245,#243,#127,.T.);
#260=EDGE_CURVE('',#242,#233,#128,.T.);
#261=EDGE_CURVE('',#243,#232,#129,.T.);
#262=EDGE_CURVE('',#237,#240,#130,.T.);
#263=EDGE_CURVE('',#236,#241,#131,.T.);
#264=EDGE_CURVE('',#240,#241,#278,.T.);
#265=EDGE_CURVE('',#236,#237,#279,.T.);
#266=EDGE_CURVE('',#239,#238,#280,.T.);
#267=EDGE_CURVE('',#235,#234,#281,.T.);
#268=EDGE_CURVE('',#244,#245,#282,.T.);
#269=EDGE_CURVE('',#243,#242,#283,.T.);
#270=CIRCLE('',#309,4.25);
#271=CIRCLE('',#310,4.25);
#272=CIRCLE('',#312,7.50000000000003);
#273=CIRCLE('',#313,8.);
#274=CIRCLE('',#315,7.00000000000003);
#275=CIRCLE('',#316,8.);
#276=CIRCLE('',#318,4.25);
#277=CIRCLE('',#319,5.25000000000006);
#278=CIRCLE('',#323,8.);
#279=CIRCLE('',#324,8.);
#280=CIRCLE('',#326,7.00000000000003);
#281=CIRCLE('',#328,7.50000000000003);
#282=CIRCLE('',#329,5.25000000000006);
#283=CIRCLE('',#331,4.25);
#284=INVISIBILITY((#285,#286,#287,#288));
#285=PRESENTATION_LAYER_ASSIGNMENT('100','Layer 100',(#306));
#286=PRESENTATION_LAYER_ASSIGNMENT('101','Layer 101',(#307));
#287=PRESENTATION_LAYER_ASSIGNMENT('102','Layer 102',(#308));
#288=PRESENTATION_LAYER_ASSIGNMENT('98','Layer 98',(#108));
#289=STYLED_ITEM('',(#293),#306);
#290=STYLED_ITEM('',(#294),#307);
#291=STYLED_ITEM('',(#295),#308);
#292=STYLED_ITEM('',(#296),#108);
#293=PRESENTATION_STYLE_ASSIGNMENT((#297));
#294=PRESENTATION_STYLE_ASSIGNMENT((#298));
#295=PRESENTATION_STYLE_ASSIGNMENT((#299));
#296=PRESENTATION_STYLE_ASSIGNMENT((#103));
#297=CURVE_STYLE('',#302,POSITIVE_LENGTH_MEASURE(0.7),#300);
#298=CURVE_STYLE('',#303,POSITIVE_LENGTH_MEASURE(0.7),#300);
#299=CURVE_STYLE('',#304,POSITIVE_LENGTH_MEASURE(0.7),#300);
#300=COLOUR_RGB('Medium Maroon',0.6,0.4,0.4);
#301=COLOUR_RGB('Silver Gray',0.6,0.6,0.6);
#302=DRAUGHTING_PRE_DEFINED_CURVE_FONT('continuous');
#303=DRAUGHTING_PRE_DEFINED_CURVE_FONT('continuous');
#304=DRAUGHTING_PRE_DEFINED_CURVE_FONT('continuous');
#305=AXIS2_PLACEMENT_3D('',#408,#336,#337);
#306=AXIS2_PLACEMENT_3D('PCS',#409,#338,#339);
#307=AXIS2_PLACEMENT_3D('CSW',#410,#340,#341);
#308=AXIS2_PLACEMENT_3D('MCS',#411,#342,#343);
#309=AXIS2_PLACEMENT_3D('',#412,#344,#345);
#310=AXIS2_PLACEMENT_3D('',#415,#346,#347);
#311=AXIS2_PLACEMENT_3D('',#416,#348,#349);
#312=AXIS2_PLACEMENT_3D('',#417,#350,#351);
#313=AXIS2_PLACEMENT_3D('',#422,#353,#354);
#314=AXIS2_PLACEMENT_3D('',#425,#356,#357);
#315=AXIS2_PLACEMENT_3D('',#426,#358,#359);
#316=AXIS2_PLACEMENT_3D('',#431,#361,#362);
#317=AXIS2_PLACEMENT_3D('',#434,#364,#365);
#318=AXIS2_PLACEMENT_3D('',#435,#366,#367);
#319=AXIS2_PLACEMENT_3D('',#440,#369,#370);
#320=AXIS2_PLACEMENT_3D('',#443,#372,#373);
#321=AXIS2_PLACEMENT_3D('',#446,#376,#377);
#322=AXIS2_PLACEMENT_3D('',#449,#380,#381);
#323=AXIS2_PLACEMENT_3D('',#450,#382,#383);
#324=AXIS2_PLACEMENT_3D('',#451,#384,#385);
#325=AXIS2_PLACEMENT_3D('',#452,#386,#387);
#326=AXIS2_PLACEMENT_3D('',#453,#388,#389);
#327=AXIS2_PLACEMENT_3D('',#454,#390,#391);
#328=AXIS2_PLACEMENT_3D('',#455,#392,#393);
#329=AXIS2_PLACEMENT_3D('',#456,#394,#395);
#330=AXIS2_PLACEMENT_3D('',#457,#396,#397);
#331=AXIS2_PLACEMENT_3D('',#458,#398,#399);
#332=AXIS2_PLACEMENT_3D('',#459,#400,#401);
#333=AXIS2_PLACEMENT_3D('',#460,#402,#403);
#334=AXIS2_PLACEMENT_3D('',#461,#404,#405);
#335=AXIS2_PLACEMENT_3D('',#462,#406,#407);
#336=DIRECTION('',(0.,0.,1.));
#337=DIRECTION('',(1.,0.,0.));
#338=DIRECTION('',(0.,0.,1.));
#339=DIRECTION('',(1.,0.,0.));
#340=DIRECTION('',(0.,0.,1.));
#341=DIRECTION('',(1.,0.,0.));
#342=DIRECTION('',(0.,0.,1.));
#343=DIRECTION('',(1.,0.,0.));
#344=DIRECTION('',(0.,0.,-1.));
#345=DIRECTION('',(-1.,0.,0.));
#346=DIRECTION('',(0.,0.,-1.));
#347=DIRECTION('',(-1.,0.,0.));
#348=DIRECTION('',(0.,0.,1.));
#349=DIRECTION('',(1.,0.,0.));
#350=DIRECTION('',(0.,0.,-1.));
#351=DIRECTION('',(-1.,0.,0.));
#352=DIRECTION('',(0.707106781186543,-8.65956056235487E-17,-0.707106781186552));
#353=DIRECTION('',(0.,0.,1.));
#354=DIRECTION('',(-1.,0.,0.));
#355=DIRECTION('',(-0.707106781186543,0.,-0.707106781186552));
#356=DIRECTION('',(0.,0.,1.));
#357=DIRECTION('',(-1.,0.,0.));
#358=DIRECTION('',(0.,0.,1.));
#359=DIRECTION('',(-1.,0.,0.));
#360=DIRECTION('',(-0.707106781186535,-8.65956056235478E-17,0.70710678118656));
#361=DIRECTION('',(0.,0.,-1.));
#362=DIRECTION('',(-1.,0.,0.));
#363=DIRECTION('',(0.707106781186535,0.,0.70710678118656));
#364=DIRECTION('',(0.,0.,-1.));
#365=DIRECTION('',(1.,0.,1.10141173077896E-16));
#366=DIRECTION('',(0.,0.,-1.));
#367=DIRECTION('',(-1.,0.,0.));
#368=DIRECTION('',(-0.866025403784433,-1.0605752387249E-16,0.500000000000009));
#369=DIRECTION('',(0.,0.,1.));
#370=DIRECTION('',(-1.,0.,0.));
#371=DIRECTION('',(0.866025403784433,0.,0.500000000000009));
#372=DIRECTION('',(0.,0.,-1.));
#373=DIRECTION('',(1.,0.,1.59854649002279E-17));
#374=DIRECTION('',(0.,0.,1.));
#375=DIRECTION('',(0.,0.,1.));
#376=DIRECTION('',(0.,0.,-1.));
#377=DIRECTION('',(1.,0.,0.));
#378=DIRECTION('',(0.,0.,1.));
#379=DIRECTION('',(0.,0.,1.));
#380=DIRECTION('',(0.,0.,-1.));
#381=DIRECTION('',(1.,0.,0.));
#382=DIRECTION('',(0.,0.,-1.));
#383=DIRECTION('',(-1.,0.,0.));
#384=DIRECTION('',(0.,0.,1.));
#385=DIRECTION('',(-1.,0.,0.));
#386=DIRECTION('',(0.,0.,-1.));
#387=DIRECTION('',(1.,0.,0.));
#388=DIRECTION('',(0.,0.,1.));
#389=DIRECTION('',(-1.,0.,0.));
#390=DIRECTION('',(0.,0.,-1.));
#391=DIRECTION('',(1.,0.,0.));
#392=DIRECTION('',(0.,0.,-1.));
#393=DIRECTION('',(-1.,0.,0.));
#394=DIRECTION('',(0.,0.,1.));
#395=DIRECTION('',(-1.,0.,0.));
#396=DIRECTION('',(0.,0.,-1.));
#397=DIRECTION('',(1.,0.,0.));
#398=DIRECTION('',(0.,0.,-1.));
#399=DIRECTION('',(-1.,0.,0.));
#400=DIRECTION('',(0.,0.,-1.));
#401=DIRECTION('',(1.,0.,0.));
#402=DIRECTION('',(0.,0.,-1.));
#403=DIRECTION('',(1.,0.,1.59854649002279E-17));
#404=DIRECTION('',(0.,0.,-1.));
#405=DIRECTION('',(1.,0.,1.10141173077896E-16));
#406=DIRECTION('',(0.,0.,1.));
#407=DIRECTION('',(-1.,0.,0.));
#408=CARTESIAN_POINT('',(0.,0.,0.));
#409=CARTESIAN_POINT('',(0.,0.,0.));
#410=CARTESIAN_POINT('',(0.,0.,-250.));
#411=CARTESIAN_POINT('',(0.,0.,-48.));
#412=CARTESIAN_POINT('',(0.,2.45900989836716E-33,-243.));
#413=CARTESIAN_POINT('',(-4.25,2.45900989836716E-33,-243.));
#414=CARTESIAN_POINT('',(4.25,5.20474889637625E-16,-243.));
#415=CARTESIAN_POINT('',(0.,2.45900989836716E-33,-243.));
#416=CARTESIAN_POINT('',(0.,2.45900989836716E-33,-243.));
#417=CARTESIAN_POINT('',(0.,2.45900989836716E-33,-250.));
#418=CARTESIAN_POINT('',(-7.50000000000003,9.49101269339201E-16,-250.));
#419=CARTESIAN_POINT('',(7.50000000000003,2.45900989836716E-33,-250.));
#420=CARTESIAN_POINT('',(-7.50000000000003,9.18485099360519E-16,-250.));
#421=CARTESIAN_POINT('',(-8.,2.45900989836716E-33,-249.5));
#422=CARTESIAN_POINT('',(0.,2.45900989836716E-33,-249.5));
#423=CARTESIAN_POINT('',(8.,9.79717439317883E-16,-249.5));
#424=CARTESIAN_POINT('',(7.50000000000003,2.45900989836716E-33,-250.));
#425=CARTESIAN_POINT('',(0.,2.45900989836716E-33,-250.));
#426=CARTESIAN_POINT('',(0.,2.45900989836716E-33,0.));
#427=CARTESIAN_POINT('',(7.00000000000003,9.18485099360517E-16,0.));
#428=CARTESIAN_POINT('',(-7.00000000000003,2.45900989836716E-33,0.));
#429=CARTESIAN_POINT('',(8.,9.79717439317883E-16,-1.));
#430=CARTESIAN_POINT('',(8.,9.79717439317883E-16,-1.));
#431=CARTESIAN_POINT('',(0.,2.45900989836716E-33,-1.));
#432=CARTESIAN_POINT('',(-8.,2.45900989836716E-33,-1.));
#433=CARTESIAN_POINT('',(-8.,2.45900989836716E-33,-1.));
#434=CARTESIAN_POINT('',(0.,2.45900989836716E-33,-1.));
#435=CARTESIAN_POINT('',(0.,2.45900989836716E-33,-249.42264973081));
#436=CARTESIAN_POINT('',(4.25,5.20474889637625E-16,-249.42264973081));
#437=CARTESIAN_POINT('',(-4.25,2.45900989836716E-33,-249.42264973081));
#438=CARTESIAN_POINT('',(4.25,5.20474889637625E-16,-249.42264973081));
#439=CARTESIAN_POINT('',(5.25000000000006,6.42939569552368E-16,-250.));
#440=CARTESIAN_POINT('',(0.,2.45900989836716E-33,-250.));
#441=CARTESIAN_POINT('',(-5.25000000000006,2.45900989836716E-33,-250.));
#442=CARTESIAN_POINT('',(-4.25,2.45900989836716E-33,-249.42264973081));
#443=CARTESIAN_POINT('',(0.,2.45900989836716E-33,-249.42264973081));
#444=CARTESIAN_POINT('',(4.25,5.20474889637625E-16,-243.));
#445=CARTESIAN_POINT('',(-4.25,2.45900989836716E-33,-243.));
#446=CARTESIAN_POINT('',(0.,2.45900989836716E-33,-243.));
#447=CARTESIAN_POINT('',(8.,9.79717439317883E-16,0.));
#448=CARTESIAN_POINT('',(-8.,2.45900989836716E-33,0.));
#449=CARTESIAN_POINT('',(0.,2.45900989836716E-33,0.));
#450=CARTESIAN_POINT('',(0.,2.45900989836716E-33,-1.));
#451=CARTESIAN_POINT('',(0.,2.45900989836716E-33,-249.5));
#452=CARTESIAN_POINT('',(0.,2.45900989836716E-33,0.));
#453=CARTESIAN_POINT('',(0.,2.45900989836716E-33,0.));
#454=CARTESIAN_POINT('',(0.,2.45900989836716E-33,0.));
#455=CARTESIAN_POINT('',(0.,2.45900989836716E-33,-250.));
#456=CARTESIAN_POINT('',(0.,2.45900989836716E-33,-250.));
#457=CARTESIAN_POINT('',(0.,2.45900989836716E-33,-250.));
#458=CARTESIAN_POINT('',(0.,2.45900989836716E-33,-249.42264973081));
#459=CARTESIAN_POINT('',(0.,2.45900989836716E-33,-243.));
#460=CARTESIAN_POINT('',(0.,2.45900989836716E-33,-249.42264973081));
#461=CARTESIAN_POINT('',(0.,2.45900989836716E-33,-1.));
#462=CARTESIAN_POINT('',(0.,2.45900989836716E-33,-250.));
#463=MECHANICAL_DESIGN_GEOMETRIC_PRESENTATION_REPRESENTATION('',(#289,#290,
#291,#292),#464);
#464=(
GEOMETRIC_REPRESENTATION_CONTEXT(3)
GLOBAL_UNCERTAINTY_ASSIGNED_CONTEXT((#465))
GLOBAL_UNIT_ASSIGNED_CONTEXT((#471,#467,#466))
REPRESENTATION_CONTEXT('204697917ndi000_00','TOP_LEVEL_ASSEMBLY_PART')
);
#465=UNCERTAINTY_MEASURE_WITH_UNIT(LENGTH_MEASURE(2.E-5),#471,
'DISTANCE_ACCURACY_VALUE','Maximum Tolerance applied to model');
#466=(
NAMED_UNIT(*)
SI_UNIT($,.STERADIAN.)
SOLID_ANGLE_UNIT()
);
#467=(
CONVERSION_BASED_UNIT('DEGREE',#469)
NAMED_UNIT(#468)
PLANE_ANGLE_UNIT()
);
#468=DIMENSIONAL_EXPONENTS(0.,0.,0.,0.,0.,0.,0.);
#469=PLANE_ANGLE_MEASURE_WITH_UNIT(PLANE_ANGLE_MEASURE(0.0174532925),#470);
#470=(
NAMED_UNIT(*)
PLANE_ANGLE_UNIT()
SI_UNIT($,.RADIAN.)
);
#471=(
LENGTH_UNIT()
NAMED_UNIT(*)
SI_UNIT(.MILLI.,.METRE.)
);
ENDSEC;
END-ISO-10303-21;
